  0
SECTION
  2
HEADER
  9
$ACADVER
  1
AC1014
  9
$ACADMAINTVER
 70
             0
  9
$DWGCODEPAGE
  3
ANSI_1252
  9
$INSBASE
 10
0.0
 20
0.0
 30
0.0
  9
$EXTMIN
 10
1.00000000000000E+20
 20
1.00000000000000E+20
 30
1.00000000000000E+20
  9
$EXTMAX
 10
-1.00000000000000E+20
 20
-1.00000000000000E+20
 30
-1.00000000000000E+20
  9
$LIMMIN
 10
0.0
 20
0.0
  9
$LIMMAX
 10
0.0
 20
0.0
  9
$ORTHOMODE
 70
             0
  9
$REGENMODE
 70
             1
  9
$FILLMODE
 70
             1
  9
$QTEXTMODE
 70
             0
  9
$MIRRTEXT
 70
             1
  9
$DRAGMODE
 70
             2
  9
$LTSCALE
 40
1.0
  9
$OSMODE
 70
             0
  9
$ATTMODE
 70
             1
  9
$TEXTSIZE
 40
0.2
  9
$TRACEWID
 40
0.05
  9
$TEXTSTYLE
  7
STANDARD
  9
$CLAYER
  8
0
  9
$CELTYPE
  6
CONTINUOUS
  9
$CECOLOR
 62
           256
  9
$CELTSCALE
 40
1.0
  9
$DELOBJ
 70
             1
  9
$DISPSILH
 70
             0
  9
$DIMSCALE
 40
1.0
  9
$DIMASZ
 40
0.18
  9
$DIMEXO
 40
0.0625
  9
$DIMDLI
 40
0.38
  9
$DIMRND
 40
0.0
  9
$DIMDLE
 40
0.0
  9
$DIMEXE
 40
0.18
  9
$DIMTP
 40
0.0
  9
$DIMTM
 40
0.0
  9
$DIMTXT
 40
0.18
  9
$DIMCEN
 40
0.09
  9
$DIMTSZ
 40
0.0
  9
$DIMTOL
 70
             0
  9
$DIMLIM
 70
             0
  9
$DIMTIH
 70
             1
  9
$DIMTOH
 70
             1
  9
$DIMSE1
 70
             0
  9
$DIMSE2
 70
             0
  9
$DIMTAD
 70
             0
  9
$DIMZIN
 70
             0
  9
$DIMBLK
  1

  9
$DIMASO
 70
             1
  9
$DIMSHO
 70
             1
  9
$DIMPOST
  1

  9
$DIMAPOST
  1

  9
$DIMALT
 70
             0
  9
$DIMALTD
 70
             2
  9
$DIMALTF
 40
25.4
  9
$DIMLFAC
 40
1.0
  9
$DIMTOFL
 70
             0
  9
$DIMTVP
 40
0.0
  9
$DIMTIX
 70
             0
  9
$DIMSOXD
 70
             0
  9
$DIMSAH
 70
             0
  9
$DIMBLK1
  1

  9
$DIMBLK2
  1

  9
$DIMSTYLE
  2
STANDARD
  9
$DIMCLRD
 70
             0
  9
$DIMCLRE
 70
             0
  9
$DIMCLRT
 70
             0
  9
$DIMTFAC
 40
1.0
  9
$DIMGAP
 40
0.09
  9
$DIMJUST
 70
             0
  9
$DIMSD1
 70
             0
  9
$DIMSD2
 70
             0
  9
$DIMTOLJ
 70
             1
  9
$DIMTZIN
 70
             0
  9
$DIMALTZ
 70
             0
  9
$DIMALTTZ
 70
             0
  9
$DIMFIT
 70
             3
  9
$DIMUPT
 70
             0
  9
$DIMUNIT
 70
             2
  9
$DIMDEC
 70
             4
  9
$DIMTDEC
 70
             4
  9
$DIMALTU
 70
             2
  9
$DIMALTTD
 70
             2
  9
$DIMTXSTY
  7
STANDARD
  9
$DIMAUNIT
 70
             0
  9
$LUNITS
 70
             2
  9
$LUPREC
 70
             4
  9
$SKETCHINC
 40
0.1
  9
$FILLETRAD
 40
0.0
  9
$AUNITS
 70
             0
  9
$AUPREC
 70
             0
  9
$MENU
  1
acad
  9
$ELEVATION
 40
0.0
  9
$PELEVATION
 40
0.0
  9
$THICKNESS
 40
0.0
  9
$LIMCHECK
 70
             0
  9
$BLIPMODE
 70
             1
  9
$CHAMFERA
 40
0.0
  9
$CHAMFERB
 40
0.0
  9
$CHAMFERC
 40
0.0
  9
$CHAMFERD
 40
0.0
  9
$SKPOLY
 70
             0
  9
$TDCREATE
 40
0.000000000
  9
$TDUPDATE
 40
0.000000000
  9
$TDINDWG
 40
0.0000000000
  9
$TDUSRTIMER
 40
0.0000000000
  9
$USRTIMER
 70
             1
  9
$ANGBASE
 50
0.0
  9
$ANGDIR
 70
             0
  9
$PDMODE
 70
             0
  9
$PDSIZE
 40
0.0
  9
$PLINEWID
 40
0.0
  9
$COORDS
 70
             0
  9
$SPLFRAME
 70
             0
  9
$SPLINETYPE
 70
             6
  9
$SPLINESEGS
 70
             8
  9
$ATTDIA
 70
             0
  9
$ATTREQ
 70
             1
  9
$HANDLING
 70
             1
  9
$HANDSEED
  5
28C
  9
$SURFTAB1
 70
             6
  9
$SURFTAB2
 70
             6
  9
$SURFTYPE
 70
             6
  9
$SURFU
 70
             6
  9
$SURFV
 70
             6
  9
$UCSNAME
  2

  9
$UCSORG
 10
0.0
 20
0.0
 30
0.0
  9
$UCSXDIR
 10
1.0
 20
0.0
 30
0.0
  9
$UCSYDIR
 10
0.0
 20
1.0
 30
0.0
  9
$PUCSNAME
  2

  9
$PUCSORG
 10
0.0
 20
0.0
 30
0.0
  9
$PUCSXDIR
 10
1.0
 20
0.0
 30
0.0
  9
$PUCSYDIR
 10
0.0
 20
1.0
 30
0.0
  9
$USERI1
 70
             0
  9
$USERI2
 70
             0
  9
$USERI3
 70
             0
  9
$USERI4
 70
             0
  9
$USERI5
 70
             0
  9
$USERR1
 40
11.6
  9
$USERR2
 40
0.0
  9
$USERR3
 40
0.0
  9
$USERR4
 40
0.0
  9
$USERR5
 40
0.0
  9
$WORLDVIEW
 70
             1
  9
$SHADEDGE
 70
             3
  9
$SHADEDIF
 70
            70
  9
$TILEMODE
 70
             1
  9
$MAXACTVP
 70
            16
  9
$PINSBASE
 10
0.0
 20
0.0
 30
0.0
  9
$PLIMCHECK
 70
             0
  9
$PEXTMIN
 10
1.00000000000000E+20
 20
1.00000000000000E+20
 30
1.00000000000000E+20
  9
$PEXTMAX
 10
-1.00000000000000E+20
 20
-1.00000000000000E+20
 30
-1.00000000000000E+20
  9
$PLIMMIN
 10
0.0
 20
0.0
  9
$PLIMMAX
 10
12.0
 20
9.0
  9
$UNITMODE
 70
             0
  9
$VISRETAIN
 70
             0
  9
$PLINEGEN
 70
             1
  9
$PSLTSCALE
 70
             0
  9
$TREEDEPTH
 70
          3020
  9
$PICKSTYLE
 70
             1
  9
$CMLSTYLE
  2
STANDARD
  9
$CMLJUST
 70
             0
  9
$CMLSCALE
 40
1.0
  9
$PROXYGRAPHICS
 70
             0
  9
$MEASUREMENT
 70
             1
  0
ENDSEC
  0
SECTION
  2
CLASSES
  0
CLASS
  1
LWPOLYLINE
  2
AcDbPolyline
  3
"AutoCAD"
 90
        0
280
             0
281
             1
  0
CLASS
  1
IMAGE
  2
AcDbRasterImage
  3
ISM
 90
      127
280
             0
281
             1
  0
CLASS
  1
OLE2FRAME
  2
AcDbOle2Frame
  3
""
 90
        0
280
             0
281
             1
  0
CLASS
  1
HATCH
  2
AcDbHatch
  3
"ACAD_SEDONA"
 90
        0
280
             0
281
             1
  0
CLASS
  1
DICTIONARYVAR
  2
AcDbDictionaryVar
  3
"AutoCAD"
 90
        0
280
             0
281
             0
  0
CLASS
  1
RASTERVARIABLES
  2
AcDbRasterVariables
  3
ISM
 90
        0
280
             0
281
             0
  0
CLASS
  1
IMAGEDEF
  2
AcDbRasterImageDef
  3
ISM
 90
        0
280
             0
281
             0
  0
CLASS
  1
IMAGEDEF_REACTOR
  2
AcDbRasterImageDefReactor
  3
ISM
 90
        1
280
             0
281
             0
  0
CLASS
  1
IDBUFFER
  2
AcDbIdBuffer
  3
"Acad"
 90
        0
280
             0
281
             0
  0
CLASS
  1
SPATIAL_FILTER
  2
AcDbSpatialFilter
  3
"Acad"
 90
        0
280
             0
281
             0
  0
CLASS
  1
XRECORD
  2
AcDbXrecord
  3
"<Built In>"
 90
        0
280
             0
281
             0
  0
CLASS
  1
SORTENTSTABLE
  2
AcDbSortentsTable
  3
"AutoCAD"
 90
        0
280
             0
281
             0
  0
CLASS
  1
LAYER_INDEX
  2
AcDbLayerIndex
  3
"Acad"
 90
        0
280
             0
281
             0
  0
CLASS
  1
SPATIAL_INDEX
  2
AcDbSpatialIndex
  3
"Acad"
 90
        0
280
             0
281
             0
  0
CLASS
  1
OBJECT_PTR
  2
CAseDLPNTableRecord
  3
"ASE-LPNTableRecord"
 90
        1
280
             0
281
             0
  0
CLASS
  1
LAYOUT
  2
AcDbLayout
  3
"AutoCAD 2000"
 90
        1
280
             0
281
             0
  0
CLASS
  1
PLOTSETTINGS
  2
AcDbPlotSettings
  3
"AutoCAD 2000"
 90
        1
280
             0
281
             0
  0
CLASS
  1
ACDBDICTIONARYWDFLT
  2
AcDbDictionaryWithDefault
  3
"AutoCAD 2000"
 90
        1
280
             0
281
             0
  0
CLASS
  1
ACDBPLACEHOLDER
  2
AcDbPlaceHolder
  3
"AutoCAD 2000"
 90
        1
280
             0
281
             0
  0
ENDSEC
  0
SECTION
  2
TABLES
  0
TABLE
  2
VPORT
  5
7
100
AcDbSymbolTable
 70
             1
  0
VPORT
  5
15
100
AcDbSymbolTableRecord
100
AcDbViewportTableRecord
  2
*ACTIVE
 70
             0
 10
0.0
 20
0.0
 11
1.0
 21
1.0
 12
7259.452978195588
 22
5266.4093360647057
 13
0.0
 23
0.0
 14
1.0
 24
1.0
 15
0.0
 25
0.0
 16
0.0
 26
0.0
 36
1.0
 17
0.0
 27
0.0
 37
0.0
 40
217.79999679705699
 41
1.60267857142857
 42
50.0
 43
0.0
 44
0.0
 50
0.0
 51
0.0
 71
             0
 72
           100
 73
             1
 74
             1
 75
             0
 76
             0
 77
             0
 78
             0
  0
ENDTAB
  0
TABLE
  2
LTYPE
  5
4
100
AcDbSymbolTable
 70
            11
  0
LTYPE
  5
11
100
AcDbSymbolTableRecord
100
AcDbLinetypeTableRecord
  2
BYBLOCK
 70
            64
  3

 72
            65
 73
             0
 40
0.0
  0
LTYPE
  5
12
100
AcDbSymbolTableRecord
100
AcDbLinetypeTableRecord
  2
BYLAYER
 70
            64
  3

 72
            65
 73
             0
 40
0.0
  0
LTYPE
  5
13
100
AcDbSymbolTableRecord
100
AcDbLinetypeTableRecord
  2
CONTINUOUS
 70
            64
  3
Solid line
 72
            65
 73
             0
 40
0.0
  0
LTYPE
  5
1D
100
AcDbSymbolTableRecord
100
AcDbLinetypeTableRecord
  2
DASHED
 70
            64
  3
Dashed
 72
            65
 73
             2
 40
15.0
 49
12.0
 74
             0
 49
-3.0
 74
             0
  0
LTYPE
  5
1E
100
AcDbSymbolTableRecord
100
AcDbLinetypeTableRecord
  2
DOTTED
 70
            64
  3
Dotted
 72
            65
 73
             2
 40
3.5
 49
0.5
 74
             0
 49
-3.0
 74
             0
  0
LTYPE
  5
1F
100
AcDbSymbolTableRecord
100
AcDbLinetypeTableRecord
  2
DOT_CENTER
 70
            64
  3
Dot_Center
 72
            65
 73
             4
 40
2.0
 49
1.25
 74
             0
 49
-0.25
 74
             0
 49
0.25
 74
             0
 49
-0.25
 74
             0
  0
LTYPE
  5
20
100
AcDbSymbolTableRecord
100
AcDbLinetypeTableRecord
  2
LONG_DASHED
 70
            64
  3
Long_Dashed
 72
            65
 73
             2
 40
2.0
 49
1.5
 74
             0
 49
-0.5
 74
             0
  0
LTYPE
  5
21
100
AcDbSymbolTableRecord
100
AcDbLinetypeTableRecord
  2
DASH_CENTER
 70
            64
  3
Dash_Center
 72
            65
 73
             4
 40
36.0
 49
24.0
 74
             0
 49
-3.0
 74
             0
 49
6.0
 74
             0
 49
-3.0
 74
             0
  0
LTYPE
  5
22
100
AcDbSymbolTableRecord
100
AcDbLinetypeTableRecord
  2
PHANTOM
 70
            64
  3
Phantom
 72
            65
 73
             6
 40
2.5
 49
1.25
 74
             0
 49
-0.25
 74
             0
 49
0.25
 74
             0
 49
-0.25
 74
             0
 49
0.25
 74
             0
 49
-0.25
 74
             0
  0
LTYPE
  5
23
100
AcDbSymbolTableRecord
100
AcDbLinetypeTableRecord
  2
CENTER_DASH_DASH
 70
            64
  3
Center_Dash_Dash
 72
            65
 73
             6
 40
22.0
 49
12.0
 74
             0
 49
-3.0
 74
             0
 49
0.5
 74
             0
 49
-3.0
 74
             0
 49
0.5
 74
             0
 49
-3.0
 74
             0
  0
LTYPE
  5
24
100
AcDbSymbolTableRecord
100
AcDbLinetypeTableRecord
  2
EXLTYPE3
 70
            64
  3
EXLTYPE3
 72
            65
 73
             4
 40
13.0
 49
10.0
 74
             0
 49
-1.0
 74
             0
 49
1.0
 74
             0
 49
-1.0
 74
             0
  0
ENDTAB
  0
TABLE
  2
LAYER
  5
2
100
AcDbSymbolTable
 70
             2
  0
LAYER
  5
14
100
AcDbSymbolTableRecord
100
AcDbLayerTableRecord
  2
0
 70
             0
 62
             7
  6
CONTINUOUS
  0
LAYER
  5
25
100
AcDbSymbolTableRecord
100
AcDbLayerTableRecord
  2
___E
 70
             0
 62
             7
  6
CONTINUOUS
  0
ENDTAB
  0
TABLE
  2
STYLE
  5
3
100
AcDbSymbolTable
 70
             1
  0
STYLE
  5
17
100
AcDbSymbolTableRecord
100
AcDbTextStyleTableRecord
  2
STANDARD
 70
             0
 40
0.0
 41
1.0
 50
0.0
 71
             0
 42
0.0
  3
txt
  4

  0
ENDTAB
  0
TABLE
  2
VIEW
  5
5
100
AcDbSymbolTable
 70
             0
  0
ENDTAB
  0
TABLE
  2
UCS
  5
6
100
AcDbSymbolTable
 70
             0
  0
ENDTAB
  0
TABLE
  2
APPID
  5
8
100
AcDbSymbolTable
 70
             1
  0
APPID
  5
16
100
AcDbSymbolTableRecord
100
AcDbRegAppTableRecord
  2
ACAD
 70
             0
  0
ENDTAB
  0
TABLE
  2
DIMSTYLE
  5
9
100
AcDbSymbolTable
 70
             1
  0
DIMSTYLE
105
18
100
AcDbSymbolTableRecord
100
AcDbDimStyleTableRecord
  2
STANDARD
 70
             0
  3

  4

  5

  6

  7

 40
1.0
 41
0.18
 42
0.0625
 43
0.38
 44
0.18
 45
0.0
 46
0.0
 47
0.0
 48
0.0
 71
             0
 72
             0
 73
             1
 74
             1
 75
             0
 76
             0
 77
             0
 78
             0
140
0.18
141
0.09
142
0.0
143
25.4
144
1.0
145
0.0
146
1.0
147
0.09
170
             0
171
             2
172
             0
173
             0
174
             0
175
             0
176
             0
177
             0
178
             0
270
             2
271
             4
272
             4
273
             2
274
             2
275
             0
280
             0
281
             0
282
             0
283
             1
284
             0
285
             0
286
             0
287
             0
288
             0
340
17
  0
ENDTAB
  0
TABLE
  2
BLOCK_RECORD
  5
1
100
AcDbSymbolTable
 70
             0
  0
BLOCK_RECORD
  5
A
100
AcDbSymbolTableRecord
100
AcDbBlockTableRecord
  2
*MODEL_SPACE
  0
BLOCK_RECORD
  5
B
100
AcDbSymbolTableRecord
100
AcDbBlockTableRecord
  2
*PAPER_SPACE
  0
ENDTAB
  0
ENDSEC
  0
SECTION
  2
BLOCKS
  0
BLOCK
  5
D
100
AcDbEntity
  8
0
100
AcDbBlockBegin
  2
*MODEL_SPACE
 70
             0
 10
0.0
 20
0.0
 30
0.0
  3
*MODEL_SPACE
  1

  0
ENDBLK
  5
E
100
AcDbEntity
  8
0
100
AcDbBlockEnd
  0
BLOCK
  5
F
100
AcDbEntity
 67
             1
  8
0
100
AcDbBlockBegin
  2
*PAPER_SPACE
 70
             0
 10
0.0
 20
0.0
 30
0.0
  3
*PAPER_SPACE
  1

  0
ENDBLK
  5
10
100
AcDbEntity
 67
             1
  8
0
100
AcDbBlockEnd
  0
ENDSEC
  0
SECTION
  2
ENTITIES
  0
LWPOLYLINE
  5
28A
100
AcDbEntity
  8
___E
  6
CONTINUOUS
 62
             7
100
AcDbPolyline
 90
       12
 70
             1
 10
7114.9529810852937
 20
5207.409337432352
 10
7114.9529810852937
 20
5351.4093353147064
 10
7114.9529810852937
 20
5351.4093353147064
 10
7180.9529801147064
 20
5351.4093353147064
 10
7180.9529801147064
 20
5351.4093353147064
 10
7180.9529801147064
 20
5207.409337432352
 10
7180.9529801147064
 20
5207.409337432352
 10
7114.9529810852937
 20
5207.409337432352
 10
7114.9529810852937
 20
5207.409337432352
 10
7114.9529810852937
 20
5207.409337432352
 10
7114.9529810852937
 20
5207.409337432352
 10
7114.9529810852937
 20
5207.409337432352
  0
LWPOLYLINE
  5
288
100
AcDbEntity
  8
___E
  6
CONTINUOUS
 62
             7
100
AcDbPolyline
 90
       12
 70
             1
 10
7123.7029804566173
 20
5216.4093372999996
 10
7123.7029804566173
 20
5289.909336219117
 10
7123.7029804566173
 20
5289.909336219117
 10
7137.2029802580873
 20
5289.909336219117
 10
7137.2029802580873
 20
5289.909336219117
 10
7137.2029802580873
 20
5216.4093372999996
 10
7137.2029802580873
 20
5216.4093372999996
 10
7123.7029804566173
 20
5216.4093372999996
 10
7123.7029804566173
 20
5216.4093372999996
 10
7123.7029804566173
 20
5216.4093372999996
 10
7123.7029804566173
 20
5216.4093372999996
 10
7123.7029804566173
 20
5216.4093372999996
  0
LWPOLYLINE
  5
286
100
AcDbEntity
  8
___E
  6
CONTINUOUS
 62
             7
100
AcDbPolyline
 90
       36
 70
             1
 10
7125.4529809308824
 20
5239.6593369580878
 10
7125.4529809308824
 20
5238.8593374698521
 10
7125.4529809308824
 20
5238.8593374698521
 10
7135.4529812838227
 20
5238.8593374698521
 10
7135.4529812838227
 20
5238.8593374698521
 10
7135.4529812838227
 20
5239.6593369580878
 10
7135.4529812838227
 20
5239.6593369580878
 10
7136.9529812617639
 20
5239.6593369580878
 10
7136.9529812617639
 20
5239.6593369580878
 10
7136.9529812617639
 20
5229.6593366051466
 10
7136.9529812617639
 20
5229.6593366051466
 10
7135.4529812838227
 20
5229.6593366051466
 10
7135.4529812838227
 20
5229.6593366051466
 10
7135.4529812838227
 20
5228.8593371169109
 10
7135.4529812838227
 20
5228.8593371169109
 10
7125.4529809308824
 20
5228.8593371169109
 10
7125.4529809308824
 20
5228.8593371169109
 10
7125.4529809308824
 20
5229.6593366051466
 10
7125.4529809308824
 20
5229.6593366051466
 10
7123.9529809529404
 20
5229.6593366051466
 10
7123.9529809529404
 20
5229.6593366051466
 10
7123.9529809529404
 20
5239.6593369580878
 10
7123.9529809529404
 20
5239.6593369580878
 10
7125.4529809308824
 20
5239.6593369580878
 10
7125.4529809308824
 20
5239.6593369580878
 10
7125.4529809308824
 20
5239.6593369580878
 10
7125.4529809308824
 20
5239.6593369580878
 10
7125.4529809308824
 20
5239.6593369580878
 10
7125.4529809308824
 20
5239.6593369580878
 10
7125.4529809308824
 20
5239.6593369580878
 10
7125.4529809308824
 20
5239.6593369580878
 10
7125.4529809308824
 20
5239.6593369580878
 10
7125.4529809308824
 20
5239.6593369580878
 10
7125.4529809308824
 20
5239.6593369580878
 10
7125.4529809308824
 20
5239.6593369580878
 10
7125.4529809308824
 20
5239.6593369580878
  0
LWPOLYLINE
  5
284
100
AcDbEntity
  8
___E
  6
CONTINUOUS
 62
             7
100
AcDbPolyline
 90
       15
 70
             0
 10
7136.9529812617639
 20
5236.6593370022056
 10
7135.4529812838227
 20
5236.6593370022056
 10
7135.4529812838227
 20
5236.6593370022056
 10
7135.4529812838227
 20
5237.4593364904404
 10
7135.4529812838227
 20
5237.4593364904404
 10
7125.4529809308824
 20
5237.4593364904404
 10
7125.4529809308824
 20
5237.4593364904404
 10
7125.4529809308824
 20
5236.6593370022056
 10
7125.4529809308824
 20
5236.6593370022056
 10
7123.9529809529404
 20
5236.6593370022056
 10
7123.9529809529404
 20
5236.6593370022056
 10
7123.9529809529404
 20
5236.6593370022056
 10
7123.9529809529404
 20
5236.6593370022056
 10
7123.9529809529404
 20
5236.6593370022056
 10
7123.9529809529404
 20
5236.6593370022056
  0
LWPOLYLINE
  5
282
100
AcDbEntity
  8
___E
  6
CONTINUOUS
 62
             7
100
AcDbPolyline
 90
       15
 70
             0
 10
7136.9529812617639
 20
5226.6593366492643
 10
7135.4529812838227
 20
5226.6593366492643
 10
7135.4529812838227
 20
5226.6593366492643
 10
7135.4529812838227
 20
5227.4593376374996
 10
7135.4529812838227
 20
5227.4593376374996
 10
7125.4529809308824
 20
5227.4593376374996
 10
7125.4529809308824
 20
5227.4593376374996
 10
7125.4529809308824
 20
5226.6593366492643
 10
7125.4529809308824
 20
5226.6593366492643
 10
7123.9529809529404
 20
5226.6593366492643
 10
7123.9529809529404
 20
5226.6593366492643
 10
7123.9529809529404
 20
5226.6593366492643
 10
7123.9529809529404
 20
5226.6593366492643
 10
7123.9529809529404
 20
5226.6593366492643
 10
7123.9529809529404
 20
5226.6593366492643
  0
LWPOLYLINE
  5
280
100
AcDbEntity
  8
___E
  6
CONTINUOUS
 62
             7
100
AcDbPolyline
 90
       21
 70
             0
 10
7136.9529812617639
 20
5219.6593377522049
 10
7136.9529812617639
 20
5216.6593377963227
 10
7136.9529812617639
 20
5216.6593377963227
 10
7135.4529812838227
 20
5216.6593377963227
 10
7135.4529812838227
 20
5216.6593377963227
 10
7135.4529812838227
 20
5217.4593372845584
 10
7135.4529812838227
 20
5217.4593372845584
 10
7125.4529809308824
 20
5217.4593372845584
 10
7125.4529809308824
 20
5217.4593372845584
 10
7125.4529809308824
 20
5216.6593377963227
 10
7125.4529809308824
 20
5216.6593377963227
 10
7123.9529809529404
 20
5216.6593377963227
 10
7123.9529809529404
 20
5216.6593377963227
 10
7123.9529809529404
 20
5219.6593377522049
 10
7123.9529809529404
 20
5219.6593377522049
 10
7123.9529809529404
 20
5219.6593377522049
 10
7123.9529809529404
 20
5219.6593377522049
 10
7123.9529809529404
 20
5219.6593377522049
 10
7123.9529809529404
 20
5219.6593377522049
 10
7123.9529809529404
 20
5219.6593377522049
 10
7123.9529809529404
 20
5219.6593377522049
  0
LWPOLYLINE
  5
27E
100
AcDbEntity
  8
___E
  6
CONTINUOUS
 62
             7
100
AcDbPolyline
 90
       36
 70
             1
 10
7130.9529813499994
 20
5225.6593376639703
 10
7130.9529813499994
 20
5223.6593366933821
 10
7130.9529813499994
 20
5223.6593366933821
 10
7132.952980820588
 20
5223.6593366933821
 10
7132.952980820588
 20
5223.6593366933821
 10
7132.952980820588
 20
5222.6593377080881
 10
7132.952980820588
 20
5222.6593377080881
 10
7130.9529813499994
 20
5222.6593377080881
 10
7130.9529813499994
 20
5222.6593377080881
 10
7130.9529813499994
 20
5220.6593367374999
 10
7130.9529813499994
 20
5220.6593367374999
 10
7129.9529808647048
 20
5220.6593367374999
 10
7129.9529808647048
 20
5220.6593367374999
 10
7129.9529808647048
 20
5222.6593377080881
 10
7129.9529808647048
 20
5222.6593377080881
 10
7127.9529813941172
 20
5222.6593377080881
 10
7127.9529813941172
 20
5222.6593377080881
 10
7127.9529813941172
 20
5223.6593366933821
 10
7127.9529813941172
 20
5223.6593366933821
 10
7129.9529808647048
 20
5223.6593366933821
 10
7129.9529808647048
 20
5223.6593366933821
 10
7129.9529808647048
 20
5225.6593376639703
 10
7129.9529808647048
 20
5225.6593376639703
 10
7130.9529813499994
 20
5225.6593376639703
 10
7130.9529813499994
 20
5225.6593376639703
 10
7130.9529813499994
 20
5225.6593376639703
 10
7130.9529813499994
 20
5225.6593376639703
 10
7130.9529813499994
 20
5225.6593376639703
 10
7130.9529813499994
 20
5225.6593376639703
 10
7130.9529813499994
 20
5225.6593376639703
 10
7130.9529813499994
 20
5225.6593376639703
 10
7130.9529813499994
 20
5225.6593376639703
 10
7130.9529813499994
 20
5225.6593376639703
 10
7130.9529813499994
 20
5225.6593376639703
 10
7130.9529813499994
 20
5225.6593376639703
 10
7130.9529813499994
 20
5225.6593376639703
  0
LWPOLYLINE
  5
27C
100
AcDbEntity
  8
___E
  6
CONTINUOUS
 62
             7
100
AcDbPolyline
 90
       36
 70
             1
 10
7130.9529813499994
 20
5235.659336516911
 10
7130.9529813499994
 20
5233.6593370463233
 10
7130.9529813499994
 20
5233.6593370463233
 10
7132.952980820588
 20
5233.6593370463233
 10
7132.952980820588
 20
5233.6593370463233
 10
7132.952980820588
 20
5232.6593365610288
 10
7132.952980820588
 20
5232.6593365610288
 10
7130.9529813499994
 20
5232.6593365610288
 10
7130.9529813499994
 20
5232.6593365610288
 10
7130.9529813499994
 20
5230.6593370904402
 10
7130.9529813499994
 20
5230.6593370904402
 10
7129.9529808647048
 20
5230.6593370904402
 10
7129.9529808647048
 20
5230.6593370904402
 10
7129.9529808647048
 20
5232.6593365610288
 10
7129.9529808647048
 20
5232.6593365610288
 10
7127.9529813941172
 20
5232.6593365610288
 10
7127.9529813941172
 20
5232.6593365610288
 10
7127.9529813941172
 20
5233.6593370463233
 10
7127.9529813941172
 20
5233.6593370463233
 10
7129.9529808647048
 20
5233.6593370463233
 10
7129.9529808647048
 20
5233.6593370463233
 10
7129.9529808647048
 20
5235.659336516911
 10
7129.9529808647048
 20
5235.659336516911
 10
7130.9529813499994
 20
5235.659336516911
 10
7130.9529813499994
 20
5235.659336516911
 10
7130.9529813499994
 20
5235.659336516911
 10
7130.9529813499994
 20
5235.659336516911
 10
7130.9529813499994
 20
5235.659336516911
 10
7130.9529813499994
 20
5235.659336516911
 10
7130.9529813499994
 20
5235.659336516911
 10
7130.9529813499994
 20
5235.659336516911
 10
7130.9529813499994
 20
5235.659336516911
 10
7130.9529813499994
 20
5235.659336516911
 10
7130.9529813499994
 20
5235.659336516911
 10
7130.9529813499994
 20
5235.659336516911
 10
7130.9529813499994
 20
5235.659336516911
  0
LWPOLYLINE
  5
27A
100
AcDbEntity
  8
___E
  6
CONTINUOUS
 62
             7
100
AcDbPolyline
 90
       36
 70
             1
 10
7125.4529809308824
 20
5289.6593357227939
 10
7125.4529809308824
 20
5288.8593362345582
 10
7125.4529809308824
 20
5288.8593362345582
 10
7135.4529812838227
 20
5288.8593362345582
 10
7135.4529812838227
 20
5288.8593362345582
 10
7135.4529812838227
 20
5289.6593357227939
 10
7135.4529812838227
 20
5289.6593357227939
 10
7136.9529812617639
 20
5289.6593357227939
 10
7136.9529812617639
 20
5289.6593357227939
 10
7136.9529812617639
 20
5279.6593368698523
 10
7136.9529812617639
 20
5279.6593368698523
 10
7135.4529812838227
 20
5279.6593368698523
 10
7135.4529812838227
 20
5279.6593368698523
 10
7135.4529812838227
 20
5278.859335881617
 10
7135.4529812838227
 20
5278.859335881617
 10
7125.4529809308824
 20
5278.859335881617
 10
7125.4529809308824
 20
5278.859335881617
 10
7125.4529809308824
 20
5279.6593368698523
 10
7125.4529809308824
 20
5279.6593368698523
 10
7123.9529809529404
 20
5279.6593368698523
 10
7123.9529809529404
 20
5279.6593368698523
 10
7123.9529809529404
 20
5289.6593357227939
 10
7123.9529809529404
 20
5289.6593357227939
 10
7125.4529809308824
 20
5289.6593357227939
 10
7125.4529809308824
 20
5289.6593357227939
 10
7125.4529809308824
 20
5289.6593357227939
 10
7125.4529809308824
 20
5289.6593357227939
 10
7125.4529809308824
 20
5289.6593357227939
 10
7125.4529809308824
 20
5289.6593357227939
 10
7125.4529809308824
 20
5289.6593357227939
 10
7125.4529809308824
 20
5289.6593357227939
 10
7125.4529809308824
 20
5289.6593357227939
 10
7125.4529809308824
 20
5289.6593357227939
 10
7125.4529809308824
 20
5289.6593357227939
 10
7125.4529809308824
 20
5289.6593357227939
 10
7125.4529809308824
 20
5289.6593357227939
  0
LWPOLYLINE
  5
278
100
AcDbEntity
  8
___E
  6
CONTINUOUS
 62
             7
100
AcDbPolyline
 90
       15
 70
             0
 10
7136.9529812617639
 20
5286.6593357669117
 10
7135.4529812838227
 20
5286.6593357669117
 10
7135.4529812838227
 20
5286.6593357669117
 10
7135.4529812838227
 20
5287.459336755147
 10
7135.4529812838227
 20
5287.459336755147
 10
7125.4529809308824
 20
5287.459336755147
 10
7125.4529809308824
 20
5287.459336755147
 10
7125.4529809308824
 20
5286.6593357669117
 10
7125.4529809308824
 20
5286.6593357669117
 10
7123.9529809529404
 20
5286.6593357669117
 10
7123.9529809529404
 20
5286.6593357669117
 10
7123.9529809529404
 20
5286.6593357669117
 10
7123.9529809529404
 20
5286.6593357669117
 10
7123.9529809529404
 20
5286.6593357669117
 10
7123.9529809529404
 20
5286.6593357669117
  0
LWPOLYLINE
  5
276
100
AcDbEntity
  8
___E
  6
CONTINUOUS
 62
             7
100
AcDbPolyline
 90
       36
 70
             1
 10
7125.4529809308824
 20
5279.6593368698523
 10
7125.4529809308824
 20
5278.859335881617
 10
7125.4529809308824
 20
5278.859335881617
 10
7135.4529812838227
 20
5278.859335881617
 10
7135.4529812838227
 20
5278.859335881617
 10
7135.4529812838227
 20
5279.6593368698523
 10
7135.4529812838227
 20
5279.6593368698523
 10
7136.9529812617639
 20
5279.6593368698523
 10
7136.9529812617639
 20
5279.6593368698523
 10
7136.9529812617639
 20
5269.659336516911
 10
7136.9529812617639
 20
5269.659336516911
 10
7135.4529812838227
 20
5269.659336516911
 10
7135.4529812838227
 20
5269.659336516911
 10
7135.4529812838227
 20
5268.8593370286762
 10
7135.4529812838227
 20
5268.8593370286762
 10
7125.4529809308824
 20
5268.8593370286762
 10
7125.4529809308824
 20
5268.8593370286762
 10
7125.4529809308824
 20
5269.659336516911
 10
7125.4529809308824
 20
5269.659336516911
 10
7123.9529809529404
 20
5269.659336516911
 10
7123.9529809529404
 20
5269.659336516911
 10
7123.9529809529404
 20
5279.6593368698523
 10
7123.9529809529404
 20
5279.6593368698523
 10
7125.4529809308824
 20
5279.6593368698523
 10
7125.4529809308824
 20
5279.6593368698523
 10
7125.4529809308824
 20
5279.6593368698523
 10
7125.4529809308824
 20
5279.6593368698523
 10
7125.4529809308824
 20
5279.6593368698523
 10
7125.4529809308824
 20
5279.6593368698523
 10
7125.4529809308824
 20
5279.6593368698523
 10
7125.4529809308824
 20
5279.6593368698523
 10
7125.4529809308824
 20
5279.6593368698523
 10
7125.4529809308824
 20
5279.6593368698523
 10
7125.4529809308824
 20
5279.6593368698523
 10
7125.4529809308824
 20
5279.6593368698523
 10
7125.4529809308824
 20
5279.6593368698523
  0
LWPOLYLINE
  5
274
100
AcDbEntity
  8
___E
  6
CONTINUOUS
 62
             7
100
AcDbPolyline
 90
       15
 70
             0
 10
7136.9529812617639
 20
5276.65933691397
 10
7135.4529812838227
 20
5276.65933691397
 10
7135.4529812838227
 20
5276.65933691397
 10
7135.4529812838227
 20
5277.4593364022057
 10
7135.4529812838227
 20
5277.4593364022057
 10
7125.4529809308824
 20
5277.4593364022057
 10
7125.4529809308824
 20
5277.4593364022057
 10
7125.4529809308824
 20
5276.65933691397
 10
7125.4529809308824
 20
5276.65933691397
 10
7123.9529809529404
 20
5276.65933691397
 10
7123.9529809529404
 20
5276.65933691397
 10
7123.9529809529404
 20
5276.65933691397
 10
7123.9529809529404
 20
5276.65933691397
 10
7123.9529809529404
 20
5276.65933691397
 10
7123.9529809529404
 20
5276.65933691397
  0
LWPOLYLINE
  5
272
100
AcDbEntity
  8
___E
  6
CONTINUOUS
 62
             7
100
AcDbPolyline
 90
       36
 70
             1
 10
7130.9529813499994
 20
5275.6593364286764
 10
7130.9529813499994
 20
5273.6593369580878
 10
7130.9529813499994
 20
5273.6593369580878
 10
7132.952980820588
 20
5273.6593369580878
 10
7132.952980820588
 20
5273.6593369580878
 10
7132.952980820588
 20
5272.6593364727933
 10
7132.952980820588
 20
5272.6593364727933
 10
7130.9529813499994
 20
5272.6593364727933
 10
7130.9529813499994
 20
5272.6593364727933
 10
7130.9529813499994
 20
5270.6593370022056
 10
7130.9529813499994
 20
5270.6593370022056
 10
7129.9529808647048
 20
5270.6593370022056
 10
7129.9529808647048
 20
5270.6593370022056
 10
7129.9529808647048
 20
5272.6593364727933
 10
7129.9529808647048
 20
5272.6593364727933
 10
7127.9529813941172
 20
5272.6593364727933
 10
7127.9529813941172
 20
5272.6593364727933
 10
7127.9529813941172
 20
5273.6593369580878
 10
7127.9529813941172
 20
5273.6593369580878
 10
7129.9529808647048
 20
5273.6593369580878
 10
7129.9529808647048
 20
5273.6593369580878
 10
7129.9529808647048
 20
5275.6593364286764
 10
7129.9529808647048
 20
5275.6593364286764
 10
7130.9529813499994
 20
5275.6593364286764
 10
7130.9529813499994
 20
5275.6593364286764
 10
7130.9529813499994
 20
5275.6593364286764
 10
7130.9529813499994
 20
5275.6593364286764
 10
7130.9529813499994
 20
5275.6593364286764
 10
7130.9529813499994
 20
5275.6593364286764
 10
7130.9529813499994
 20
5275.6593364286764
 10
7130.9529813499994
 20
5275.6593364286764
 10
7130.9529813499994
 20
5275.6593364286764
 10
7130.9529813499994
 20
5275.6593364286764
 10
7130.9529813499994
 20
5275.6593364286764
 10
7130.9529813499994
 20
5275.6593364286764
 10
7130.9529813499994
 20
5275.6593364286764
  0
LWPOLYLINE
  5
270
100
AcDbEntity
  8
___E
  6
CONTINUOUS
 62
             7
100
AcDbPolyline
 90
       36
 70
             1
 10
7130.9529813499994
 20
5285.6593367816167
 10
7130.9529813499994
 20
5283.6593358110304
 10
7130.9529813499994
 20
5283.6593358110304
 10
7132.952980820588
 20
5283.6593358110304
 10
7132.952980820588
 20
5283.6593358110304
 10
7132.952980820588
 20
5282.6593368257354
 10
7132.952980820588
 20
5282.6593368257354
 10
7130.9529813499994
 20
5282.6593368257354
 10
7130.9529813499994
 20
5282.6593368257354
 10
7130.9529813499994
 20
5280.6593358551463
 10
7130.9529813499994
 20
5280.6593358551463
 10
7129.9529808647048
 20
5280.6593358551463
 10
7129.9529808647048
 20
5280.6593358551463
 10
7129.9529808647048
 20
5282.6593368257354
 10
7129.9529808647048
 20
5282.6593368257354
 10
7127.9529813941172
 20
5282.6593368257354
 10
7127.9529813941172
 20
5282.6593368257354
 10
7127.9529813941172
 20
5283.6593358110304
 10
7127.9529813941172
 20
5283.6593358110304
 10
7129.9529808647048
 20
5283.6593358110304
 10
7129.9529808647048
 20
5283.6593358110304
 10
7129.9529808647048
 20
5285.6593367816167
 10
7129.9529808647048
 20
5285.6593367816167
 10
7130.9529813499994
 20
5285.6593367816167
 10
7130.9529813499994
 20
5285.6593367816167
 10
7130.9529813499994
 20
5285.6593367816167
 10
7130.9529813499994
 20
5285.6593367816167
 10
7130.9529813499994
 20
5285.6593367816167
 10
7130.9529813499994
 20
5285.6593367816167
 10
7130.9529813499994
 20
5285.6593367816167
 10
7130.9529813499994
 20
5285.6593367816167
 10
7130.9529813499994
 20
5285.6593367816167
 10
7130.9529813499994
 20
5285.6593367816167
 10
7130.9529813499994
 20
5285.6593367816167
 10
7130.9529813499994
 20
5285.6593367816167
 10
7130.9529813499994
 20
5285.6593367816167
  0
LWPOLYLINE
  5
26E
100
AcDbEntity
  8
___E
  6
CONTINUOUS
 62
             7
100
AcDbPolyline
 90
       15
 70
             0
 10
7136.9529812617639
 20
5256.6593362080876
 10
7135.4529812838227
 20
5256.6593362080876
 10
7135.4529812838227
 20
5256.6593362080876
 10
7135.4529812838227
 20
5257.4593371963228
 10
7135.4529812838227
 20
5257.4593371963228
 10
7125.4529809308824
 20
5257.4593371963228
 10
7125.4529809308824
 20
5257.4593371963228
 10
7125.4529809308824
 20
5256.6593362080876
 10
7125.4529809308824
 20
5256.6593362080876
 10
7123.9529809529404
 20
5256.6593362080876
 10
7123.9529809529404
 20
5256.6593362080876
 10
7123.9529809529404
 20
5256.6593362080876
 10
7123.9529809529404
 20
5256.6593362080876
 10
7123.9529809529404
 20
5256.6593362080876
 10
7123.9529809529404
 20
5256.6593362080876
  0
LWPOLYLINE
  5
26C
100
AcDbEntity
  8
___E
  6
CONTINUOUS
 62
             7
100
AcDbPolyline
 90
       36
 70
             1
 10
7125.4529809308824
 20
5249.659337311029
 10
7125.4529809308824
 20
5248.8593363227938
 10
7125.4529809308824
 20
5248.8593363227938
 10
7135.4529812838227
 20
5248.8593363227938
 10
7135.4529812838227
 20
5248.8593363227938
 10
7135.4529812838227
 20
5249.659337311029
 10
7135.4529812838227
 20
5249.659337311029
 10
7136.9529812617639
 20
5249.659337311029
 10
7136.9529812617639
 20
5249.659337311029
 10
7136.9529812617639
 20
5239.6593369580878
 10
7136.9529812617639
 20
5239.6593369580878
 10
7135.4529812838227
 20
5239.6593369580878
 10
7135.4529812838227
 20
5239.6593369580878
 10
7135.4529812838227
 20
5238.8593374698521
 10
7135.4529812838227
 20
5238.8593374698521
 10
7125.4529809308824
 20
5238.8593374698521
 10
7125.4529809308824
 20
5238.8593374698521
 10
7125.4529809308824
 20
5239.6593369580878
 10
7125.4529809308824
 20
5239.6593369580878
 10
7123.9529809529404
 20
5239.6593369580878
 10
7123.9529809529404
 20
5239.6593369580878
 10
7123.9529809529404
 20
5249.659337311029
 10
7123.9529809529404
 20
5249.659337311029
 10
7125.4529809308824
 20
5249.659337311029
 10
7125.4529809308824
 20
5249.659337311029
 10
7125.4529809308824
 20
5249.659337311029
 10
7125.4529809308824
 20
5249.659337311029
 10
7125.4529809308824
 20
5249.659337311029
 10
7125.4529809308824
 20
5249.659337311029
 10
7125.4529809308824
 20
5249.659337311029
 10
7125.4529809308824
 20
5249.659337311029
 10
7125.4529809308824
 20
5249.659337311029
 10
7125.4529809308824
 20
5249.659337311029
 10
7125.4529809308824
 20
5249.659337311029
 10
7125.4529809308824
 20
5249.659337311029
 10
7125.4529809308824
 20
5249.659337311029
  0
LWPOLYLINE
  5
26A
100
AcDbEntity
  8
___E
  6
CONTINUOUS
 62
             7
100
AcDbPolyline
 90
       15
 70
             0
 10
7136.9529812617639
 20
5246.6593373551468
 10
7135.4529812838227
 20
5246.6593373551468
 10
7135.4529812838227
 20
5246.6593373551468
 10
7135.4529812838227
 20
5247.4593368433816
 10
7135.4529812838227
 20
5247.4593368433816
 10
7125.4529809308824
 20
5247.4593368433816
 10
7125.4529809308824
 20
5247.4593368433816
 10
7125.4529809308824
 20
5246.6593373551468
 10
7125.4529809308824
 20
5246.6593373551468
 10
7123.9529809529404
 20
5246.6593373551468
 10
7123.9529809529404
 20
5246.6593373551468
 10
7123.9529809529404
 20
5246.6593373551468
 10
7123.9529809529404
 20
5246.6593373551468
 10
7123.9529809529404
 20
5246.6593373551468
 10
7123.9529809529404
 20
5246.6593373551468
  0
LWPOLYLINE
  5
268
100
AcDbEntity
  8
___E
  6
CONTINUOUS
 62
             7
100
AcDbPolyline
 90
       36
 70
             1
 10
7130.9529813499994
 20
5245.6593368698523
 10
7130.9529813499994
 20
5243.6593373992637
 10
7130.9529813499994
 20
5243.6593373992637
 10
7132.952980820588
 20
5243.6593373992637
 10
7132.952980820588
 20
5243.6593373992637
 10
7132.952980820588
 20
5242.65933691397
 10
7132.952980820588
 20
5242.65933691397
 10
7130.9529813499994
 20
5242.65933691397
 10
7130.9529813499994
 20
5242.65933691397
 10
7130.9529813499994
 20
5240.6593374433814
 10
7130.9529813499994
 20
5240.6593374433814
 10
7129.9529808647048
 20
5240.6593374433814
 10
7129.9529808647048
 20
5240.6593374433814
 10
7129.9529808647048
 20
5242.65933691397
 10
7129.9529808647048
 20
5242.65933691397
 10
7127.9529813941172
 20
5242.65933691397
 10
7127.9529813941172
 20
5242.65933691397
 10
7127.9529813941172
 20
5243.6593373992637
 10
7127.9529813941172
 20
5243.6593373992637
 10
7129.9529808647048
 20
5243.6593373992637
 10
7129.9529808647048
 20
5243.6593373992637
 10
7129.9529808647048
 20
5245.6593368698523
 10
7129.9529808647048
 20
5245.6593368698523
 10
7130.9529813499994
 20
5245.6593368698523
 10
7130.9529813499994
 20
5245.6593368698523
 10
7130.9529813499994
 20
5245.6593368698523
 10
7130.9529813499994
 20
5245.6593368698523
 10
7130.9529813499994
 20
5245.6593368698523
 10
7130.9529813499994
 20
5245.6593368698523
 10
7130.9529813499994
 20
5245.6593368698523
 10
7130.9529813499994
 20
5245.6593368698523
 10
7130.9529813499994
 20
5245.6593368698523
 10
7130.9529813499994
 20
5245.6593368698523
 10
7130.9529813499994
 20
5245.6593368698523
 10
7130.9529813499994
 20
5245.6593368698523
 10
7130.9529813499994
 20
5245.6593368698523
  0
LWPOLYLINE
  5
266
100
AcDbEntity
  8
___E
  6
CONTINUOUS
 62
             7
100
AcDbPolyline
 90
       36
 70
             1
 10
7130.9529813499994
 20
5255.6593372227944
 10
7130.9529813499994
 20
5253.6593362522053
 10
7130.9529813499994
 20
5253.6593362522053
 10
7132.952980820588
 20
5253.6593362522053
 10
7132.952980820588
 20
5253.6593362522053
 10
7132.952980820588
 20
5252.6593372669113
 10
7132.952980820588
 20
5252.6593372669113
 10
7130.9529813499994
 20
5252.6593372669113
 10
7130.9529813499994
 20
5252.6593372669113
 10
7130.9529813499994
 20
5250.6593362963231
 10
7130.9529813499994
 20
5250.6593362963231
 10
7129.9529808647048
 20
5250.6593362963231
 10
7129.9529808647048
 20
5250.6593362963231
 10
7129.9529808647048
 20
5252.6593372669113
 10
7129.9529808647048
 20
5252.6593372669113
 10
7127.9529813941172
 20
5252.6593372669113
 10
7127.9529813941172
 20
5252.6593372669113
 10
7127.9529813941172
 20
5253.6593362522053
 10
7127.9529813941172
 20
5253.6593362522053
 10
7129.9529808647048
 20
5253.6593362522053
 10
7129.9529808647048
 20
5253.6593362522053
 10
7129.9529808647048
 20
5255.6593372227944
 10
7129.9529808647048
 20
5255.6593372227944
 10
7130.9529813499994
 20
5255.6593372227944
 10
7130.9529813499994
 20
5255.6593372227944
 10
7130.9529813499994
 20
5255.6593372227944
 10
7130.9529813499994
 20
5255.6593372227944
 10
7130.9529813499994
 20
5255.6593372227944
 10
7130.9529813499994
 20
5255.6593372227944
 10
7130.9529813499994
 20
5255.6593372227944
 10
7130.9529813499994
 20
5255.6593372227944
 10
7130.9529813499994
 20
5255.6593372227944
 10
7130.9529813499994
 20
5255.6593372227944
 10
7130.9529813499994
 20
5255.6593372227944
 10
7130.9529813499994
 20
5255.6593372227944
 10
7130.9529813499994
 20
5255.6593372227944
  0
LWPOLYLINE
  5
264
100
AcDbEntity
  8
___E
  6
CONTINUOUS
 62
             7
100
AcDbPolyline
 90
       15
 70
             0
 10
7136.9529812617639
 20
5266.6593365610288
 10
7135.4529812838227
 20
5266.6593365610288
 10
7135.4529812838227
 20
5266.6593365610288
 10
7135.4529812838227
 20
5267.4593360492654
 10
7135.4529812838227
 20
5267.4593360492654
 10
7125.4529809308824
 20
5267.4593360492654
 10
7125.4529809308824
 20
5267.4593360492654
 10
7125.4529809308824
 20
5266.6593365610288
 10
7125.4529809308824
 20
5266.6593365610288
 10
7123.9529809529404
 20
5266.6593365610288
 10
7123.9529809529404
 20
5266.6593365610288
 10
7123.9529809529404
 20
5266.6593365610288
 10
7123.9529809529404
 20
5266.6593365610288
 10
7123.9529809529404
 20
5266.6593365610288
 10
7123.9529809529404
 20
5266.6593365610288
  0
LWPOLYLINE
  5
262
100
AcDbEntity
  8
___E
  6
CONTINUOUS
 62
             7
100
AcDbPolyline
 90
       36
 70
             1
 10
7130.9529813499994
 20
5265.6593360757352
 10
7130.9529813499994
 20
5263.6593366051466
 10
7130.9529813499994
 20
5263.6593366051466
 10
7132.952980820588
 20
5263.6593366051466
 10
7132.952980820588
 20
5263.6593366051466
 10
7132.952980820588
 20
5262.659336119852
 10
7132.952980820588
 20
5262.659336119852
 10
7130.9529813499994
 20
5262.659336119852
 10
7130.9529813499994
 20
5262.659336119852
 10
7130.9529813499994
 20
5260.6593366492643
 10
7130.9529813499994
 20
5260.6593366492643
 10
7129.9529808647048
 20
5260.6593366492643
 10
7129.9529808647048
 20
5260.6593366492643
 10
7129.9529808647048
 20
5262.659336119852
 10
7129.9529808647048
 20
5262.659336119852
 10
7127.9529813941172
 20
5262.659336119852
 10
7127.9529813941172
 20
5262.659336119852
 10
7127.9529813941172
 20
5263.6593366051466
 10
7127.9529813941172
 20
5263.6593366051466
 10
7129.9529808647048
 20
5263.6593366051466
 10
7129.9529808647048
 20
5263.6593366051466
 10
7129.9529808647048
 20
5265.6593360757352
 10
7129.9529808647048
 20
5265.6593360757352
 10
7130.9529813499994
 20
5265.6593360757352
 10
7130.9529813499994
 20
5265.6593360757352
 10
7130.9529813499994
 20
5265.6593360757352
 10
7130.9529813499994
 20
5265.6593360757352
 10
7130.9529813499994
 20
5265.6593360757352
 10
7130.9529813499994
 20
5265.6593360757352
 10
7130.9529813499994
 20
5265.6593360757352
 10
7130.9529813499994
 20
5265.6593360757352
 10
7130.9529813499994
 20
5265.6593360757352
 10
7130.9529813499994
 20
5265.6593360757352
 10
7130.9529813499994
 20
5265.6593360757352
 10
7130.9529813499994
 20
5265.6593360757352
 10
7130.9529813499994
 20
5265.6593360757352
  0
LWPOLYLINE
  5
260
100
AcDbEntity
  8
___E
  6
CONTINUOUS
 62
             7
100
AcDbPolyline
 90
       36
 70
             1
 10
7125.4529809308824
 20
5259.6593361639698
 10
7125.4529809308824
 20
5258.859336675735
 10
7125.4529809308824
 20
5258.859336675735
 10
7135.4529812838227
 20
5258.859336675735
 10
7135.4529812838227
 20
5258.859336675735
 10
7135.4529812838227
 20
5259.6593361639698
 10
7135.4529812838227
 20
5259.6593361639698
 10
7136.9529812617639
 20
5259.6593361639698
 10
7136.9529812617639
 20
5259.6593361639698
 10
7136.9529812617639
 20
5249.659337311029
 10
7136.9529812617639
 20
5249.659337311029
 10
7135.4529812838227
 20
5249.659337311029
 10
7135.4529812838227
 20
5249.659337311029
 10
7135.4529812838227
 20
5248.8593363227938
 10
7135.4529812838227
 20
5248.8593363227938
 10
7125.4529809308824
 20
5248.8593363227938
 10
7125.4529809308824
 20
5248.8593363227938
 10
7125.4529809308824
 20
5249.659337311029
 10
7125.4529809308824
 20
5249.659337311029
 10
7123.9529809529404
 20
5249.659337311029
 10
7123.9529809529404
 20
5249.659337311029
 10
7123.9529809529404
 20
5259.6593361639698
 10
7123.9529809529404
 20
5259.6593361639698
 10
7125.4529809308824
 20
5259.6593361639698
 10
7125.4529809308824
 20
5259.6593361639698
 10
7125.4529809308824
 20
5259.6593361639698
 10
7125.4529809308824
 20
5259.6593361639698
 10
7125.4529809308824
 20
5259.6593361639698
 10
7125.4529809308824
 20
5259.6593361639698
 10
7125.4529809308824
 20
5259.6593361639698
 10
7125.4529809308824
 20
5259.6593361639698
 10
7125.4529809308824
 20
5259.6593361639698
 10
7125.4529809308824
 20
5259.6593361639698
 10
7125.4529809308824
 20
5259.6593361639698
 10
7125.4529809308824
 20
5259.6593361639698
 10
7125.4529809308824
 20
5259.6593361639698
  0
LWPOLYLINE
  5
25E
100
AcDbEntity
  8
___E
  6
CONTINUOUS
 62
             7
100
AcDbPolyline
 90
       36
 70
             1
 10
7125.4529809308824
 20
5269.659336516911
 10
7125.4529809308824
 20
5268.8593370286762
 10
7125.4529809308824
 20
5268.8593370286762
 10
7135.4529812838227
 20
5268.8593370286762
 10
7135.4529812838227
 20
5268.8593370286762
 10
7135.4529812838227
 20
5269.659336516911
 10
7135.4529812838227
 20
5269.659336516911
 10
7136.9529812617639
 20
5269.659336516911
 10
7136.9529812617639
 20
5269.659336516911
 10
7136.9529812617639
 20
5259.6593361639698
 10
7136.9529812617639
 20
5259.6593361639698
 10
7135.4529812838227
 20
5259.6593361639698
 10
7135.4529812838227
 20
5259.6593361639698
 10
7135.4529812838227
 20
5258.859336675735
 10
7135.4529812838227
 20
5258.859336675735
 10
7125.4529809308824
 20
5258.859336675735
 10
7125.4529809308824
 20
5258.859336675735
 10
7125.4529809308824
 20
5259.6593361639698
 10
7125.4529809308824
 20
5259.6593361639698
 10
7123.9529809529404
 20
5259.6593361639698
 10
7123.9529809529404
 20
5259.6593361639698
 10
7123.9529809529404
 20
5269.659336516911
 10
7123.9529809529404
 20
5269.659336516911
 10
7125.4529809308824
 20
5269.659336516911
 10
7125.4529809308824
 20
5269.659336516911
 10
7125.4529809308824
 20
5269.659336516911
 10
7125.4529809308824
 20
5269.659336516911
 10
7125.4529809308824
 20
5269.659336516911
 10
7125.4529809308824
 20
5269.659336516911
 10
7125.4529809308824
 20
5269.659336516911
 10
7125.4529809308824
 20
5269.659336516911
 10
7125.4529809308824
 20
5269.659336516911
 10
7125.4529809308824
 20
5269.659336516911
 10
7125.4529809308824
 20
5269.659336516911
 10
7125.4529809308824
 20
5269.659336516911
 10
7125.4529809308824
 20
5269.659336516911
  0
LWPOLYLINE
  5
25C
100
AcDbEntity
  8
___E
  6
CONTINUOUS
 62
             7
100
AcDbPolyline
 90
        6
 70
             0
 10
7129.2029808757343
 20
5324.4093357117654
 10
7129.2029808757343
 20
5312.4093358882346
 10
7129.2029808757343
 20
5312.4093358882346
 10
7128.2029803904406
 20
5312.4093358882346
 10
7128.2029803904406
 20
5312.4093358882346
 10
7128.2029803904406
 20
5312.4093358882346
  0
CIRCLE
  5
25A
100
AcDbEntity
  8
___E
  6
CONTINUOUS
 62
             7
100
AcDbCircle
 10
7154.9529809970581
 20
5191.4093371676463
 40
4.00000044117678
  0
CIRCLE
  5
259
100
AcDbEntity
  8
___E
  6
CONTINUOUS
 62
             7
100
AcDbCircle
 10
7140.9529802029401
 20
5191.4093371676463
 40
4.00000044117678
  0
CIRCLE
  5
258
100
AcDbEntity
  8
___E
  6
CONTINUOUS
 62
             7
100
AcDbCircle
 10
7167.952979805882
 20
5203.4093369911761
 40
3.70000044558765
  0
CIRCLE
  5
257
100
AcDbEntity
  8
___E
  6
CONTINUOUS
 62
             7
100
AcDbCircle
 10
7127.9529813941172
 20
5203.4093369911761
 40
3.70000044558765
  0
CIRCLE
  5
256
100
AcDbEntity
  8
___E
  6
CONTINUOUS
 62
             7
100
AcDbCircle
 10
7345.9529771588223
 20
5217.4093377852932
 40
4.00000044117587
  0
CIRCLE
  5
255
100
AcDbEntity
  8
___E
  6
CONTINUOUS
 62
             7
100
AcDbCircle
 10
7345.9529771588223
 20
5341.4093349617642
 40
4.00000044117587
  0
CIRCLE
  5
254
100
AcDbEntity
  8
___E
  6
CONTINUOUS
 62
             7
100
AcDbCircle
 10
7147.9529805999991
 20
5326.4093351823522
 40
2.99999995588223
  0
CIRCLE
  5
253
100
AcDbEntity
  8
___E
  6
CONTINUOUS
 62
             7
100
AcDbCircle
 10
7130.4529803573523
 20
5223.1593372007346
 40
4.00000044117678
  0
CIRCLE
  5
252
100
AcDbEntity
  8
___E
  6
CONTINUOUS
 62
             7
100
AcDbCircle
 10
7130.4529803573523
 20
5233.1593375536759
 40
4.00000044117678
  0
CIRCLE
  5
251
100
AcDbEntity
  8
___E
  6
CONTINUOUS
 62
             7
100
AcDbCircle
 10
7130.4529803573523
 20
5273.1593359654407
 40
4.00000044117678
  0
CIRCLE
  5
250
100
AcDbEntity
  8
___E
  6
CONTINUOUS
 62
             7
100
AcDbCircle
 10
7130.4529803573523
 20
5283.159336318382
 40
4.00000044117678
  0
CIRCLE
  5
24F
100
AcDbEntity
  8
___E
  6
CONTINUOUS
 62
             7
100
AcDbCircle
 10
7130.4529803573523
 20
5243.1593364066184
 40
4.00000044117678
  0
CIRCLE
  5
24E
100
AcDbEntity
  8
___E
  6
CONTINUOUS
 62
             7
100
AcDbCircle
 10
7130.4529803573523
 20
5253.1593367595578
 40
4.00000044117678
  0
CIRCLE
  5
24D
100
AcDbEntity
  8
___E
  6
CONTINUOUS
 62
             7
100
AcDbCircle
 10
7130.4529803573523
 20
5263.1593371124991
 40
4.00000044117678
  0
CIRCLE
  5
24C
100
AcDbEntity
  8
___E
  6
CONTINUOUS
 62
             7
100
AcDbCircle
 10
7169.4529797838231
 20
5321.4093357558822
 40
1.7500004742642
  0
CIRCLE
  5
24B
100
AcDbEntity
  8
___E
  6
CONTINUOUS
 62
             7
100
AcDbCircle
 10
7168.9529802911757
 20
5312.4093358882346
 40
2.74999945955915
  0
CIRCLE
  5
24A
100
AcDbEntity
  8
___E
  6
CONTINUOUS
 62
             7
100
AcDbCircle
 10
7168.9529802911757
 20
5303.4093360205879
 40
2.74999945955915
  0
CIRCLE
  5
249
100
AcDbEntity
  8
___E
  6
CONTINUOUS
 62
             7
100
AcDbCircle
 10
7168.9529802911757
 20
5294.4093361529403
 40
2.74999945955915
  0
CIRCLE
  5
248
100
AcDbEntity
  8
___E
  6
CONTINUOUS
 62
             7
100
AcDbCircle
 10
7168.9529802911757
 20
5312.4093358882346
 40
1.99999947058859
  0
CIRCLE
  5
247
100
AcDbEntity
  8
___E
  6
CONTINUOUS
 62
             7
100
AcDbCircle
 10
7168.9529802911757
 20
5303.4093360205879
 40
1.99999947058859
  0
CIRCLE
  5
246
100
AcDbEntity
  8
___E
  6
CONTINUOUS
 62
             7
100
AcDbCircle
 10
7168.9529802911757
 20
5294.4093361529403
 40
1.99999947058859
  0
CIRCLE
  5
245
100
AcDbEntity
  8
___E
  6
CONTINUOUS
 62
             7
100
AcDbCircle
 10
7143.9529801588233
 20
5218.4093367705873
 40
2.99999995588314
  0
CIRCLE
  5
244
100
AcDbEntity
  8
___E
  6
CONTINUOUS
 62
             7
100
AcDbCircle
 10
7169.4529797838231
 20
5218.4093367705873
 40
2.99999995588223
  0
CIRCLE
  5
243
100
AcDbEntity
  8
___E
  6
CONTINUOUS
 62
             7
100
AcDbCircle
 10
7301.952976805881
 20
5347.4093348735287
 40
2.99999995588314
  0
ARC
  5
242
100
AcDbEntity
  8
___E
  6
CONTINUOUS
 62
             7
100
AcDbCircle
 10
7165.452980842646
 20
5174.4093379176466
 40
2.99999995588314
100
AcDbArc
 50
0.0
 51
180.0
  0
ARC
  5
241
100
AcDbEntity
  8
___E
  6
CONTINUOUS
 62
             7
100
AcDbCircle
 10
7130.4529803573523
 20
5174.4093379176466
 40
2.99999995588223
100
AcDbArc
 50
0.0
 51
180.0
  0
ARC
  5
240
100
AcDbEntity
  8
___E
  6
CONTINUOUS
 62
             7
100
AcDbCircle
 10
7165.452980842646
 20
5358.4093357117654
 40
2.99999995588223
100
AcDbArc
 50
180.0
 51
0.0
  0
ARC
  5
23F
100
AcDbEntity
  8
___E
  6
CONTINUOUS
 62
             7
100
AcDbCircle
 10
7130.4529803573523
 20
5358.4093357117654
 40
2.99999995588223
100
AcDbArc
 50
180.0
 51
0.0
  0
ARC
  5
23E
100
AcDbEntity
  8
___E
  6
CONTINUOUS
 62
             7
100
AcDbCircle
 10
7113.9529805999991
 20
5338.409335005882
 40
1.00000048529273
100
AcDbArc
 50
180.0
 51
-90.0
  0
ARC
  5
23D
100
AcDbEntity
  8
___E
  6
CONTINUOUS
 62
             7
100
AcDbCircle
 10
7113.9529805999991
 20
5344.4093349176464
 40
1.00000048529455
100
AcDbArc
 50
90.0
 51
180.0
  0
ARC
  5
23C
100
AcDbEntity
  8
___E
  6
CONTINUOUS
 62
             7
100
AcDbCircle
 10
7113.9529805999991
 20
5214.409337829411
 40
1.00000048529273
100
AcDbArc
 50
180.0
 51
-90.0
  0
ARC
  5
23B
100
AcDbEntity
  8
___E
  6
CONTINUOUS
 62
             7
100
AcDbCircle
 10
7113.9529805999991
 20
5220.4093377411764
 40
1.00000048529364
100
AcDbArc
 50
90.0
 51
180.0
  0
ARC
  5
23A
100
AcDbEntity
  8
___E
  6
CONTINUOUS
 62
             7
100
AcDbCircle
 10
7181.9529805999991
 20
5220.4093377411764
 40
1.00000048529455
100
AcDbArc
 50
0.0
 51
90.0
  0
ARC
  5
239
100
AcDbEntity
  8
___E
  6
CONTINUOUS
 62
             7
100
AcDbCircle
 10
7181.9529805999991
 20
5214.409337829411
 40
1.00000048529364
100
AcDbArc
 50
-90.0
 51
0.0
  0
ARC
  5
238
100
AcDbEntity
  8
___E
  6
CONTINUOUS
 62
             7
100
AcDbCircle
 10
7181.9529805999991
 20
5344.4093349176464
 40
1.00000048529455
100
AcDbArc
 50
0.0
 51
90.0
  0
ARC
  5
237
100
AcDbEntity
  8
___E
  6
CONTINUOUS
 62
             7
100
AcDbCircle
 10
7181.9529805999991
 20
5338.409335005882
 40
1.00000048529455
100
AcDbArc
 50
-90.0
 51
0.0
  0
ARC
  5
236
100
AcDbEntity
  8
___E
  6
CONTINUOUS
 62
             7
100
AcDbCircle
 10
7304.4529772691167
 20
5183.4093377852932
 40
1.99999947058859
100
AcDbArc
 50
180.0
 51
-90.0
  0
ARC
  5
235
100
AcDbEntity
  8
___E
  6
CONTINUOUS
 62
             7
100
AcDbCircle
 10
7334.9529763205874
 20
5206.4093369470584
 40
1.00000048529364
100
AcDbArc
 50
90.0
 51
180.0
  0
ARC
  5
234
100
AcDbEntity
  8
___E
  6
CONTINUOUS
 62
             7
100
AcDbCircle
 10
7334.9529763205874
 20
5200.4093370352939
 40
1.00000048529546
100
AcDbArc
 50
180.0
 51
-90.0
  0
ARC
  5
233
100
AcDbEntity
  8
___E
  6
CONTINUOUS
 62
             7
100
AcDbCircle
 10
7258.1529774499986
 20
5253.1593367595578
 40
12.49999931617589
100
AcDbArc
 50
163.73979499999976
 51
-163.73979500000777
  0
ARC
  5
232
100
AcDbEntity
  8
___E
  6
CONTINUOUS
 62
             7
100
AcDbCircle
 10
7258.1529774499986
 20
5243.1593364066184
 40
12.49999931617538
100
AcDbArc
 50
163.73979500000777
 51
-163.73979499999578
  0
ARC
  5
231
100
AcDbEntity
  8
___E
  6
CONTINUOUS
 62
             7
100
AcDbCircle
 10
7258.1529774499986
 20
5233.1593375536759
 40
12.49999931617589
100
AcDbArc
 50
163.73979499999976
 51
-163.73979499999976
  0
ARC
  5
230
100
AcDbEntity
  8
___E
  6
CONTINUOUS
 62
             7
100
AcDbCircle
 10
7258.1529774499986
 20
5223.1593372007346
 40
12.49999931617589
100
AcDbArc
 50
163.73979499999976
 51
-163.73979500000377
  0
ARC
  5
22F
100
AcDbEntity
  8
___E
  6
CONTINUOUS
 62
             7
100
AcDbCircle
 10
7258.1529774499986
 20
5283.159336318382
 40
12.49999931617564
100
AcDbArc
 50
163.73979500000377
 51
-163.73979499999976
  0
ARC
  5
22E
100
AcDbEntity
  8
___E
  6
CONTINUOUS
 62
             7
100
AcDbCircle
 10
7258.1529774499986
 20
5273.1593359654407
 40
12.49999931617564
100
AcDbArc
 50
163.73979500000377
 51
-163.73979499999976
  0
ARC
  5
22D
100
AcDbEntity
  8
___E
  6
CONTINUOUS
 62
             7
100
AcDbCircle
 10
7258.1529774499986
 20
5263.1593371124991
 40
12.49999931617589
100
AcDbArc
 50
163.73979499999976
 51
-163.73979500000377
  0
ARC
  5
22C
100
AcDbEntity
  8
___E
  6
CONTINUOUS
 62
             7
100
AcDbCircle
 10
7254.952977997058
 20
5328.4093361529403
 40
1.00000048529455
100
AcDbArc
 50
90.0
 51
180.0
  0
ARC
  5
22B
100
AcDbEntity
  8
___E
  6
CONTINUOUS
 62
             7
100
AcDbCircle
 10
7254.952977997058
 20
5324.4093357117654
 40
1.00000048529364
100
AcDbArc
 50
180.0
 51
-90.0
  0
ARC
  5
22A
100
AcDbEntity
  8
___E
  6
CONTINUOUS
 62
             7
100
AcDbCircle
 10
7254.952977997058
 20
5218.4093367705873
 40
1.00000048529379
100
AcDbArc
 50
165.52248799999055
 51
180.0
  0
ARC
  5
229
100
AcDbEntity
  8
___E
  6
CONTINUOUS
 62
             7
100
AcDbCircle
 10
7164.4529803573523
 20
5227.4093366382349
 40
1.00000048529455
100
AcDbArc
 50
180.0
 51
-90.0
  0
ARC
  5
228
100
AcDbEntity
  8
___E
  6
CONTINUOUS
 62
             7
100
AcDbCircle
 10
7164.4529803573523
 20
5280.4093368588228
 40
1.00000048529455
100
AcDbArc
 50
90.0
 51
180.0
  0
ARC
  5
227
100
AcDbEntity
  8
___E
  6
CONTINUOUS
 62
             7
100
AcDbCircle
 10
7177.4529806661758
 20
5280.4093368588228
 40
1.00000048529364
100
AcDbArc
 50
0.0
 51
90.0
  0
ARC
  5
226
100
AcDbEntity
  8
___E
  6
CONTINUOUS
 62
             7
100
AcDbCircle
 10
7177.4529806661758
 20
5227.4093366382349
 40
1.00000048529455
100
AcDbArc
 50
-90.0
 51
0.0
  0
ARC
  5
225
100
AcDbEntity
  8
___E
  6
CONTINUOUS
 62
             7
100
AcDbCircle
 10
7132.5514563264924
 20
5298.6252480909416
 40
0.16499999757407
100
AcDbArc
 50
-12.60158899988754
 51
113.98738400015489
  0
ARC
  5
224
100
AcDbEntity
  8
___E
  6
CONTINUOUS
 62
             7
100
AcDbCircle
 10
7131.5669568409703
 20
5298.9770730857681
 40
0.16499999757284
100
AcDbArc
 50
153.09390699999983
 51
-69.35121799992298
  0
ARC
  5
223
100
AcDbEntity
  8
___E
  6
CONTINUOUS
 62
             7
100
AcDbCircle
 10
7126.452981416176
 20
5293.959336159558
 40
0.55000049191149
100
AcDbArc
 50
149.23727999994117
 51
-90.0
  0
ARC
  5
222
100
AcDbEntity
  8
___E
  6
CONTINUOUS
 62
             7
100
AcDbCircle
 10
7138.2680957424254
 20
5293.959336159558
 40
0.55000049191131
100
AcDbArc
 50
-90.0
 51
30.76272000010732
  0
ARC
  5
221
100
AcDbEntity
  8
___E
  6
CONTINUOUS
 62
             7
100
AcDbCircle
 10
7132.3605393293001
 20
5303.8840335136074
 40
0.55000049191149
100
AcDbArc
 50
30.76272000005886
 51
149.23727999994117
  0
LINE
  5
220
100
AcDbEntity
  8
___E
  6
CONTINUOUS
 62
             7
100
AcDbLine
 10
7179.7029806330884
 20
5175.4093384029402
 11
7179.7029806330884
 21
5179.8393378377932
  0
LINE
  5
21F
100
AcDbEntity
  8
___E
  6
CONTINUOUS
 62
             7
100
AcDbLine
 10
7162.4529808867637
 20
5168.8235509997903
 11
7162.4529808867637
 21
5174.4093379176466
  0
LINE
  5
21E
100
AcDbEntity
  8
___E
  6
CONTINUOUS
 62
             7
100
AcDbLine
 10
7161.038767407561
 20
5167.4093375205894
 11
7162.4529808867637
 21
5168.8235509997903
  0
LINE
  5
21D
100
AcDbEntity
  8
___E
  6
CONTINUOUS
 62
             7
100
AcDbLine
 10
7169.8671942777319
 20
5167.4093375205894
 11
7168.4529807985291
 21
5168.8235509997903
  0
LINE
  5
21C
100
AcDbEntity
  8
___E
  6
CONTINUOUS
 62
             7
100
AcDbLine
 10
7168.4529807985291
 20
5168.8235509997903
 11
7168.4529807985291
 21
5174.4093379176466
  0
LINE
  5
21B
100
AcDbEntity
  8
___E
  6
CONTINUOUS
 62
             7
100
AcDbLine
 10
7169.8671942777319
 20
5167.4093375205894
 11
7179.7029806330884
 21
5167.4093375205894
  0
LINE
  5
21A
100
AcDbEntity
  8
___E
  6
CONTINUOUS
 62
             7
100
AcDbLine
 10
7126.0387669222673
 20
5167.4093375205894
 11
7116.2029805669108
 21
5167.4093375205894
  0
LINE
  5
219
100
AcDbEntity
  8
___E
  6
CONTINUOUS
 62
             7
100
AcDbLine
 10
7127.4529804014701
 20
5168.8235509997903
 11
7127.4529804014701
 21
5174.4093379176466
  0
LINE
  5
218
100
AcDbEntity
  8
___E
  6
CONTINUOUS
 62
             7
100
AcDbLine
 10
7126.0387669222673
 20
5167.4093375205894
 11
7127.4529804014701
 21
5168.8235509997903
  0
LINE
  5
217
100
AcDbEntity
  8
___E
  6
CONTINUOUS
 62
             7
100
AcDbLine
 10
7134.8671937924373
 20
5167.4093375205894
 11
7133.4529803132345
 21
5168.8235509997903
  0
LINE
  5
216
100
AcDbEntity
  8
___E
  6
CONTINUOUS
 62
             7
100
AcDbLine
 10
7133.4529803132345
 20
5168.8235509997903
 11
7133.4529803132345
 21
5174.4093379176466
  0
LINE
  5
215
100
AcDbEntity
  8
___E
  6
CONTINUOUS
 62
             7
100
AcDbLine
 10
7134.8671937924373
 20
5167.4093375205894
 11
7161.038767407561
 21
5167.4093375205894
  0
LINE
  5
214
100
AcDbEntity
  8
___E
  6
CONTINUOUS
 62
             7
100
AcDbLine
 10
7161.038767407561
 20
5365.409334608823
 11
7162.4529808867637
 21
5363.9951211296202
  0
LINE
  5
213
100
AcDbEntity
  8
___E
  6
CONTINUOUS
 62
             7
100
AcDbLine
 10
7169.8671942777319
 20
5365.409334608823
 11
7168.4529807985291
 21
5363.9951211296202
  0
LINE
  5
212
100
AcDbEntity
  8
___E
  6
CONTINUOUS
 62
             7
100
AcDbLine
 10
7169.8671942777319
 20
5365.409334608823
 11
7179.7029806330884
 21
5365.409334608823
  0
LINE
  5
211
100
AcDbEntity
  8
___E
  6
CONTINUOUS
 62
             7
100
AcDbLine
 10
7168.4529807985291
 20
5363.9951211296202
 11
7168.4529807985291
 21
5358.4093357117654
  0
LINE
  5
210
100
AcDbEntity
  8
___E
  6
CONTINUOUS
 62
             7
100
AcDbLine
 10
7162.4529808867637
 20
5363.9951211296202
 11
7162.4529808867637
 21
5358.4093357117654
  0
LINE
  5
20F
100
AcDbEntity
  8
___E
  6
CONTINUOUS
 62
             7
100
AcDbLine
 10
7133.4529803132345
 20
5363.9951211296202
 11
7133.4529803132345
 21
5358.4093357117654
  0
LINE
  5
20E
100
AcDbEntity
  8
___E
  6
CONTINUOUS
 62
             7
100
AcDbLine
 10
7127.4529804014701
 20
5363.9951211296202
 11
7127.4529804014701
 21
5358.4093357117654
  0
LINE
  5
20D
100
AcDbEntity
  8
___E
  6
CONTINUOUS
 62
             7
100
AcDbLine
 10
7126.0387669222673
 20
5365.409334608823
 11
7116.2029805669108
 21
5365.409334608823
  0
LINE
  5
20C
100
AcDbEntity
  8
___E
  6
CONTINUOUS
 62
             7
100
AcDbLine
 10
7126.0387669222673
 20
5365.409334608823
 11
7127.4529804014701
 21
5363.9951211296202
  0
LINE
  5
20B
100
AcDbEntity
  8
___E
  6
CONTINUOUS
 62
             7
100
AcDbLine
 10
7134.8671937924373
 20
5365.409334608823
 11
7133.4529803132345
 21
5363.9951211296202
  0
LINE
  5
20A
100
AcDbEntity
  8
___E
  6
CONTINUOUS
 62
             7
100
AcDbLine
 10
7134.8671937924373
 20
5365.409334608823
 11
7161.038767407561
 21
5365.409334608823
  0
LINE
  5
209
100
AcDbEntity
  8
___E
  6
CONTINUOUS
 62
             7
100
AcDbLine
 10
7117.8029810433818
 20
5207.409337432352
 11
7117.8029810433818
 21
5167.4093375205894
  0
LINE
  5
208
100
AcDbEntity
  8
___E
  6
CONTINUOUS
 62
             7
100
AcDbLine
 10
7116.2029805669108
 20
5207.409337432352
 11
7116.2029805669108
 21
5167.4093375205894
  0
LINE
  5
207
100
AcDbEntity
  8
___E
  6
CONTINUOUS
 62
             7
100
AcDbLine
 10
7178.1029801566174
 20
5207.409337432352
 11
7178.1029801566174
 21
5167.4093375205894
  0
LINE
  5
206
100
AcDbEntity
  8
___E
  6
CONTINUOUS
 62
             7
100
AcDbLine
 10
7179.7029806330884
 20
5207.409337432352
 11
7179.7029806330884
 21
5167.4093375205894
  0
LINE
  5
205
100
AcDbEntity
  8
___E
  6
CONTINUOUS
 62
             7
100
AcDbLine
 10
7178.2029806551463
 20
5181.4093383147056
 11
7117.8029810433818
 21
5181.4093383147056
  0
LINE
  5
204
100
AcDbEntity
  8
___E
  6
CONTINUOUS
 62
             7
100
AcDbLine
 10
7172.2029807433819
 20
5186.4093377411764
 11
7164.2029798610292
 21
5186.4093377411764
  0
LINE
  5
203
100
AcDbEntity
  8
___E
  6
CONTINUOUS
 62
             7
100
AcDbLine
 10
7123.9529809529404
 20
5207.409337432352
 11
7123.9529809529404
 21
5186.4093377411764
  0
LINE
  5
202
100
AcDbEntity
  8
___E
  6
CONTINUOUS
 62
             7
100
AcDbLine
 10
7123.9529809529404
 20
5186.4093377411764
 11
7131.9529803352934
 21
5186.4093377411764
  0
LINE
  5
201
100
AcDbEntity
  8
___E
  6
CONTINUOUS
 62
             7
100
AcDbLine
 10
7131.9529803352934
 20
5181.4093383147056
 11
7131.9529803352934
 21
5207.409337432352
  0
LINE
  5
200
100
AcDbEntity
  8
___E
  6
CONTINUOUS
 62
             7
100
AcDbLine
 10
7134.8029802933816
 20
5181.4093383147056
 11
7134.8029802933816
 21
5207.409337432352
  0
LINE
  5
1FF
100
AcDbEntity
  8
___E
  6
CONTINUOUS
 62
             7
100
AcDbLine
 10
7161.1029809066167
 20
5181.4093383147056
 11
7161.1029809066167
 21
5207.409337432352
  0
LINE
  5
1FE
100
AcDbEntity
  8
___E
  6
CONTINUOUS
 62
             7
100
AcDbLine
 10
7163.9529808647048
 20
5181.4093383147056
 11
7163.9529808647048
 21
5207.409337432352
  0
LINE
  5
1FD
100
AcDbEntity
  8
___E
  6
CONTINUOUS
 62
             7
100
AcDbLine
 10
7171.9529802470579
 20
5186.4093377411764
 11
7163.9529808647048
 21
5186.4093377411764
  0
LINE
  5
1FC
100
AcDbEntity
  8
___E
  6
CONTINUOUS
 62
             7
100
AcDbLine
 10
7171.9529802470579
 20
5186.4093377411764
 11
7171.9529802470579
 21
5207.409337432352
  0
LINE
  5
1FB
100
AcDbEntity
  8
___E
  6
CONTINUOUS
 62
             7
100
AcDbLine
 10
7148.8029810874996
 20
5186.4093377411764
 11
7161.1029809066167
 21
5186.4093377411764
  0
LINE
  5
1FA
100
AcDbEntity
  8
___E
  6
CONTINUOUS
 62
             7
100
AcDbLine
 10
7134.8029802933816
 20
5186.4093377411764
 11
7147.1029801124996
 21
5186.4093377411764
  0
LINE
  5
1F9
100
AcDbEntity
  8
___E
  6
CONTINUOUS
 62
             7
100
AcDbLine
 10
7148.8029810874996
 20
5185.4093372558818
 11
7161.1029809066167
 21
5185.4093372558818
  0
LINE
  5
1F8
100
AcDbEntity
  8
___E
  6
CONTINUOUS
 62
             7
100
AcDbLine
 10
7134.8029802933816
 20
5185.4093372558818
 11
7147.1029801124996
 21
5185.4093372558818
  0
LINE
  5
1F7
100
AcDbEntity
  8
___E
  6
CONTINUOUS
 62
             7
100
AcDbLine
 10
7148.8029810874996
 20
5196.4093380941167
 11
7161.1029809066167
 21
5196.4093380941167
  0
LINE
  5
1F6
100
AcDbEntity
  8
___E
  6
CONTINUOUS
 62
             7
100
AcDbLine
 10
7134.8029802933816
 20
5196.4093380941167
 11
7147.1029801124996
 21
5196.4093380941167
  0
LINE
  5
1F5
100
AcDbEntity
  8
___E
  6
CONTINUOUS
 62
             7
100
AcDbLine
 10
7148.8029810874996
 20
5198.4093375647053
 11
7161.1029809066167
 21
5198.4093375647053
  0
LINE
  5
1F4
100
AcDbEntity
  8
___E
  6
CONTINUOUS
 62
             7
100
AcDbLine
 10
7134.8029802933816
 20
5198.4093375647053
 11
7147.1029801124996
 21
5198.4093375647053
  0
LINE
  5
1F3
100
AcDbEntity
  8
___E
  6
CONTINUOUS
 62
             7
100
AcDbLine
 10
7146.9529801147064
 20
5200.4093370352939
 11
7148.9529810852937
 21
5200.4093370352939
  0
LINE
  5
1F2
100
AcDbEntity
  8
___E
  6
CONTINUOUS
 62
             7
100
AcDbLine
 10
7148.8029810874996
 20
5200.4093370352939
 11
7148.8029810874996
 21
5181.4093383147056
  0
LINE
  5
1F1
100
AcDbEntity
  8
___E
  6
CONTINUOUS
 62
             7
100
AcDbLine
 10
7147.1029801124996
 20
5200.4093370352939
 11
7147.1029801124996
 21
5181.4093383147056
  0
LINE
  5
1F0
100
AcDbEntity
  8
___E
  6
CONTINUOUS
 62
             7
100
AcDbLine
 10
7148.8029810874996
 20
5181.4093383147056
 11
7148.8029810874996
 21
5200.4093370352939
  0
LINE
  5
1EF
100
AcDbEntity
  8
___E
  6
CONTINUOUS
 62
             7
100
AcDbLine
 10
7147.1029801124996
 20
5181.4093383147056
 11
7147.1029801124996
 21
5200.4093370352939
  0
LINE
  5
1EE
100
AcDbEntity
  8
___E
  6
CONTINUOUS
 62
             7
100
AcDbLine
 10
7153.452981019117
 20
5192.9093371455874
 11
7156.4529809749993
 21
5189.9093371897052
  0
LINE
  5
1ED
100
AcDbEntity
  8
___E
  6
CONTINUOUS
 62
             7
100
AcDbLine
 10
7156.4529809749993
 20
5192.9093371455874
 11
7153.452981019117
 21
5189.9093371897052
  0
LINE
  5
1EC
100
AcDbEntity
  8
___E
  6
CONTINUOUS
 62
             7
100
AcDbLine
 10
7139.452980224999
 20
5192.9093371455874
 11
7142.4529801808822
 21
5189.9093371897052
  0
LINE
  5
1EB
100
AcDbEntity
  8
___E
  6
CONTINUOUS
 62
             7
100
AcDbLine
 10
7142.4529801808822
 20
5192.9093371455874
 11
7139.452980224999
 21
5189.9093371897052
  0
LINE
  5
1EA
100
AcDbEntity
  8
___E
  6
CONTINUOUS
 62
             7
100
AcDbLine
 10
7126.452981416176
 20
5204.9093369691172
 11
7129.4529813720583
 21
5201.909337013235
  0
LINE
  5
1E9
100
AcDbEntity
  8
___E
  6
CONTINUOUS
 62
             7
100
AcDbLine
 10
7129.4529813720583
 20
5204.9093369691172
 11
7126.452981416176
 21
5201.909337013235
  0
LINE
  5
1E8
100
AcDbEntity
  8
___E
  6
CONTINUOUS
 62
             7
100
AcDbLine
 10
7166.4529798279409
 20
5204.9093369691172
 11
7169.4529797838231
 21
5201.909337013235
  0
LINE
  5
1E7
100
AcDbEntity
  8
___E
  6
CONTINUOUS
 62
             7
100
AcDbLine
 10
7169.4529797838231
 20
5204.9093369691172
 11
7166.4529798279409
 21
5201.909337013235
  0
LINE
  5
1E6
100
AcDbEntity
  8
___E
  6
CONTINUOUS
 62
             7
100
AcDbLine
 10
7114.9529810852937
 20
5337.4093360205879
 11
7113.9529805999991
 21
5337.4093360205879
  0
LINE
  5
1E5
100
AcDbEntity
  8
___E
  6
CONTINUOUS
 62
             7
100
AcDbLine
 10
7112.9529816147051
 20
5338.409335005882
 11
7112.9529816147051
 21
5344.4093349176464
  0
LINE
  5
1E4
100
AcDbEntity
  8
___E
  6
CONTINUOUS
 62
             7
100
AcDbLine
 10
7114.9529810852937
 20
5213.4093373441174
 11
7113.9529805999991
 21
5213.4093373441174
  0
LINE
  5
1E3
100
AcDbEntity
  8
___E
  6
CONTINUOUS
 62
             7
100
AcDbLine
 10
7112.9529816147051
 20
5214.409337829411
 11
7112.9529816147051
 21
5220.4093377411764
  0
LINE
  5
1E2
100
AcDbEntity
  8
___E
  6
CONTINUOUS
 62
             7
100
AcDbLine
 10
7113.9529805999991
 20
5221.4093367264704
 11
7114.9529810852937
 21
5221.4093367264704
  0
LINE
  5
1E1
100
AcDbEntity
  8
___E
  6
CONTINUOUS
 62
             7
100
AcDbLine
 10
7180.9529801147064
 20
5221.4093367264704
 11
7181.9529805999991
 21
5221.4093367264704
  0
LINE
  5
1E0
100
AcDbEntity
  8
___E
  6
CONTINUOUS
 62
             7
100
AcDbLine
 10
7182.9529795852932
 20
5220.4093377411764
 11
7182.9529795852932
 21
5214.409337829411
  0
LINE
  5
1DF
100
AcDbEntity
  8
___E
  6
CONTINUOUS
 62
             7
100
AcDbLine
 10
7181.9529805999991
 20
5213.4093373441174
 11
7180.9529801147064
 21
5213.4093373441174
  0
LINE
  5
1DE
100
AcDbEntity
  8
___E
  6
CONTINUOUS
 62
             7
100
AcDbLine
 10
7182.9529795852932
 20
5344.4093349176464
 11
7182.9529795852932
 21
5338.409335005882
  0
LINE
  5
1DD
100
AcDbEntity
  8
___E
  6
CONTINUOUS
 62
             7
100
AcDbLine
 10
7181.9529805999991
 20
5337.4093360205879
 11
7180.9529801147064
 21
5337.4093360205879
  0
LINE
  5
1DC
100
AcDbEntity
  8
___E
  6
CONTINUOUS
 62
             7
100
AcDbLine
 10
7342.3671897115546
 20
5167.4093375205894
 11
7340.9529762323518
 21
5168.8235509997903
  0
LINE
  5
1DB
100
AcDbEntity
  8
___E
  6
CONTINUOUS
 62
             7
100
AcDbLine
 10
7405.9529762764696
 20
5167.4093375205894
 11
7342.3671897115546
 21
5167.4093375205894
  0
LINE
  5
1DA
100
AcDbEntity
  8
___E
  6
CONTINUOUS
 62
             7
100
AcDbLine
 10
7342.3671897115546
 20
5365.409334608823
 11
7340.9529762323518
 21
5363.9951211296202
  0
LINE
  5
1D9
100
AcDbEntity
  8
___E
  6
CONTINUOUS
 62
             7
100
AcDbLine
 10
7405.9529762764696
 20
5167.4093375205894
 11
7405.9529762764696
 21
5365.409334608823
  0
LINE
  5
1D8
100
AcDbEntity
  8
___E
  6
CONTINUOUS
 62
             7
100
AcDbLine
 10
7405.9529762764696
 20
5365.409334608823
 11
7342.3671897115546
 21
5365.409334608823
  0
LINE
  5
1D7
100
AcDbEntity
  8
___E
  6
CONTINUOUS
 62
             7
100
AcDbLine
 10
7350.9529765852931
 20
5349.9951218355027
 11
7349.5387631060903
 21
5351.4093353147064
  0
LINE
  5
1D6
100
AcDbEntity
  8
___E
  6
CONTINUOUS
 62
             7
100
AcDbLine
 10
7255.9529784823517
 20
5207.409337432352
 11
7349.5387631060903
 21
5207.409337432352
  0
LINE
  5
1D5
100
AcDbEntity
  8
___E
  6
CONTINUOUS
 62
             7
100
AcDbLine
 10
7350.9529765852931
 20
5208.8235509115548
 11
7349.5387631060903
 21
5207.409337432352
  0
LINE
  5
1D4
100
AcDbEntity
  8
___E
  6
CONTINUOUS
 62
             7
100
AcDbLine
 10
7340.9529762323518
 20
5363.9951211296202
 11
7340.9529762323518
 21
5351.4093353147064
  0
LINE
  5
1D3
100
AcDbEntity
  8
___E
  6
CONTINUOUS
 62
             7
100
AcDbLine
 10
7340.9529762323518
 20
5207.409337432352
 11
7340.9529762323518
 21
5168.8235509997903
  0
LINE
  5
1D2
100
AcDbEntity
  8
___E
  6
CONTINUOUS
 62
             7
100
AcDbLine
 10
7343.6529761926458
 20
5215.1093368191168
 11
7348.3029761242642
 21
5219.7593367507343
  0
LINE
  5
1D1
100
AcDbEntity
  8
___E
  6
CONTINUOUS
 62
             7
100
AcDbLine
 10
7348.3029761242642
 20
5215.0593373198526
 11
7343.6029766933816
 21
5219.7593367507343
  0
LINE
  5
1D0
100
AcDbEntity
  8
___E
  6
CONTINUOUS
 62
             7
100
AcDbLine
 10
7343.6529761926458
 20
5339.1093354955874
 11
7348.3029761242642
 21
5343.7593354272058
  0
LINE
  5
1CF
100
AcDbEntity
  8
___E
  6
CONTINUOUS
 62
             7
100
AcDbLine
 10
7348.3029761242642
 20
5339.0593359963232
 11
7343.6029766933816
 21
5343.7593354272058
  0
LINE
  5
1CE
100
AcDbEntity
  8
___E
  6
CONTINUOUS
 62
             7
100
AcDbLine
 10
7325.9529764529389
 20
5181.4093383147056
 11
7335.952976805881
 21
5186.4093377411764
  0
LINE
  5
1CD
100
AcDbEntity
  8
___E
  6
CONTINUOUS
 62
             7
100
AcDbLine
 10
7335.952976805881
 20
5186.4093377411764
 11
7340.9529762323518
 21
5186.4093377411764
  0
LINE
  5
1CC
100
AcDbEntity
  8
___E
  6
CONTINUOUS
 62
             7
100
AcDbLine
 10
7325.9529764529389
 20
5181.4093383147056
 11
7335.952976805881
 21
5186.4093377411764
  0
LINE
  5
1CB
100
AcDbEntity
  8
___E
  6
CONTINUOUS
 62
             7
100
AcDbLine
 10
7335.952976805881
 20
5207.409337432352
 11
7335.952976805881
 21
5186.4093377411764
  0
LINE
  5
1CA
100
AcDbEntity
  8
___E
  6
CONTINUOUS
 62
             7
100
AcDbLine
 10
7304.4529772691167
 20
5181.4093383147056
 11
7325.9529764529389
 21
5181.4093383147056
  0
LINE
  5
1C9
100
AcDbEntity
  8
___E
  6
CONTINUOUS
 62
             7
100
AcDbLine
 10
7302.4529777985281
 20
5207.409337432352
 11
7302.4529777985281
 21
5183.4093377852932
  0
LINE
  5
1C8
100
AcDbEntity
  8
___E
  6
CONTINUOUS
 62
             7
100
AcDbLine
 10
7334.9529763205874
 20
5207.409337432352
 11
7335.952976805881
 21
5207.409337432352
  0
LINE
  5
1C7
100
AcDbEntity
  8
___E
  6
CONTINUOUS
 62
             7
100
AcDbLine
 10
7333.9529773352933
 20
5200.4093370352939
 11
7333.9529773352933
 21
5206.4093369470584
  0
LINE
  5
1C6
100
AcDbEntity
  8
___E
  6
CONTINUOUS
 62
             7
100
AcDbLine
 10
7335.952976805881
 20
5199.4093380499999
 11
7334.9529763205874
 21
5199.4093380499999
  0
LINE
  5
1C5
100
AcDbEntity
  8
___E
  6
CONTINUOUS
 62
             7
100
AcDbLine
 10
7256.9529774676457
 20
5352.4093357999991
 11
7340.9529762323518
 21
5352.4093357999991
  0
LINE
  5
1C4
100
AcDbEntity
  8
___E
  6
CONTINUOUS
 62
             7
100
AcDbLine
 10
7340.9529762323518
 20
5351.4093353147064
 11
7349.5387631060903
 21
5351.4093353147064
  0
LINE
  5
1C3
100
AcDbEntity
  8
___E
  6
CONTINUOUS
 62
             7
100
AcDbLine
 10
7255.9529784823517
 20
5351.4093353147064
 11
7256.9529774676457
 21
5351.4093353147064
  0
LINE
  5
1C2
100
AcDbEntity
  8
___E
  6
CONTINUOUS
 62
             7
100
AcDbLine
 10
7181.9529805999991
 20
5342.4093354470588
 11
7181.9529805999991
 21
5352.4093357999991
  0
LINE
  5
1C1
100
AcDbEntity
  8
___E
  6
CONTINUOUS
 62
             7
100
AcDbLine
 10
7113.9529805999991
 20
5352.4093357999991
 11
7181.9529805999991
 21
5352.4093357999991
  0
LINE
  5
1C0
100
AcDbEntity
  8
___E
  6
CONTINUOUS
 62
             7
100
AcDbLine
 10
7113.9529805999991
 20
5352.4093357999991
 11
7113.9529805999991
 21
5342.4093354470588
  0
LINE
  5
1BF
100
AcDbEntity
  8
___E
  6
CONTINUOUS
 62
             7
100
AcDbLine
 10
7113.9529805999991
 20
5342.4093354470588
 11
7114.9529810852937
 21
5342.4093354470588
  0
LINE
  5
1BE
100
AcDbEntity
  8
___E
  6
CONTINUOUS
 62
             7
100
AcDbLine
 10
7180.9529801147064
 20
5342.4093354470588
 11
7181.9529805999991
 21
5342.4093354470588
  0
LINE
  5
1BD
100
AcDbEntity
  8
___E
  6
CONTINUOUS
 62
             7
100
AcDbLine
 10
7117.8029810433818
 20
5365.409334608823
 11
7117.8029810433818
 21
5352.4093357999991
  0
LINE
  5
1BC
100
AcDbEntity
  8
___E
  6
CONTINUOUS
 62
             7
100
AcDbLine
 10
7116.2029805669108
 20
5365.409334608823
 11
7116.2029805669108
 21
5352.4093357999991
  0
LINE
  5
1BB
100
AcDbEntity
  8
___E
  6
CONTINUOUS
 62
             7
100
AcDbLine
 10
7179.7029806330884
 20
5365.409334608823
 11
7179.7029806330884
 21
5352.4093357999991
  0
LINE
  5
1BA
100
AcDbEntity
  8
___E
  6
CONTINUOUS
 62
             7
100
AcDbLine
 10
7178.1029801566174
 20
5365.409334608823
 11
7178.1029801566174
 21
5352.4093357999991
  0
LINE
  5
1B9
100
AcDbEntity
  8
___E
  6
CONTINUOUS
 62
             7
100
AcDbLine
 10
7178.1029801566174
 20
5363.4093351382344
 11
7179.7029806330884
 21
5363.4093351382344
  0
LINE
  5
1B8
100
AcDbEntity
  8
___E
  6
CONTINUOUS
 62
             7
100
AcDbLine
 10
7116.2029805669108
 20
5363.4093351382344
 11
7117.8029810433818
 21
5363.4093351382344
  0
LINE
  5
1B7
100
AcDbEntity
  8
___E
  6
CONTINUOUS
 62
             7
100
AcDbLine
 10
7117.8029810433818
 20
5169.4093384911757
 11
7116.2029805669108
 21
5169.4093384911757
  0
LINE
  5
1B6
100
AcDbEntity
  8
___E
  6
CONTINUOUS
 62
             7
100
AcDbLine
 10
7179.7029806330884
 20
5169.4093384911757
 11
7178.1029801566174
 21
5169.4093384911757
  0
LINE
  5
1B5
100
AcDbEntity
  8
___E
  6
CONTINUOUS
 62
             7
100
AcDbLine
 10
7149.6529800750004
 20
5328.1093361573521
 11
7146.3029806242639
 21
5324.7593352066169
  0
LINE
  5
1B4
100
AcDbEntity
  8
___E
  6
CONTINUOUS
 62
             7
100
AcDbLine
 10
7146.2029801257349
 20
5328.1593356566173
 11
7149.6029805757344
 21
5324.7593352066169
  0
LINE
  5
1B3
100
AcDbEntity
  8
___E
  6
CONTINUOUS
 62
             7
100
AcDbLine
 10
7340.9529762323518
 20
5351.4093353147064
 11
7340.9529762323518
 21
5344.4093349176464
  0
LINE
  5
1B2
100
AcDbEntity
  8
___E
  6
CONTINUOUS
 62
             7
100
AcDbLine
 10
7338.9529767617641
 20
5342.4093354470588
 11
7340.9529762323518
 21
5344.4093349176464
  0
LINE
  5
1B1
100
AcDbEntity
  8
___E
  6
CONTINUOUS
 62
             7
100
AcDbLine
 10
7255.9529784823517
 20
5207.409337432352
 11
7255.9529784823517
 21
5351.4093353147064
  0
LINE
  5
1B0
100
AcDbEntity
  8
___E
  6
CONTINUOUS
 62
             7
100
AcDbLine
 10
7249.9529785705872
 20
5249.659337311029
 11
7249.9529785705872
 21
5256.6593362080876
  0
LINE
  5
1AF
100
AcDbEntity
  8
___E
  6
CONTINUOUS
 62
             7
100
AcDbLine
 10
7249.1529775823519
 20
5249.659337311029
 11
7249.1529775823519
 21
5256.6593362080876
  0
LINE
  5
1AE
100
AcDbEntity
  8
___E
  6
CONTINUOUS
 62
             7
100
AcDbLine
 10
7248.1529785970579
 20
5249.659337311029
 11
7248.1529785970579
 21
5256.6593362080876
  0
LINE
  5
1AD
100
AcDbEntity
  8
___E
  6
CONTINUOUS
 62
             7
100
AcDbLine
 10
7248.1529785970579
 20
5249.659337311029
 11
7248.1529785970579
 21
5256.6593362080876
  0
LINE
  5
1AC
100
AcDbEntity
  8
___E
  6
CONTINUOUS
 62
             7
100
AcDbLine
 10
7246.1529776264697
 20
5249.659337311029
 11
7246.1529776264697
 21
5256.6593362080876
  0
LINE
  5
1AB
100
AcDbEntity
  8
___E
  6
CONTINUOUS
 62
             7
100
AcDbLine
 10
7249.9529785705872
 20
5239.6593369580878
 11
7249.9529785705872
 21
5246.6593373551468
  0
LINE
  5
1AA
100
AcDbEntity
  8
___E
  6
CONTINUOUS
 62
             7
100
AcDbLine
 10
7249.1529775823519
 20
5239.6593369580878
 11
7249.1529775823519
 21
5246.6593373551468
  0
LINE
  5
1A9
100
AcDbEntity
  8
___E
  6
CONTINUOUS
 62
             7
100
AcDbLine
 10
7248.1529785970579
 20
5239.6593369580878
 11
7248.1529785970579
 21
5246.6593373551468
  0
LINE
  5
1A8
100
AcDbEntity
  8
___E
  6
CONTINUOUS
 62
             7
100
AcDbLine
 10
7248.1529785970579
 20
5239.6593369580878
 11
7248.1529785970579
 21
5246.6593373551468
  0
LINE
  5
1A7
100
AcDbEntity
  8
___E
  6
CONTINUOUS
 62
             7
100
AcDbLine
 10
7246.1529776264697
 20
5239.6593369580878
 11
7246.1529776264697
 21
5246.6593373551468
  0
LINE
  5
1A6
100
AcDbEntity
  8
___E
  6
CONTINUOUS
 62
             7
100
AcDbLine
 10
7249.9529785705872
 20
5229.6593366051466
 11
7249.9529785705872
 21
5236.6593370022056
  0
LINE
  5
1A5
100
AcDbEntity
  8
___E
  6
CONTINUOUS
 62
             7
100
AcDbLine
 10
7249.1529775823519
 20
5229.6593366051466
 11
7249.1529775823519
 21
5236.6593370022056
  0
LINE
  5
1A4
100
AcDbEntity
  8
___E
  6
CONTINUOUS
 62
             7
100
AcDbLine
 10
7248.1529785970579
 20
5229.6593366051466
 11
7248.1529785970579
 21
5236.6593370022056
  0
LINE
  5
1A3
100
AcDbEntity
  8
___E
  6
CONTINUOUS
 62
             7
100
AcDbLine
 10
7248.1529785970579
 20
5229.6593366051466
 11
7248.1529785970579
 21
5236.6593370022056
  0
LINE
  5
1A2
100
AcDbEntity
  8
___E
  6
CONTINUOUS
 62
             7
100
AcDbLine
 10
7246.1529776264697
 20
5229.6593366051466
 11
7246.1529776264697
 21
5236.6593370022056
  0
LINE
  5
1A1
100
AcDbEntity
  8
___E
  6
CONTINUOUS
 62
             7
100
AcDbLine
 10
7249.9529785705872
 20
5219.6593377522049
 11
7249.9529785705872
 21
5226.6593366492643
  0
LINE
  5
1A0
100
AcDbEntity
  8
___E
  6
CONTINUOUS
 62
             7
100
AcDbLine
 10
7249.1529775823519
 20
5219.6593377522049
 11
7249.1529775823519
 21
5226.6593366492643
  0
LINE
  5
19F
100
AcDbEntity
  8
___E
  6
CONTINUOUS
 62
             7
100
AcDbLine
 10
7248.1529785970579
 20
5219.6593377522049
 11
7248.1529785970579
 21
5226.6593366492643
  0
LINE
  5
19E
100
AcDbEntity
  8
___E
  6
CONTINUOUS
 62
             7
100
AcDbLine
 10
7248.1529785970579
 20
5219.6593377522049
 11
7248.1529785970579
 21
5226.6593366492643
  0
LINE
  5
19D
100
AcDbEntity
  8
___E
  6
CONTINUOUS
 62
             7
100
AcDbLine
 10
7246.1529776264697
 20
5219.6593377522049
 11
7246.1529776264697
 21
5226.6593366492643
  0
LINE
  5
19C
100
AcDbEntity
  8
___E
  6
CONTINUOUS
 62
             7
100
AcDbLine
 10
7241.9529776882346
 20
5256.6593362080876
 11
7241.9529776882346
 21
5259.6593361639698
  0
LINE
  5
19B
100
AcDbEntity
  8
___E
  6
CONTINUOUS
 62
             7
100
AcDbLine
 10
7254.952977997058
 20
5256.6593362080876
 11
7241.9529776882346
 21
5256.6593362080876
  0
LINE
  5
19A
100
AcDbEntity
  8
___E
  6
CONTINUOUS
 62
             7
100
AcDbLine
 10
7254.952977997058
 20
5249.659337311029
 11
7254.952977997058
 21
5256.6593362080876
  0
LINE
  5
199
100
AcDbEntity
  8
___E
  6
CONTINUOUS
 62
             7
100
AcDbLine
 10
7241.9529776882346
 20
5249.659337311029
 11
7254.952977997058
 21
5249.659337311029
  0
LINE
  5
198
100
AcDbEntity
  8
___E
  6
CONTINUOUS
 62
             7
100
AcDbLine
 10
7243.9529786588218
 20
5257.6593366933821
 11
7243.9529786588218
 21
5258.6593371786757
  0
LINE
  5
197
100
AcDbEntity
  8
___E
  6
CONTINUOUS
 62
             7
100
AcDbLine
 10
7241.9529776882346
 20
5246.6593373551468
 11
7241.9529776882346
 21
5249.659337311029
  0
LINE
  5
196
100
AcDbEntity
  8
___E
  6
CONTINUOUS
 62
             7
100
AcDbLine
 10
7254.952977997058
 20
5246.6593373551468
 11
7241.9529776882346
 21
5246.6593373551468
  0
LINE
  5
195
100
AcDbEntity
  8
___E
  6
CONTINUOUS
 62
             7
100
AcDbLine
 10
7254.952977997058
 20
5239.6593369580878
 11
7254.952977997058
 21
5246.6593373551468
  0
LINE
  5
194
100
AcDbEntity
  8
___E
  6
CONTINUOUS
 62
             7
100
AcDbLine
 10
7241.9529776882346
 20
5239.6593369580878
 11
7254.952977997058
 21
5239.6593369580878
  0
LINE
  5
193
100
AcDbEntity
  8
___E
  6
CONTINUOUS
 62
             7
100
AcDbLine
 10
7241.9529776882346
 20
5236.6593370022056
 11
7241.9529776882346
 21
5239.6593369580878
  0
LINE
  5
192
100
AcDbEntity
  8
___E
  6
CONTINUOUS
 62
             7
100
AcDbLine
 10
7254.952977997058
 20
5236.6593370022056
 11
7241.9529776882346
 21
5236.6593370022056
  0
LINE
  5
191
100
AcDbEntity
  8
___E
  6
CONTINUOUS
 62
             7
100
AcDbLine
 10
7254.952977997058
 20
5229.6593366051466
 11
7254.952977997058
 21
5236.6593370022056
  0
LINE
  5
190
100
AcDbEntity
  8
___E
  6
CONTINUOUS
 62
             7
100
AcDbLine
 10
7241.9529776882346
 20
5229.6593366051466
 11
7254.952977997058
 21
5229.6593366051466
  0
LINE
  5
18F
100
AcDbEntity
  8
___E
  6
CONTINUOUS
 62
             7
100
AcDbLine
 10
7241.9529776882346
 20
5226.6593366492643
 11
7241.9529776882346
 21
5229.6593366051466
  0
LINE
  5
18E
100
AcDbEntity
  8
___E
  6
CONTINUOUS
 62
             7
100
AcDbLine
 10
7254.952977997058
 20
5226.6593366492643
 11
7241.9529776882346
 21
5226.6593366492643
  0
LINE
  5
18D
100
AcDbEntity
  8
___E
  6
CONTINUOUS
 62
             7
100
AcDbLine
 10
7254.952977997058
 20
5219.6593377522049
 11
7254.952977997058
 21
5226.6593366492643
  0
LINE
  5
18C
100
AcDbEntity
  8
___E
  6
CONTINUOUS
 62
             7
100
AcDbLine
 10
7241.9529776882346
 20
5219.6593377522049
 11
7254.952977997058
 21
5219.6593377522049
  0
LINE
  5
18B
100
AcDbEntity
  8
___E
  6
CONTINUOUS
 62
             7
100
AcDbLine
 10
7243.9529786588218
 20
5227.659337134558
 11
7243.9529786588218
 21
5228.6593376198534
  0
LINE
  5
18A
100
AcDbEntity
  8
___E
  6
CONTINUOUS
 62
             7
100
AcDbLine
 10
7243.9529786588218
 20
5237.6593374874992
 11
7243.9529786588218
 21
5238.6593364727933
  0
LINE
  5
189
100
AcDbEntity
  8
___E
  6
CONTINUOUS
 62
             7
100
AcDbLine
 10
7243.9529786588218
 20
5247.6593363404409
 11
7243.9529786588218
 21
5248.6593368257354
  0
LINE
  5
188
100
AcDbEntity
  8
___E
  6
CONTINUOUS
 62
             7
100
AcDbLine
 10
7241.9529776882346
 20
5249.659337311029
 11
7254.952977997058
 21
5249.659337311029
  0
LINE
  5
187
100
AcDbEntity
  8
___E
  6
CONTINUOUS
 62
             7
100
AcDbLine
 10
7241.9529776882346
 20
5239.6593369580878
 11
7254.952977997058
 21
5239.6593369580878
  0
LINE
  5
186
100
AcDbEntity
  8
___E
  6
CONTINUOUS
 62
             7
100
AcDbLine
 10
7241.9529776882346
 20
5229.6593366051466
 11
7254.952977997058
 21
5229.6593366051466
  0
LINE
  5
185
100
AcDbEntity
  8
___E
  6
CONTINUOUS
 62
             7
100
AcDbLine
 10
7241.9529776882346
 20
5216.6593377963227
 11
7241.9529776882346
 21
5219.6593377522049
  0
LINE
  5
184
100
AcDbEntity
  8
___E
  6
EXLTYPE3
 62
             7
100
AcDbLine
 10
7241.9529776882346
 20
5216.6593377963227
 11
7240.9529787029414
 21
5216.6593377963227
  0
LINE
  5
183
100
AcDbEntity
  8
___E
  6
CONTINUOUS
 62
             7
100
AcDbLine
 10
7243.9529786588218
 20
5217.6593367816167
 11
7243.9529786588218
 21
5218.6593372669113
  0
LINE
  5
182
100
AcDbEntity
  8
___E
  6
CONTINUOUS
 62
             7
100
AcDbLine
 10
7249.9529785705872
 20
5279.6593368698523
 11
7249.9529785705872
 21
5286.6593357669117
  0
LINE
  5
181
100
AcDbEntity
  8
___E
  6
CONTINUOUS
 62
             7
100
AcDbLine
 10
7249.1529775823519
 20
5279.6593368698523
 11
7249.1529775823519
 21
5286.6593357669117
  0
LINE
  5
180
100
AcDbEntity
  8
___E
  6
CONTINUOUS
 62
             7
100
AcDbLine
 10
7248.1529785970579
 20
5279.6593368698523
 11
7248.1529785970579
 21
5286.6593357669117
  0
LINE
  5
17F
100
AcDbEntity
  8
___E
  6
CONTINUOUS
 62
             7
100
AcDbLine
 10
7248.1529785970579
 20
5279.6593368698523
 11
7248.1529785970579
 21
5286.6593357669117
  0
LINE
  5
17E
100
AcDbEntity
  8
___E
  6
CONTINUOUS
 62
             7
100
AcDbLine
 10
7246.1529776264697
 20
5279.6593368698523
 11
7246.1529776264697
 21
5286.6593357669117
  0
LINE
  5
17D
100
AcDbEntity
  8
___E
  6
CONTINUOUS
 62
             7
100
AcDbLine
 10
7249.9529785705872
 20
5269.659336516911
 11
7249.9529785705872
 21
5276.65933691397
  0
LINE
  5
17C
100
AcDbEntity
  8
___E
  6
CONTINUOUS
 62
             7
100
AcDbLine
 10
7249.1529775823519
 20
5269.659336516911
 11
7249.1529775823519
 21
5276.65933691397
  0
LINE
  5
17B
100
AcDbEntity
  8
___E
  6
CONTINUOUS
 62
             7
100
AcDbLine
 10
7248.1529785970579
 20
5269.659336516911
 11
7248.1529785970579
 21
5276.65933691397
  0
LINE
  5
17A
100
AcDbEntity
  8
___E
  6
CONTINUOUS
 62
             7
100
AcDbLine
 10
7248.1529785970579
 20
5269.659336516911
 11
7248.1529785970579
 21
5276.65933691397
  0
LINE
  5
179
100
AcDbEntity
  8
___E
  6
CONTINUOUS
 62
             7
100
AcDbLine
 10
7246.1529776264697
 20
5269.659336516911
 11
7246.1529776264697
 21
5276.65933691397
  0
LINE
  5
178
100
AcDbEntity
  8
___E
  6
CONTINUOUS
 62
             7
100
AcDbLine
 10
7249.9529785705872
 20
5259.6593361639698
 11
7249.9529785705872
 21
5266.6593365610288
  0
LINE
  5
177
100
AcDbEntity
  8
___E
  6
CONTINUOUS
 62
             7
100
AcDbLine
 10
7249.1529775823519
 20
5259.6593361639698
 11
7249.1529775823519
 21
5266.6593365610288
  0
LINE
  5
176
100
AcDbEntity
  8
___E
  6
CONTINUOUS
 62
             7
100
AcDbLine
 10
7248.1529785970579
 20
5259.6593361639698
 11
7248.1529785970579
 21
5266.6593365610288
  0
LINE
  5
175
100
AcDbEntity
  8
___E
  6
CONTINUOUS
 62
             7
100
AcDbLine
 10
7248.1529785970579
 20
5259.6593361639698
 11
7248.1529785970579
 21
5266.6593365610288
  0
LINE
  5
174
100
AcDbEntity
  8
___E
  6
CONTINUOUS
 62
             7
100
AcDbLine
 10
7246.1529776264697
 20
5259.6593361639698
 11
7246.1529776264697
 21
5266.6593365610288
  0
LINE
  5
173
100
AcDbEntity
  8
___E
  6
CONTINUOUS
 62
             7
100
AcDbLine
 10
7241.9529776882346
 20
5286.6593357669117
 11
7241.9529776882346
 21
5289.6593357227939
  0
LINE
  5
172
100
AcDbEntity
  8
___E
  6
CONTINUOUS
 62
             7
100
AcDbLine
 10
7254.952977997058
 20
5286.6593357669117
 11
7241.9529776882346
 21
5286.6593357669117
  0
LINE
  5
171
100
AcDbEntity
  8
___E
  6
CONTINUOUS
 62
             7
100
AcDbLine
 10
7254.952977997058
 20
5279.6593368698523
 11
7254.952977997058
 21
5286.6593357669117
  0
LINE
  5
170
100
AcDbEntity
  8
___E
  6
CONTINUOUS
 62
             7
100
AcDbLine
 10
7241.9529776882346
 20
5279.6593368698523
 11
7254.952977997058
 21
5279.6593368698523
  0
LINE
  5
16F
100
AcDbEntity
  8
___E
  6
CONTINUOUS
 62
             7
100
AcDbLine
 10
7243.9529786588218
 20
5287.6593362522053
 11
7243.9529786588218
 21
5288.6593367374999
  0
LINE
  5
16E
100
AcDbEntity
  8
___E
  6
CONTINUOUS
 62
             7
100
AcDbLine
 10
7241.9529776882346
 20
5276.65933691397
 11
7241.9529776882346
 21
5279.6593368698523
  0
LINE
  5
16D
100
AcDbEntity
  8
___E
  6
CONTINUOUS
 62
             7
100
AcDbLine
 10
7254.952977997058
 20
5276.65933691397
 11
7241.9529776882346
 21
5276.65933691397
  0
LINE
  5
16C
100
AcDbEntity
  8
___E
  6
CONTINUOUS
 62
             7
100
AcDbLine
 10
7254.952977997058
 20
5269.659336516911
 11
7254.952977997058
 21
5276.65933691397
  0
LINE
  5
16B
100
AcDbEntity
  8
___E
  6
CONTINUOUS
 62
             7
100
AcDbLine
 10
7241.9529776882346
 20
5269.659336516911
 11
7254.952977997058
 21
5269.659336516911
  0
LINE
  5
16A
100
AcDbEntity
  8
___E
  6
CONTINUOUS
 62
             7
100
AcDbLine
 10
7241.9529776882346
 20
5266.6593365610288
 11
7241.9529776882346
 21
5269.659336516911
  0
LINE
  5
169
100
AcDbEntity
  8
___E
  6
CONTINUOUS
 62
             7
100
AcDbLine
 10
7254.952977997058
 20
5266.6593365610288
 11
7241.9529776882346
 21
5266.6593365610288
  0
LINE
  5
168
100
AcDbEntity
  8
___E
  6
CONTINUOUS
 62
             7
100
AcDbLine
 10
7254.952977997058
 20
5259.6593361639698
 11
7254.952977997058
 21
5266.6593365610288
  0
LINE
  5
167
100
AcDbEntity
  8
___E
  6
CONTINUOUS
 62
             7
100
AcDbLine
 10
7241.9529776882346
 20
5259.6593361639698
 11
7254.952977997058
 21
5259.6593361639698
  0
LINE
  5
166
100
AcDbEntity
  8
___E
  6
CONTINUOUS
 62
             7
100
AcDbLine
 10
7243.9529786588218
 20
5267.6593370463233
 11
7243.9529786588218
 21
5268.6593360316174
  0
LINE
  5
165
100
AcDbEntity
  8
___E
  6
CONTINUOUS
 62
             7
100
AcDbLine
 10
7243.9529786588218
 20
5277.6593358992641
 11
7243.9529786588218
 21
5278.6593363845586
  0
LINE
  5
164
100
AcDbEntity
  8
___E
  6
CONTINUOUS
 62
             7
100
AcDbLine
 10
7241.9529776882346
 20
5279.6593368698523
 11
7254.952977997058
 21
5279.6593368698523
  0
LINE
  5
163
100
AcDbEntity
  8
___E
  6
CONTINUOUS
 62
             7
100
AcDbLine
 10
7241.9529776882346
 20
5269.659336516911
 11
7254.952977997058
 21
5269.659336516911
  0
LINE
  5
162
100
AcDbEntity
  8
___E
  6
CONTINUOUS
 62
             7
100
AcDbLine
 10
7241.9529776882346
 20
5259.6593361639698
 11
7254.952977997058
 21
5259.6593361639698
  0
LINE
  5
161
100
AcDbEntity
  8
___E
  6
EXLTYPE3
 62
             7
100
AcDbLine
 10
7240.9529787029414
 20
5289.6593357227939
 11
7242.9529781735282
 21
5289.6593357227939
  0
LINE
  5
160
100
AcDbEntity
  8
___E
  6
EXLTYPE3
 62
             7
100
AcDbLine
 10
7240.9529787029414
 20
5216.6593377963227
 11
7240.9529787029414
 21
5289.6593357227939
  0
LINE
  5
15F
100
AcDbEntity
  8
___E
  6
EXLTYPE3
 62
             7
100
AcDbLine
 10
7241.9529776882346
 20
5216.6593377963227
 11
7241.9529776882346
 21
5289.6593357227939
  0
LINE
  5
15E
100
AcDbEntity
  8
___E
  6
EXLTYPE3
 62
             7
100
AcDbLine
 10
7242.9529781735282
 20
5289.6593357227939
 11
7242.9529781735282
 21
5216.6593377963227
  0
LINE
  5
15D
100
AcDbEntity
  8
___E
  6
CONTINUOUS
 62
             7
100
AcDbLine
 10
7241.9529776882346
 20
5259.6593361639698
 11
7255.9529784823517
 21
5259.6593361639698
  0
LINE
  5
15C
100
AcDbEntity
  8
___E
  6
CONTINUOUS
 62
             7
100
AcDbLine
 10
7243.9529786588218
 20
5258.6593371786757
 11
7255.9529784823517
 21
5258.6593371786757
  0
LINE
  5
15B
100
AcDbEntity
  8
___E
  6
CONTINUOUS
 62
             7
100
AcDbLine
 10
7255.9529784823517
 20
5257.6593366933821
 11
7243.9529786588218
 21
5257.6593366933821
  0
LINE
  5
15A
100
AcDbEntity
  8
___E
  6
CONTINUOUS
 62
             7
100
AcDbLine
 10
7243.9529786588218
 20
5228.6593376198534
 11
7255.9529784823517
 21
5228.6593376198534
  0
LINE
  5
159
100
AcDbEntity
  8
___E
  6
CONTINUOUS
 62
             7
100
AcDbLine
 10
7255.9529784823517
 20
5227.659337134558
 11
7243.9529786588218
 21
5227.659337134558
  0
LINE
  5
158
100
AcDbEntity
  8
___E
  6
CONTINUOUS
 62
             7
100
AcDbLine
 10
7243.9529786588218
 20
5238.6593364727933
 11
7255.9529784823517
 21
5238.6593364727933
  0
LINE
  5
157
100
AcDbEntity
  8
___E
  6
CONTINUOUS
 62
             7
100
AcDbLine
 10
7255.9529784823517
 20
5237.6593374874992
 11
7243.9529786588218
 21
5237.6593374874992
  0
LINE
  5
156
100
AcDbEntity
  8
___E
  6
CONTINUOUS
 62
             7
100
AcDbLine
 10
7243.9529786588218
 20
5248.6593368257354
 11
7255.9529784823517
 21
5248.6593368257354
  0
LINE
  5
155
100
AcDbEntity
  8
___E
  6
CONTINUOUS
 62
             7
100
AcDbLine
 10
7255.9529784823517
 20
5247.6593363404409
 11
7243.9529786588218
 21
5247.6593363404409
  0
LINE
  5
154
100
AcDbEntity
  8
___E
  6
CONTINUOUS
 62
             7
100
AcDbLine
 10
7241.9529776882346
 20
5216.6593377963227
 11
7255.9529784823517
 21
5216.6593377963227
  0
LINE
  5
153
100
AcDbEntity
  8
___E
  6
CONTINUOUS
 62
             7
100
AcDbLine
 10
7241.9529776882346
 20
5216.6593377963227
 11
7255.9529784823517
 21
5216.6593377963227
  0
LINE
  5
152
100
AcDbEntity
  8
___E
  6
CONTINUOUS
 62
             7
100
AcDbLine
 10
7243.9529786588218
 20
5218.6593372669113
 11
7255.9529784823517
 21
5218.6593372669113
  0
LINE
  5
151
100
AcDbEntity
  8
___E
  6
CONTINUOUS
 62
             7
100
AcDbLine
 10
7255.9529784823517
 20
5217.6593367816167
 11
7243.9529786588218
 21
5217.6593367816167
  0
LINE
  5
150
100
AcDbEntity
  8
___E
  6
CONTINUOUS
 62
             7
100
AcDbLine
 10
7241.9529776882346
 20
5289.6593357227939
 11
7255.9529784823517
 21
5289.6593357227939
  0
LINE
  5
14F
100
AcDbEntity
  8
___E
  6
CONTINUOUS
 62
             7
100
AcDbLine
 10
7243.9529786588218
 20
5288.6593367374999
 11
7255.9529784823517
 21
5288.6593367374999
  0
LINE
  5
14E
100
AcDbEntity
  8
___E
  6
CONTINUOUS
 62
             7
100
AcDbLine
 10
7255.9529784823517
 20
5287.6593362522053
 11
7243.9529786588218
 21
5287.6593362522053
  0
LINE
  5
14D
100
AcDbEntity
  8
___E
  6
CONTINUOUS
 62
             7
100
AcDbLine
 10
7243.9529786588218
 20
5268.6593360316174
 11
7255.9529784823517
 21
5268.6593360316174
  0
LINE
  5
14C
100
AcDbEntity
  8
___E
  6
CONTINUOUS
 62
             7
100
AcDbLine
 10
7255.9529784823517
 20
5267.6593370463233
 11
7243.9529786588218
 21
5267.6593370463233
  0
LINE
  5
14B
100
AcDbEntity
  8
___E
  6
CONTINUOUS
 62
             7
100
AcDbLine
 10
7243.9529786588218
 20
5278.6593363845586
 11
7255.9529784823517
 21
5278.6593363845586
  0
LINE
  5
14A
100
AcDbEntity
  8
___E
  6
CONTINUOUS
 62
             7
100
AcDbLine
 10
7255.9529784823517
 20
5277.6593358992641
 11
7243.9529786588218
 21
5277.6593358992641
  0
LINE
  5
149
100
AcDbEntity
  8
___E
  6
CONTINUOUS
 62
             7
100
AcDbLine
 10
7254.952977997058
 20
5329.4093351382344
 11
7255.9529784823517
 21
5329.4093351382344
  0
LINE
  5
148
100
AcDbEntity
  8
___E
  6
CONTINUOUS
 62
             7
100
AcDbLine
 10
7253.9529775117644
 20
5324.4093357117654
 11
7253.9529775117644
 21
5328.4093361529403
  0
LINE
  5
147
100
AcDbEntity
  8
___E
  6
CONTINUOUS
 62
             7
100
AcDbLine
 10
7255.9529784823517
 20
5323.4093352264699
 11
7254.952977997058
 21
5323.4093352264699
  0
LINE
  5
146
100
AcDbEntity
  8
___E
  6
CONTINUOUS
 62
             7
100
AcDbLine
 10
7350.9529765852931
 20
5349.9951218355027
 11
7350.9529765852931
 21
5208.8235509115548
  0
LINE
  5
145
100
AcDbEntity
  8
___E
  6
CONTINUOUS
 62
             7
100
AcDbLine
 10
7135.4529812838227
 20
5236.6593370022056
 11
7135.4529812838227
 21
5229.6593366051466
  0
LINE
  5
144
100
AcDbEntity
  8
___E
  6
CONTINUOUS
 62
             7
100
AcDbLine
 10
7125.4529809308824
 20
5236.6593370022056
 11
7125.4529809308824
 21
5229.6593366051466
  0
LINE
  5
143
100
AcDbEntity
  8
___E
  6
CONTINUOUS
 62
             7
100
AcDbLine
 10
7135.4529812838227
 20
5226.6593366492643
 11
7135.4529812838227
 21
5219.6593377522049
  0
LINE
  5
142
100
AcDbEntity
  8
___E
  6
CONTINUOUS
 62
             7
100
AcDbLine
 10
7125.4529809308824
 20
5226.6593366492643
 11
7125.4529809308824
 21
5219.6593377522049
  0
LINE
  5
141
100
AcDbEntity
  8
___E
  6
CONTINUOUS
 62
             7
100
AcDbLine
 10
7125.4529809308824
 20
5229.6593366051466
 11
7123.9529809529404
 21
5229.6593366051466
  0
LINE
  5
140
100
AcDbEntity
  8
___E
  6
CONTINUOUS
 62
             7
100
AcDbLine
 10
7123.9529809529404
 20
5229.6593366051466
 11
7123.9529809529404
 21
5219.6593377522049
  0
LINE
  5
13F
100
AcDbEntity
  8
___E
  6
CONTINUOUS
 62
             7
100
AcDbLine
 10
7123.9529809529404
 20
5219.6593377522049
 11
7125.4529809308824
 21
5219.6593377522049
  0
LINE
  5
13E
100
AcDbEntity
  8
___E
  6
CONTINUOUS
 62
             7
100
AcDbLine
 10
7125.4529809308824
 20
5219.6593377522049
 11
7125.4529809308824
 21
5218.8593367639696
  0
LINE
  5
13D
100
AcDbEntity
  8
___E
  6
CONTINUOUS
 62
             7
100
AcDbLine
 10
7125.4529809308824
 20
5218.8593367639696
 11
7135.4529812838227
 21
5218.8593367639696
  0
LINE
  5
13C
100
AcDbEntity
  8
___E
  6
CONTINUOUS
 62
             7
100
AcDbLine
 10
7135.4529812838227
 20
5218.8593367639696
 11
7135.4529812838227
 21
5219.6593377522049
  0
LINE
  5
13B
100
AcDbEntity
  8
___E
  6
CONTINUOUS
 62
             7
100
AcDbLine
 10
7135.4529812838227
 20
5219.6593377522049
 11
7136.9529812617639
 21
5219.6593377522049
  0
LINE
  5
13A
100
AcDbEntity
  8
___E
  6
CONTINUOUS
 62
             7
100
AcDbLine
 10
7136.9529812617639
 20
5219.6593377522049
 11
7136.9529812617639
 21
5229.6593366051466
  0
LINE
  5
139
100
AcDbEntity
  8
___E
  6
CONTINUOUS
 62
             7
100
AcDbLine
 10
7136.9529812617639
 20
5229.6593366051466
 11
7135.4529812838227
 21
5229.6593366051466
  0
LINE
  5
138
100
AcDbEntity
  8
___E
  6
CONTINUOUS
 62
             7
100
AcDbLine
 10
7135.4529812838227
 20
5229.6593366051466
 11
7135.4529812838227
 21
5228.8593371169109
  0
LINE
  5
137
100
AcDbEntity
  8
___E
  6
CONTINUOUS
 62
             7
100
AcDbLine
 10
7135.4529812838227
 20
5228.8593371169109
 11
7125.4529809308824
 21
5228.8593371169109
  0
LINE
  5
136
100
AcDbEntity
  8
___E
  6
CONTINUOUS
 62
             7
100
AcDbLine
 10
7125.4529809308824
 20
5228.8593371169109
 11
7125.4529809308824
 21
5229.6593366051466
  0
LINE
  5
135
100
AcDbEntity
  8
___E
  6
CONTINUOUS
 62
             7
100
AcDbLine
 10
7125.4529809308824
 20
5216.6593377963227
 11
7135.4529812838227
 21
5216.6593377963227
  0
LINE
  5
134
100
AcDbEntity
  8
___E
  6
CONTINUOUS
 62
             7
100
AcDbLine
 10
7135.4529812838227
 20
5286.6593357669117
 11
7135.4529812838227
 21
5279.6593368698523
  0
LINE
  5
133
100
AcDbEntity
  8
___E
  6
CONTINUOUS
 62
             7
100
AcDbLine
 10
7125.4529809308824
 20
5286.6593357669117
 11
7125.4529809308824
 21
5279.6593368698523
  0
LINE
  5
132
100
AcDbEntity
  8
___E
  6
CONTINUOUS
 62
             7
100
AcDbLine
 10
7135.4529812838227
 20
5276.65933691397
 11
7135.4529812838227
 21
5269.659336516911
  0
LINE
  5
131
100
AcDbEntity
  8
___E
  6
CONTINUOUS
 62
             7
100
AcDbLine
 10
7125.4529809308824
 20
5276.65933691397
 11
7125.4529809308824
 21
5269.659336516911
  0
LINE
  5
130
100
AcDbEntity
  8
___E
  6
CONTINUOUS
 62
             7
100
AcDbLine
 10
7125.4529809308824
 20
5289.6593357227939
 11
7135.4529812838227
 21
5289.6593357227939
  0
LINE
  5
12F
100
AcDbEntity
  8
___E
  6
CONTINUOUS
 62
             7
100
AcDbLine
 10
7135.4529812838227
 20
5256.6593362080876
 11
7135.4529812838227
 21
5249.659337311029
  0
LINE
  5
12E
100
AcDbEntity
  8
___E
  6
CONTINUOUS
 62
             7
100
AcDbLine
 10
7125.4529809308824
 20
5256.6593362080876
 11
7125.4529809308824
 21
5249.659337311029
  0
LINE
  5
12D
100
AcDbEntity
  8
___E
  6
CONTINUOUS
 62
             7
100
AcDbLine
 10
7135.4529812838227
 20
5246.6593373551468
 11
7135.4529812838227
 21
5239.6593369580878
  0
LINE
  5
12C
100
AcDbEntity
  8
___E
  6
CONTINUOUS
 62
             7
100
AcDbLine
 10
7125.4529809308824
 20
5246.6593373551468
 11
7125.4529809308824
 21
5239.6593369580878
  0
LINE
  5
12B
100
AcDbEntity
  8
___E
  6
CONTINUOUS
 62
             7
100
AcDbLine
 10
7135.4529812838227
 20
5266.6593365610288
 11
7135.4529812838227
 21
5259.6593361639698
  0
LINE
  5
12A
100
AcDbEntity
  8
___E
  6
CONTINUOUS
 62
             7
100
AcDbLine
 10
7125.4529809308824
 20
5266.6593365610288
 11
7125.4529809308824
 21
5259.6593361639698
  0
LINE
  5
129
100
AcDbEntity
  8
___E
  6
CONTINUOUS
 62
             7
100
AcDbLine
 10
7167.952979805882
 20
5311.409335402941
 11
7169.9529807764702
 21
5313.4093363735292
  0
LINE
  5
128
100
AcDbEntity
  8
___E
  6
CONTINUOUS
 62
             7
100
AcDbLine
 10
7169.9529807764702
 20
5311.409335402941
 11
7167.952979805882
 21
5313.4093363735292
  0
LINE
  5
127
100
AcDbEntity
  8
___E
  6
CONTINUOUS
 62
             7
100
AcDbLine
 10
7167.952979805882
 20
5302.4093355352934
 11
7169.9529807764702
 21
5304.4093365058816
  0
LINE
  5
126
100
AcDbEntity
  8
___E
  6
CONTINUOUS
 62
             7
100
AcDbLine
 10
7169.9529807764702
 20
5302.4093355352934
 11
7167.952979805882
 21
5304.4093365058816
  0
LINE
  5
125
100
AcDbEntity
  8
___E
  6
CONTINUOUS
 62
             7
100
AcDbLine
 10
7167.952979805882
 20
5293.4093356676467
 11
7169.9529807764702
 21
5295.4093366382349
  0
LINE
  5
124
100
AcDbEntity
  8
___E
  6
CONTINUOUS
 62
             7
100
AcDbLine
 10
7169.9529807764702
 20
5293.4093356676467
 11
7167.952979805882
 21
5295.4093366382349
  0
LINE
  5
123
100
AcDbEntity
  8
___E
  6
CONTINUOUS
 62
             7
100
AcDbLine
 10
7145.6529811338232
 20
5220.1093377455873
 11
7142.302980183088
 21
5216.7593367948521
  0
LINE
  5
122
100
AcDbEntity
  8
___E
  6
CONTINUOUS
 62
             7
100
AcDbLine
 10
7142.2029811845578
 20
5220.1593372448524
 11
7145.6029801345594
 21
5216.7593367948521
  0
LINE
  5
121
100
AcDbEntity
  8
___E
  6
CONTINUOUS
 62
             7
100
AcDbLine
 10
7171.1529807588231
 20
5220.1093377455873
 11
7167.8029798080879
 21
5216.7593367948521
  0
LINE
  5
120
100
AcDbEntity
  8
___E
  6
CONTINUOUS
 62
             7
100
AcDbLine
 10
7167.7029808095576
 20
5220.1593372448524
 11
7171.1029797595584
 21
5216.7593367948521
  0
LINE
  5
11F
100
AcDbEntity
  8
___E
  6
CONTINUOUS
 62
             7
100
AcDbLine
 10
7164.4529803573523
 20
5226.4093376529408
 11
7177.4529806661758
 21
5226.4093376529408
  0
LINE
  5
11E
100
AcDbEntity
  8
___E
  6
CONTINUOUS
 62
             7
100
AcDbLine
 10
7163.4529798720578
 20
5227.4093366382349
 11
7163.4529798720578
 21
5280.4093368588228
  0
LINE
  5
11D
100
AcDbEntity
  8
___E
  6
CONTINUOUS
 62
             7
100
AcDbLine
 10
7164.4529803573523
 20
5281.4093358441169
 11
7177.4529806661758
 21
5281.4093358441169
  0
LINE
  5
11C
100
AcDbEntity
  8
___E
  6
CONTINUOUS
 62
             7
100
AcDbLine
 10
7178.4529796514698
 20
5280.4093368588228
 11
7178.4529796514698
 21
5227.4093366382349
  0
LINE
  5
11B
100
AcDbEntity
  8
___E
  6
CONTINUOUS
 62
             7
100
AcDbLine
 10
7256.9529774676457
 20
5342.4093354470588
 11
7338.9529767617641
 21
5342.4093354470588
  0
LINE
  5
11A
100
AcDbEntity
  8
___E
  6
CONTINUOUS
 62
             7
100
AcDbLine
 10
7256.9529774676457
 20
5352.4093357999991
 11
7256.9529774676457
 21
5342.4093354470588
  0
LINE
  5
119
100
AcDbEntity
  8
___E
  6
CONTINUOUS
 62
             7
100
AcDbLine
 10
7128.2029803904406
 20
5316.4093363294114
 11
7128.2029803904406
 21
5312.4093358882346
  0
LINE
  5
118
100
AcDbEntity
  8
___E
  6
CONTINUOUS
 62
             7
100
AcDbLine
 10
7126.2029809198521
 20
5316.4093363294114
 11
7128.2029803904406
 21
5316.4093363294114
  0
LINE
  5
117
100
AcDbEntity
  8
___E
  6
CONTINUOUS
 62
             7
100
AcDbLine
 10
7126.2029809198521
 20
5316.4093363294114
 11
7129.2029808757343
 21
5324.4093357117654
  0
LINE
  5
116
100
AcDbEntity
  8
___E
  6
CONTINUOUS
 62
             7
100
AcDbLine
 10
7132.2202893313624
 20
5301.8105865440984
 11
7132.9105383212118
 21
5301.9893355414697
  0
LINE
  5
115
100
AcDbEntity
  8
___E
  6
CONTINUOUS
 62
             7
100
AcDbLine
 10
7131.8105388373879
 20
5302.2643365374261
 11
7132.2202893313624
 21
5301.8105865440984
  0
LINE
  5
114
100
AcDbEntity
  8
___E
  6
CONTINUOUS
 62
             7
100
AcDbLine
 10
7132.484377827479
 20
5298.7759980887249
 11
7130.4355383576094
 21
5297.8643356021321
  0
LINE
  5
113
100
AcDbEntity
  8
___E
  6
CONTINUOUS
 62
             7
100
AcDbLine
 10
7131.9335883355789
 20
5295.1051396427083
 11
7132.7124813241244
 21
5298.5892495914713
  0
LINE
  5
112
100
AcDbEntity
  8
___E
  6
CONTINUOUS
 62
             7
100
AcDbLine
 10
7131.6251418401143
 20
5298.8226720880384
 11
7133.4605388131231
 21
5299.5143355778673
  0
LINE
  5
111
100
AcDbEntity
  8
___E
  6
CONTINUOUS
 62
             7
100
AcDbLine
 10
7132.9105383212118
 20
5301.9893355414697
 11
7131.4198173431341
 21
5299.0517400846702
  0
LINE
  5
110
100
AcDbEntity
  8
___E
  6
CONTINUOUS
 62
             7
100
AcDbLine
 10
7132.3068213300903
 20
5295.1302091423404
 11
7133.4605388131231
 21
5299.5143355778673
  0
LINE
  5
10F
100
AcDbEntity
  8
___E
  6
CONTINUOUS
 62
             7
100
AcDbLine
 10
7132.9105383212118
 20
5295.3343366393374
 11
7132.3068213300903
 21
5295.1302091423404
  0
LINE
  5
10E
100
AcDbEntity
  8
___E
  6
CONTINUOUS
 62
             7
100
AcDbLine
 10
7131.8655393365789
 20
5294.5093366514702
 11
7132.9105383212118
 21
5295.3343366393374
  0
LINE
  5
10D
100
AcDbEntity
  8
___E
  6
CONTINUOUS
 62
             7
100
AcDbLine
 10
7131.535539341432
 20
5295.6093361352932
 11
7131.9335883355789
 21
5295.1051396427083
  0
LINE
  5
10C
100
AcDbEntity
  8
___E
  6
CONTINUOUS
 62
             7
100
AcDbLine
 10
7131.8655393365789
 20
5294.5093366514702
 11
7131.535539341432
 21
5295.6093361352932
  0
LINE
  5
10B
100
AcDbEntity
  8
___E
  6
CONTINUOUS
 62
             7
100
AcDbLine
 10
7131.8105388373879
 20
5302.2643365374261
 11
7130.4355383576094
 21
5297.8643356021321
  0
LINE
  5
10A
100
AcDbEntity
  8
___E
  6
CONTINUOUS
 62
             7
100
AcDbLine
 10
7138.7407067354743
 20
5294.2406521554212
 11
7132.8331503223499
 21
5304.1653495094697
  0
LINE
  5
109
100
AcDbEntity
  8
___E
  6
CONTINUOUS
 62
             7
100
AcDbLine
 10
7126.452981416176
 20
5293.4093356676467
 11
7138.2680957424254
 21
5293.4093356676467
  0
LINE
  5
108
100
AcDbEntity
  8
___E
  6
CONTINUOUS
 62
             7
100
AcDbLine
 10
7131.8879268362498
 20
5304.1653495094697
 11
7125.9803704231263
 21
5294.2406521554212
  0
LINE
  5
107
100
AcDbEntity
  8
___E
  6
CONTINUOUS
 62
             7
100
AcDbLine
 10
7303.6029767816162
 20
5345.7593348977944
 11
7300.2529773308815
 21
5349.1093358485286
  0
LINE
  5
106
100
AcDbEntity
  8
___E
  6
CONTINUOUS
 62
             7
100
AcDbLine
 10
7300.3029768301449
 20
5345.7593348977944
 11
7303.7029772801461
 21
5349.1593353477938
  0
POINT
  5
35
100
AcDbEntity
  8
___E
 62
             7
100
AcDbPoint
 10
7127.4529804014701
 20
5363.9951211296202
  0
POINT
  5
34
100
AcDbEntity
  8
___E
 62
             7
100
AcDbPoint
 10
7133.4529803132345
 20
5363.9951211296202
  0
POINT
  5
33
100
AcDbEntity
  8
___E
 62
             7
100
AcDbPoint
 10
7116.2029805669108
 20
5365.409334608823
  0
POINT
  5
32
100
AcDbEntity
  8
___E
 62
             7
100
AcDbPoint
 10
7116.2029805669108
 20
5167.4093375205894
  0
POINT
  5
31
100
AcDbEntity
  8
___E
 62
             7
100
AcDbPoint
 10
7125.3029809330874
 20
5358.4093357117654
  0
POINT
  5
30
100
AcDbEntity
  8
___E
 62
             7
100
AcDbPoint
 10
7125.3029809330874
 20
5174.4093379176466
  0
POINT
  5
2F
100
AcDbEntity
  8
___E
 62
             7
100
AcDbPoint
 10
7405.9529762764696
 20
5365.409334608823
  0
POINT
  5
2E
100
AcDbEntity
  8
___E
 62
             7
100
AcDbPoint
 10
7240.9529787029414
 20
5289.6593357227939
  0
POINT
  5
2D
100
AcDbEntity
  8
___E
 62
             7
100
AcDbPoint
 10
7255.9529784823517
 20
5351.4093353147064
  0
POINT
  5
2C
100
AcDbEntity
  8
___E
 62
             7
100
AcDbPoint
 10
7405.9529762764696
 20
5167.4093375205894
  0
POINT
  5
2B
100
AcDbEntity
  8
___E
 62
             7
100
AcDbPoint
 10
7404.3529758000004
 20
5167.4093375205894
  0
POINT
  5
2A
100
AcDbEntity
  8
___E
 62
             7
100
AcDbPoint
 10
7113.9529805999991
 20
5352.4093357999991
  0
POINT
  5
29
100
AcDbEntity
  8
___E
 62
             7
100
AcDbPoint
 10
7181.9529805999991
 20
5352.4093357999991
  0
ENDSEC
  0
SECTION
  2
OBJECTS
  0
DICTIONARY
  5
19
100
AcDbDictionary
  3
ACAD_GROUP
350
1A
  3
ACAD_MLINESTYLE
350
1B
  0
DICTIONARY
  5
1A
102
{ACAD_REACTORS
330
19
102
}
100
AcDbDictionary
  0
DICTIONARY
  5
1B
102
{ACAD_REACTORS
330
19
102
}
100
AcDbDictionary
  3
STANDARD
350
1C
  0
MLINESTYLE
  5
1C
102
{ACAD_REACTORS
330
1B
102
}
100
AcDbMlineStyle
  2
STANDARD
 70
             0
  3

 62
             0
 51
90.0
 52
90.0
 71
             2
 49
0.5
 62
           256
  6
BYLAYER
 49
-0.5
 62
           256
  6
BYLAYER
  0
ENDSEC
  0
EOF
