  0
SECTION
  2
HEADER
  9
$ACADVER
  1
AC1014
  9
$ACADMAINTVER
 70
             0
  9
$DWGCODEPAGE
  3
ANSI_1252
  9
$INSBASE
 10
0.0
 20
0.0
 30
0.0
  9
$EXTMIN
 10
1.00000000000000E+20
 20
1.00000000000000E+20
 30
1.00000000000000E+20
  9
$EXTMAX
 10
-1.00000000000000E+20
 20
-1.00000000000000E+20
 30
-1.00000000000000E+20
  9
$LIMMIN
 10
0.0
 20
0.0
  9
$LIMMAX
 10
0.0
 20
0.0
  9
$ORTHOMODE
 70
             0
  9
$REGENMODE
 70
             1
  9
$FILLMODE
 70
             1
  9
$QTEXTMODE
 70
             0
  9
$MIRRTEXT
 70
             1
  9
$DRAGMODE
 70
             2
  9
$LTSCALE
 40
1.0
  9
$OSMODE
 70
             0
  9
$ATTMODE
 70
             1
  9
$TEXTSIZE
 40
0.2
  9
$TRACEWID
 40
0.05
  9
$TEXTSTYLE
  7
STANDARD
  9
$CLAYER
  8
0
  9
$CELTYPE
  6
CONTINUOUS
  9
$CECOLOR
 62
           256
  9
$CELTSCALE
 40
1.0
  9
$DELOBJ
 70
             1
  9
$DISPSILH
 70
             0
  9
$DIMSCALE
 40
1.0
  9
$DIMASZ
 40
0.18
  9
$DIMEXO
 40
0.0625
  9
$DIMDLI
 40
0.38
  9
$DIMRND
 40
0.0
  9
$DIMDLE
 40
0.0
  9
$DIMEXE
 40
0.18
  9
$DIMTP
 40
0.0
  9
$DIMTM
 40
0.0
  9
$DIMTXT
 40
0.18
  9
$DIMCEN
 40
0.09
  9
$DIMTSZ
 40
0.0
  9
$DIMTOL
 70
             0
  9
$DIMLIM
 70
             0
  9
$DIMTIH
 70
             1
  9
$DIMTOH
 70
             1
  9
$DIMSE1
 70
             0
  9
$DIMSE2
 70
             0
  9
$DIMTAD
 70
             0
  9
$DIMZIN
 70
             0
  9
$DIMBLK
  1

  9
$DIMASO
 70
             1
  9
$DIMSHO
 70
             1
  9
$DIMPOST
  1

  9
$DIMAPOST
  1

  9
$DIMALT
 70
             0
  9
$DIMALTD
 70
             2
  9
$DIMALTF
 40
25.4
  9
$DIMLFAC
 40
1.0
  9
$DIMTOFL
 70
             0
  9
$DIMTVP
 40
0.0
  9
$DIMTIX
 70
             0
  9
$DIMSOXD
 70
             0
  9
$DIMSAH
 70
             0
  9
$DIMBLK1
  1

  9
$DIMBLK2
  1

  9
$DIMSTYLE
  2
STANDARD
  9
$DIMCLRD
 70
             0
  9
$DIMCLRE
 70
             0
  9
$DIMCLRT
 70
             0
  9
$DIMTFAC
 40
1.0
  9
$DIMGAP
 40
0.09
  9
$DIMJUST
 70
             0
  9
$DIMSD1
 70
             0
  9
$DIMSD2
 70
             0
  9
$DIMTOLJ
 70
             1
  9
$DIMTZIN
 70
             0
  9
$DIMALTZ
 70
             0
  9
$DIMALTTZ
 70
             0
  9
$DIMFIT
 70
             3
  9
$DIMUPT
 70
             0
  9
$DIMUNIT
 70
             2
  9
$DIMDEC
 70
             4
  9
$DIMTDEC
 70
             4
  9
$DIMALTU
 70
             2
  9
$DIMALTTD
 70
             2
  9
$DIMTXSTY
  7
STANDARD
  9
$DIMAUNIT
 70
             0
  9
$LUNITS
 70
             2
  9
$LUPREC
 70
             4
  9
$SKETCHINC
 40
0.1
  9
$FILLETRAD
 40
0.0
  9
$AUNITS
 70
             0
  9
$AUPREC
 70
             0
  9
$MENU
  1
acad
  9
$ELEVATION
 40
0.0
  9
$PELEVATION
 40
0.0
  9
$THICKNESS
 40
0.0
  9
$LIMCHECK
 70
             0
  9
$BLIPMODE
 70
             1
  9
$CHAMFERA
 40
0.0
  9
$CHAMFERB
 40
0.0
  9
$CHAMFERC
 40
0.0
  9
$CHAMFERD
 40
0.0
  9
$SKPOLY
 70
             0
  9
$TDCREATE
 40
0.000000000
  9
$TDUPDATE
 40
0.000000000
  9
$TDINDWG
 40
0.0000000000
  9
$TDUSRTIMER
 40
0.0000000000
  9
$USRTIMER
 70
             1
  9
$ANGBASE
 50
0.0
  9
$ANGDIR
 70
             0
  9
$PDMODE
 70
             0
  9
$PDSIZE
 40
0.0
  9
$PLINEWID
 40
0.0
  9
$COORDS
 70
             0
  9
$SPLFRAME
 70
             0
  9
$SPLINETYPE
 70
             6
  9
$SPLINESEGS
 70
             8
  9
$ATTDIA
 70
             0
  9
$ATTREQ
 70
             1
  9
$HANDLING
 70
             1
  9
$HANDSEED
  5
2A3
  9
$SURFTAB1
 70
             6
  9
$SURFTAB2
 70
             6
  9
$SURFTYPE
 70
             6
  9
$SURFU
 70
             6
  9
$SURFV
 70
             6
  9
$UCSNAME
  2

  9
$UCSORG
 10
0.0
 20
0.0
 30
0.0
  9
$UCSXDIR
 10
1.0
 20
0.0
 30
0.0
  9
$UCSYDIR
 10
0.0
 20
1.0
 30
0.0
  9
$PUCSNAME
  2

  9
$PUCSORG
 10
0.0
 20
0.0
 30
0.0
  9
$PUCSXDIR
 10
1.0
 20
0.0
 30
0.0
  9
$PUCSYDIR
 10
0.0
 20
1.0
 30
0.0
  9
$USERI1
 70
             0
  9
$USERI2
 70
             0
  9
$USERI3
 70
             0
  9
$USERI4
 70
             0
  9
$USERI5
 70
             0
  9
$USERR1
 40
11.6
  9
$USERR2
 40
0.0
  9
$USERR3
 40
0.0
  9
$USERR4
 40
0.0
  9
$USERR5
 40
0.0
  9
$WORLDVIEW
 70
             1
  9
$SHADEDGE
 70
             3
  9
$SHADEDIF
 70
            70
  9
$TILEMODE
 70
             1
  9
$MAXACTVP
 70
            16
  9
$PINSBASE
 10
0.0
 20
0.0
 30
0.0
  9
$PLIMCHECK
 70
             0
  9
$PEXTMIN
 10
1.00000000000000E+20
 20
1.00000000000000E+20
 30
1.00000000000000E+20
  9
$PEXTMAX
 10
-1.00000000000000E+20
 20
-1.00000000000000E+20
 30
-1.00000000000000E+20
  9
$PLIMMIN
 10
0.0
 20
0.0
  9
$PLIMMAX
 10
12.0
 20
9.0
  9
$UNITMODE
 70
             0
  9
$VISRETAIN
 70
             0
  9
$PLINEGEN
 70
             1
  9
$PSLTSCALE
 70
             0
  9
$TREEDEPTH
 70
          3020
  9
$PICKSTYLE
 70
             1
  9
$CMLSTYLE
  2
STANDARD
  9
$CMLJUST
 70
             0
  9
$CMLSCALE
 40
1.0
  9
$PROXYGRAPHICS
 70
             0
  9
$MEASUREMENT
 70
             1
  0
ENDSEC
  0
SECTION
  2
CLASSES
  0
CLASS
  1
LWPOLYLINE
  2
AcDbPolyline
  3
"AutoCAD"
 90
        0
280
             0
281
             1
  0
CLASS
  1
IMAGE
  2
AcDbRasterImage
  3
ISM
 90
      127
280
             0
281
             1
  0
CLASS
  1
OLE2FRAME
  2
AcDbOle2Frame
  3
""
 90
        0
280
             0
281
             1
  0
CLASS
  1
HATCH
  2
AcDbHatch
  3
"ACAD_SEDONA"
 90
        0
280
             0
281
             1
  0
CLASS
  1
DICTIONARYVAR
  2
AcDbDictionaryVar
  3
"AutoCAD"
 90
        0
280
             0
281
             0
  0
CLASS
  1
RASTERVARIABLES
  2
AcDbRasterVariables
  3
ISM
 90
        0
280
             0
281
             0
  0
CLASS
  1
IMAGEDEF
  2
AcDbRasterImageDef
  3
ISM
 90
        0
280
             0
281
             0
  0
CLASS
  1
IMAGEDEF_REACTOR
  2
AcDbRasterImageDefReactor
  3
ISM
 90
        1
280
             0
281
             0
  0
CLASS
  1
IDBUFFER
  2
AcDbIdBuffer
  3
"Acad"
 90
        0
280
             0
281
             0
  0
CLASS
  1
SPATIAL_FILTER
  2
AcDbSpatialFilter
  3
"Acad"
 90
        0
280
             0
281
             0
  0
CLASS
  1
XRECORD
  2
AcDbXrecord
  3
"<Built In>"
 90
        0
280
             0
281
             0
  0
CLASS
  1
SORTENTSTABLE
  2
AcDbSortentsTable
  3
"AutoCAD"
 90
        0
280
             0
281
             0
  0
CLASS
  1
LAYER_INDEX
  2
AcDbLayerIndex
  3
"Acad"
 90
        0
280
             0
281
             0
  0
CLASS
  1
SPATIAL_INDEX
  2
AcDbSpatialIndex
  3
"Acad"
 90
        0
280
             0
281
             0
  0
CLASS
  1
OBJECT_PTR
  2
CAseDLPNTableRecord
  3
"ASE-LPNTableRecord"
 90
        1
280
             0
281
             0
  0
CLASS
  1
LAYOUT
  2
AcDbLayout
  3
"AutoCAD 2000"
 90
        1
280
             0
281
             0
  0
CLASS
  1
PLOTSETTINGS
  2
AcDbPlotSettings
  3
"AutoCAD 2000"
 90
        1
280
             0
281
             0
  0
CLASS
  1
ACDBDICTIONARYWDFLT
  2
AcDbDictionaryWithDefault
  3
"AutoCAD 2000"
 90
        1
280
             0
281
             0
  0
CLASS
  1
ACDBPLACEHOLDER
  2
AcDbPlaceHolder
  3
"AutoCAD 2000"
 90
        1
280
             0
281
             0
  0
ENDSEC
  0
SECTION
  2
TABLES
  0
TABLE
  2
VPORT
  5
7
100
AcDbSymbolTable
 70
             1
  0
VPORT
  5
15
100
AcDbSymbolTableRecord
100
AcDbViewportTableRecord
  2
*ACTIVE
 70
             0
 10
0.0
 20
0.0
 11
1.0
 21
1.0
 12
7196.7788428995773
 22
4974.8981762016947
 13
0.0
 23
0.0
 14
1.0
 24
1.0
 15
0.0
 25
0.0
 16
0.0
 26
0.0
 36
1.0
 17
0.0
 27
0.0
 37
0.0
 40
195.80000220932291
 41
1.60267857142857
 42
50.0
 43
0.0
 44
0.0
 50
0.0
 51
0.0
 71
             0
 72
           100
 73
             1
 74
             1
 75
             0
 76
             0
 77
             0
 78
             0
  0
ENDTAB
  0
TABLE
  2
LTYPE
  5
4
100
AcDbSymbolTable
 70
            11
  0
LTYPE
  5
11
100
AcDbSymbolTableRecord
100
AcDbLinetypeTableRecord
  2
BYBLOCK
 70
            64
  3

 72
            65
 73
             0
 40
0.0
  0
LTYPE
  5
12
100
AcDbSymbolTableRecord
100
AcDbLinetypeTableRecord
  2
BYLAYER
 70
            64
  3

 72
            65
 73
             0
 40
0.0
  0
LTYPE
  5
13
100
AcDbSymbolTableRecord
100
AcDbLinetypeTableRecord
  2
CONTINUOUS
 70
            64
  3
Solid line
 72
            65
 73
             0
 40
0.0
  0
LTYPE
  5
1D
100
AcDbSymbolTableRecord
100
AcDbLinetypeTableRecord
  2
DASHED
 70
            64
  3
Dashed
 72
            65
 73
             2
 40
15.0
 49
12.0
 74
             0
 49
-3.0
 74
             0
  0
LTYPE
  5
1E
100
AcDbSymbolTableRecord
100
AcDbLinetypeTableRecord
  2
DOTTED
 70
            64
  3
Dotted
 72
            65
 73
             2
 40
3.5
 49
0.5
 74
             0
 49
-3.0
 74
             0
  0
LTYPE
  5
1F
100
AcDbSymbolTableRecord
100
AcDbLinetypeTableRecord
  2
DOT_CENTER
 70
            64
  3
Dot_Center
 72
            65
 73
             4
 40
2.0
 49
1.25
 74
             0
 49
-0.25
 74
             0
 49
0.25
 74
             0
 49
-0.25
 74
             0
  0
LTYPE
  5
20
100
AcDbSymbolTableRecord
100
AcDbLinetypeTableRecord
  2
LONG_DASHED
 70
            64
  3
Long_Dashed
 72
            65
 73
             2
 40
2.0
 49
1.5
 74
             0
 49
-0.5
 74
             0
  0
LTYPE
  5
21
100
AcDbSymbolTableRecord
100
AcDbLinetypeTableRecord
  2
DASH_CENTER
 70
            64
  3
Dash_Center
 72
            65
 73
             4
 40
36.0
 49
24.0
 74
             0
 49
-3.0
 74
             0
 49
6.0
 74
             0
 49
-3.0
 74
             0
  0
LTYPE
  5
22
100
AcDbSymbolTableRecord
100
AcDbLinetypeTableRecord
  2
PHANTOM
 70
            64
  3
Phantom
 72
            65
 73
             6
 40
2.5
 49
1.25
 74
             0
 49
-0.25
 74
             0
 49
0.25
 74
             0
 49
-0.25
 74
             0
 49
0.25
 74
             0
 49
-0.25
 74
             0
  0
LTYPE
  5
23
100
AcDbSymbolTableRecord
100
AcDbLinetypeTableRecord
  2
CENTER_DASH_DASH
 70
            64
  3
Center_Dash_Dash
 72
            65
 73
             6
 40
22.0
 49
12.0
 74
             0
 49
-3.0
 74
             0
 49
0.5
 74
             0
 49
-3.0
 74
             0
 49
0.5
 74
             0
 49
-3.0
 74
             0
  0
LTYPE
  5
24
100
AcDbSymbolTableRecord
100
AcDbLinetypeTableRecord
  2
EXLTYPE3
 70
            64
  3
EXLTYPE3
 72
            65
 73
             4
 40
13.0
 49
10.0
 74
             0
 49
-1.0
 74
             0
 49
1.0
 74
             0
 49
-1.0
 74
             0
  0
ENDTAB
  0
TABLE
  2
LAYER
  5
2
100
AcDbSymbolTable
 70
             2
  0
LAYER
  5
14
100
AcDbSymbolTableRecord
100
AcDbLayerTableRecord
  2
0
 70
             0
 62
             7
  6
CONTINUOUS
  0
LAYER
  5
25
100
AcDbSymbolTableRecord
100
AcDbLayerTableRecord
  2
___E
 70
             0
 62
             7
  6
CONTINUOUS
  0
ENDTAB
  0
TABLE
  2
STYLE
  5
3
100
AcDbSymbolTable
 70
             1
  0
STYLE
  5
17
100
AcDbSymbolTableRecord
100
AcDbTextStyleTableRecord
  2
STANDARD
 70
             0
 40
0.0
 41
1.0
 50
0.0
 71
             0
 42
0.0
  3
txt
  4

  0
ENDTAB
  0
TABLE
  2
VIEW
  5
5
100
AcDbSymbolTable
 70
             0
  0
ENDTAB
  0
TABLE
  2
UCS
  5
6
100
AcDbSymbolTable
 70
             0
  0
ENDTAB
  0
TABLE
  2
APPID
  5
8
100
AcDbSymbolTable
 70
             1
  0
APPID
  5
16
100
AcDbSymbolTableRecord
100
AcDbRegAppTableRecord
  2
ACAD
 70
             0
  0
ENDTAB
  0
TABLE
  2
DIMSTYLE
  5
9
100
AcDbSymbolTable
 70
             1
  0
DIMSTYLE
105
18
100
AcDbSymbolTableRecord
100
AcDbDimStyleTableRecord
  2
STANDARD
 70
             0
  3

  4

  5

  6

  7

 40
1.0
 41
0.18
 42
0.0625
 43
0.38
 44
0.18
 45
0.0
 46
0.0
 47
0.0
 48
0.0
 71
             0
 72
             0
 73
             1
 74
             1
 75
             0
 76
             0
 77
             0
 78
             0
140
0.18
141
0.09
142
0.0
143
25.4
144
1.0
145
0.0
146
1.0
147
0.09
170
             0
171
             2
172
             0
173
             0
174
             0
175
             0
176
             0
177
             0
178
             0
270
             2
271
             4
272
             4
273
             2
274
             2
275
             0
280
             0
281
             0
282
             0
283
             1
284
             0
285
             0
286
             0
287
             0
288
             0
340
17
  0
ENDTAB
  0
TABLE
  2
BLOCK_RECORD
  5
1
100
AcDbSymbolTable
 70
             0
  0
BLOCK_RECORD
  5
A
100
AcDbSymbolTableRecord
100
AcDbBlockTableRecord
  2
*MODEL_SPACE
  0
BLOCK_RECORD
  5
B
100
AcDbSymbolTableRecord
100
AcDbBlockTableRecord
  2
*PAPER_SPACE
  0
ENDTAB
  0
ENDSEC
  0
SECTION
  2
BLOCKS
  0
BLOCK
  5
D
100
AcDbEntity
  8
0
100
AcDbBlockBegin
  2
*MODEL_SPACE
 70
             0
 10
0.0
 20
0.0
 30
0.0
  3
*MODEL_SPACE
  1

  0
ENDBLK
  5
E
100
AcDbEntity
  8
0
100
AcDbBlockEnd
  0
BLOCK
  5
F
100
AcDbEntity
 67
             1
  8
0
100
AcDbBlockBegin
  2
*PAPER_SPACE
 70
             0
 10
0.0
 20
0.0
 30
0.0
  3
*PAPER_SPACE
  1

  0
ENDBLK
  5
10
100
AcDbEntity
 67
             1
  8
0
100
AcDbBlockEnd
  0
ENDSEC
  0
SECTION
  2
ENTITIES
  0
LWPOLYLINE
  5
2A1
100
AcDbEntity
  8
___E
  6
CONTINUOUS
 62
             7
100
AcDbPolyline
 90
       12
 70
             1
 10
7067.5288418
 20
4913.3981764305081
 10
7067.5288418
 20
5051.3981775999991
 10
7067.5288418
 20
5051.3981775999991
 10
7126.5288418
 20
5051.3981775999991
 10
7126.5288418
 20
5051.3981775999991
 10
7126.5288418
 20
4913.3981764305081
 10
7126.5288418
 20
4913.3981764305081
 10
7067.5288418
 20
4913.3981764305081
 10
7067.5288418
 20
4913.3981764305081
 10
7067.5288418
 20
4913.3981764305081
 10
7067.5288418
 20
4913.3981764305081
 10
7067.5288418
 20
4913.3981764305081
  0
LWPOLYLINE
  5
29F
100
AcDbEntity
  8
___E
  6
CONTINUOUS
 62
             7
100
AcDbPolyline
 90
       12
 70
             1
 10
7072.7788418444916
 20
4919.3981764813552
 10
7072.7788418444916
 20
4992.8981771042372
 10
7072.7788418444916
 20
4992.8981771042372
 10
7086.2788419588987
 20
4992.8981771042372
 10
7086.2788419588987
 20
4992.8981771042372
 10
7086.2788419588987
 20
4919.3981764813552
 10
7086.2788419588987
 20
4919.3981764813552
 10
7072.7788418444916
 20
4919.3981764813552
 10
7072.7788418444916
 20
4919.3981764813552
 10
7072.7788418444916
 20
4919.3981764813552
 10
7072.7788418444916
 20
4919.3981764813552
 10
7072.7788418444916
 20
4919.3981764813552
  0
LWPOLYLINE
  5
29D
100
AcDbEntity
  8
___E
  6
CONTINUOUS
 62
             7
100
AcDbPolyline
 90
       36
 70
             1
 10
7074.528842359322
 20
4942.6481766783891
 10
7074.528842359322
 20
4941.8481756716101
 10
7074.528842359322
 20
4941.8481756716101
 10
7084.5288414440683
 20
4941.8481756716101
 10
7084.5288414440683
 20
4941.8481756716101
 10
7084.5288414440683
 20
4942.6481766783891
 10
7084.5288414440683
 20
4942.6481766783891
 10
7086.0288414567794
 20
4942.6481766783891
 10
7086.0288414567794
 20
4942.6481766783891
 10
7086.0288414567794
 20
4932.648176093644
 10
7086.0288414567794
 20
4932.648176093644
 10
7084.5288414440683
 20
4932.648176093644
 10
7084.5288414440683
 20
4932.648176093644
 10
7084.5288414440683
 20
4931.8481765868637
 10
7084.5288414440683
 20
4931.8481765868637
 10
7074.528842359322
 20
4931.8481765868637
 10
7074.528842359322
 20
4931.8481765868637
 10
7074.528842359322
 20
4932.648176093644
 10
7074.528842359322
 20
4932.648176093644
 10
7073.02884234661
 20
4932.648176093644
 10
7073.02884234661
 20
4932.648176093644
 10
7073.02884234661
 20
4942.6481766783891
 10
7073.02884234661
 20
4942.6481766783891
 10
7074.528842359322
 20
4942.6481766783891
 10
7074.528842359322
 20
4942.6481766783891
 10
7074.528842359322
 20
4942.6481766783891
 10
7074.528842359322
 20
4942.6481766783891
 10
7074.528842359322
 20
4942.6481766783891
 10
7074.528842359322
 20
4942.6481766783891
 10
7074.528842359322
 20
4942.6481766783891
 10
7074.528842359322
 20
4942.6481766783891
 10
7074.528842359322
 20
4942.6481766783891
 10
7074.528842359322
 20
4942.6481766783891
 10
7074.528842359322
 20
4942.6481766783891
 10
7074.528842359322
 20
4942.6481766783891
 10
7074.528842359322
 20
4942.6481766783891
  0
LWPOLYLINE
  5
29B
100
AcDbEntity
  8
___E
  6
CONTINUOUS
 62
             7
100
AcDbPolyline
 90
       15
 70
             0
 10
7086.0288414567794
 20
4939.648176652966
 10
7084.5288414440683
 20
4939.648176652966
 10
7084.5288414440683
 20
4939.648176652966
 10
7084.5288414440683
 20
4940.4481761597453
 10
7084.5288414440683
 20
4940.4481761597453
 10
7074.528842359322
 20
4940.4481761597453
 10
7074.528842359322
 20
4940.4481761597453
 10
7074.528842359322
 20
4939.648176652966
 10
7074.528842359322
 20
4939.648176652966
 10
7073.02884234661
 20
4939.648176652966
 10
7073.02884234661
 20
4939.648176652966
 10
7073.02884234661
 20
4939.648176652966
 10
7073.02884234661
 20
4939.648176652966
 10
7073.02884234661
 20
4939.648176652966
 10
7073.02884234661
 20
4939.648176652966
  0
LWPOLYLINE
  5
299
100
AcDbEntity
  8
___E
  6
CONTINUOUS
 62
             7
100
AcDbPolyline
 90
       15
 70
             0
 10
7086.0288414567794
 20
4929.64817606822
 10
7084.5288414440683
 20
4929.64817606822
 10
7084.5288414440683
 20
4929.64817606822
 10
7084.5288414440683
 20
4930.4481755749994
 10
7084.5288414440683
 20
4930.4481755749994
 10
7074.528842359322
 20
4930.4481755749994
 10
7074.528842359322
 20
4930.4481755749994
 10
7074.528842359322
 20
4929.64817606822
 10
7074.528842359322
 20
4929.64817606822
 10
7073.02884234661
 20
4929.64817606822
 10
7073.02884234661
 20
4929.64817606822
 10
7073.02884234661
 20
4929.64817606822
 10
7073.02884234661
 20
4929.64817606822
 10
7073.02884234661
 20
4929.64817606822
 10
7073.02884234661
 20
4929.64817606822
  0
LWPOLYLINE
  5
297
100
AcDbEntity
  8
___E
  6
CONTINUOUS
 62
             7
100
AcDbPolyline
 90
       21
 70
             0
 10
7086.0288414567794
 20
4922.648175508898
 10
7086.0288414567794
 20
4919.648175483474
 10
7086.0288414567794
 20
4919.648175483474
 10
7084.5288414440683
 20
4919.648175483474
 10
7084.5288414440683
 20
4919.648175483474
 10
7084.5288414440683
 20
4920.4481764902539
 10
7084.5288414440683
 20
4920.4481764902539
 10
7074.528842359322
 20
4920.4481764902539
 10
7074.528842359322
 20
4920.4481764902539
 10
7074.528842359322
 20
4919.648175483474
 10
7074.528842359322
 20
4919.648175483474
 10
7073.02884234661
 20
4919.648175483474
 10
7073.02884234661
 20
4919.648175483474
 10
7073.02884234661
 20
4922.648175508898
 10
7073.02884234661
 20
4922.648175508898
 10
7073.02884234661
 20
4922.648175508898
 10
7073.02884234661
 20
4922.648175508898
 10
7073.02884234661
 20
4922.648175508898
 10
7073.02884234661
 20
4922.648175508898
 10
7073.02884234661
 20
4922.648175508898
 10
7073.02884234661
 20
4922.648175508898
  0
LWPOLYLINE
  5
295
100
AcDbEntity
  8
___E
  6
CONTINUOUS
 62
             7
100
AcDbPolyline
 90
       36
 70
             1
 10
7080.0288414059323
 20
4928.6481755597451
 10
7080.0288414059323
 20
4926.648176042796
 10
7080.0288414059323
 20
4926.648176042796
 10
7082.028842422882
 20
4926.648176042796
 10
7082.028842422882
 20
4926.648176042796
 10
7082.028842422882
 20
4925.648175534322
 10
7082.028842422882
 20
4925.648175534322
 10
7080.0288414059323
 20
4925.648175534322
 10
7080.0288414059323
 20
4925.648175534322
 10
7080.0288414059323
 20
4923.6481760173729
 10
7080.0288414059323
 20
4923.6481760173729
 10
7079.028842397458
 20
4923.6481760173729
 10
7079.028842397458
 20
4923.6481760173729
 10
7079.028842397458
 20
4925.648175534322
 10
7079.028842397458
 20
4925.648175534322
 10
7077.0288413805083
 20
4925.648175534322
 10
7077.0288413805083
 20
4925.648175534322
 10
7077.0288413805083
 20
4926.648176042796
 10
7077.0288413805083
 20
4926.648176042796
 10
7079.028842397458
 20
4926.648176042796
 10
7079.028842397458
 20
4926.648176042796
 10
7079.028842397458
 20
4928.6481755597451
 10
7079.028842397458
 20
4928.6481755597451
 10
7080.0288414059323
 20
4928.6481755597451
 10
7080.0288414059323
 20
4928.6481755597451
 10
7080.0288414059323
 20
4928.6481755597451
 10
7080.0288414059323
 20
4928.6481755597451
 10
7080.0288414059323
 20
4928.6481755597451
 10
7080.0288414059323
 20
4928.6481755597451
 10
7080.0288414059323
 20
4928.6481755597451
 10
7080.0288414059323
 20
4928.6481755597451
 10
7080.0288414059323
 20
4928.6481755597451
 10
7080.0288414059323
 20
4928.6481755597451
 10
7080.0288414059323
 20
4928.6481755597451
 10
7080.0288414059323
 20
4928.6481755597451
 10
7080.0288414059323
 20
4928.6481755597451
  0
LWPOLYLINE
  5
293
100
AcDbEntity
  8
___E
  6
CONTINUOUS
 62
             7
100
AcDbPolyline
 90
       36
 70
             1
 10
7080.0288414059323
 20
4938.6481761444911
 10
7080.0288414059323
 20
4936.6481766275419
 10
7080.0288414059323
 20
4936.6481766275419
 10
7082.028842422882
 20
4936.6481766275419
 10
7082.028842422882
 20
4936.6481766275419
 10
7082.028842422882
 20
4935.6481761190671
 10
7082.028842422882
 20
4935.6481761190671
 10
7080.0288414059323
 20
4935.6481761190671
 10
7080.0288414059323
 20
4935.6481761190671
 10
7080.0288414059323
 20
4933.6481766021179
 10
7080.0288414059323
 20
4933.6481766021179
 10
7079.028842397458
 20
4933.6481766021179
 10
7079.028842397458
 20
4933.6481766021179
 10
7079.028842397458
 20
4935.6481761190671
 10
7079.028842397458
 20
4935.6481761190671
 10
7077.0288413805083
 20
4935.6481761190671
 10
7077.0288413805083
 20
4935.6481761190671
 10
7077.0288413805083
 20
4936.6481766275419
 10
7077.0288413805083
 20
4936.6481766275419
 10
7079.028842397458
 20
4936.6481766275419
 10
7079.028842397458
 20
4936.6481766275419
 10
7079.028842397458
 20
4938.6481761444911
 10
7079.028842397458
 20
4938.6481761444911
 10
7080.0288414059323
 20
4938.6481761444911
 10
7080.0288414059323
 20
4938.6481761444911
 10
7080.0288414059323
 20
4938.6481761444911
 10
7080.0288414059323
 20
4938.6481761444911
 10
7080.0288414059323
 20
4938.6481761444911
 10
7080.0288414059323
 20
4938.6481761444911
 10
7080.0288414059323
 20
4938.6481761444911
 10
7080.0288414059323
 20
4938.6481761444911
 10
7080.0288414059323
 20
4938.6481761444911
 10
7080.0288414059323
 20
4938.6481761444911
 10
7080.0288414059323
 20
4938.6481761444911
 10
7080.0288414059323
 20
4938.6481761444911
 10
7080.0288414059323
 20
4938.6481761444911
  0
LWPOLYLINE
  5
291
100
AcDbEntity
  8
___E
  6
CONTINUOUS
 62
             7
100
AcDbPolyline
 90
       36
 70
             1
 10
7074.528842359322
 20
4992.6481766021179
 10
7074.528842359322
 20
4991.8481770953404
 10
7074.528842359322
 20
4991.8481770953404
 10
7084.5288414440683
 20
4991.8481770953404
 10
7084.5288414440683
 20
4991.8481770953404
 10
7084.5288414440683
 20
4992.6481766021179
 10
7084.5288414440683
 20
4992.6481766021179
 10
7086.0288414567794
 20
4992.6481766021179
 10
7086.0288414567794
 20
4992.6481766021179
 10
7086.0288414567794
 20
4982.6481760173729
 10
7086.0288414567794
 20
4982.6481760173729
 10
7084.5288414440683
 20
4982.6481760173729
 10
7084.5288414440683
 20
4982.6481760173729
 10
7084.5288414440683
 20
4981.8481765105926
 10
7084.5288414440683
 20
4981.8481765105926
 10
7074.528842359322
 20
4981.8481765105926
 10
7074.528842359322
 20
4981.8481765105926
 10
7074.528842359322
 20
4982.6481760173729
 10
7074.528842359322
 20
4982.6481760173729
 10
7073.02884234661
 20
4982.6481760173729
 10
7073.02884234661
 20
4982.6481760173729
 10
7073.02884234661
 20
4992.6481766021179
 10
7073.02884234661
 20
4992.6481766021179
 10
7074.528842359322
 20
4992.6481766021179
 10
7074.528842359322
 20
4992.6481766021179
 10
7074.528842359322
 20
4992.6481766021179
 10
7074.528842359322
 20
4992.6481766021179
 10
7074.528842359322
 20
4992.6481766021179
 10
7074.528842359322
 20
4992.6481766021179
 10
7074.528842359322
 20
4992.6481766021179
 10
7074.528842359322
 20
4992.6481766021179
 10
7074.528842359322
 20
4992.6481766021179
 10
7074.528842359322
 20
4992.6481766021179
 10
7074.528842359322
 20
4992.6481766021179
 10
7074.528842359322
 20
4992.6481766021179
 10
7074.528842359322
 20
4992.6481766021179
  0
LWPOLYLINE
  5
28F
100
AcDbEntity
  8
___E
  6
CONTINUOUS
 62
             7
100
AcDbPolyline
 90
       15
 70
             0
 10
7086.0288414567794
 20
4989.6481765766948
 10
7084.5288414440683
 20
4989.6481765766948
 10
7084.5288414440683
 20
4989.6481765766948
 10
7084.5288414440683
 20
4990.4481760834742
 10
7084.5288414440683
 20
4990.4481760834742
 10
7074.528842359322
 20
4990.4481760834742
 10
7074.528842359322
 20
4990.4481760834742
 10
7074.528842359322
 20
4989.6481765766948
 10
7074.528842359322
 20
4989.6481765766948
 10
7073.02884234661
 20
4989.6481765766948
 10
7073.02884234661
 20
4989.6481765766948
 10
7073.02884234661
 20
4989.6481765766948
 10
7073.02884234661
 20
4989.6481765766948
 10
7073.02884234661
 20
4989.6481765766948
 10
7073.02884234661
 20
4989.6481765766948
  0
LWPOLYLINE
  5
28D
100
AcDbEntity
  8
___E
  6
CONTINUOUS
 62
             7
100
AcDbPolyline
 90
       36
 70
             1
 10
7074.528842359322
 20
4982.6481760173729
 10
7074.528842359322
 20
4981.8481765105926
 10
7074.528842359322
 20
4981.8481765105926
 10
7084.5288414440683
 20
4981.8481765105926
 10
7084.5288414440683
 20
4981.8481765105926
 10
7084.5288414440683
 20
4982.6481760173729
 10
7084.5288414440683
 20
4982.6481760173729
 10
7086.0288414567794
 20
4982.6481760173729
 10
7086.0288414567794
 20
4982.6481760173729
 10
7086.0288414567794
 20
4972.6481769326274
 10
7086.0288414567794
 20
4972.6481769326274
 10
7084.5288414440683
 20
4972.6481769326274
 10
7084.5288414440683
 20
4972.6481769326274
 10
7084.5288414440683
 20
4971.8481759258484
 10
7084.5288414440683
 20
4971.8481759258484
 10
7074.528842359322
 20
4971.8481759258484
 10
7074.528842359322
 20
4971.8481759258484
 10
7074.528842359322
 20
4972.6481769326274
 10
7074.528842359322
 20
4972.6481769326274
 10
7073.02884234661
 20
4972.6481769326274
 10
7073.02884234661
 20
4972.6481769326274
 10
7073.02884234661
 20
4982.6481760173729
 10
7073.02884234661
 20
4982.6481760173729
 10
7074.528842359322
 20
4982.6481760173729
 10
7074.528842359322
 20
4982.6481760173729
 10
7074.528842359322
 20
4982.6481760173729
 10
7074.528842359322
 20
4982.6481760173729
 10
7074.528842359322
 20
4982.6481760173729
 10
7074.528842359322
 20
4982.6481760173729
 10
7074.528842359322
 20
4982.6481760173729
 10
7074.528842359322
 20
4982.6481760173729
 10
7074.528842359322
 20
4982.6481760173729
 10
7074.528842359322
 20
4982.6481760173729
 10
7074.528842359322
 20
4982.6481760173729
 10
7074.528842359322
 20
4982.6481760173729
 10
7074.528842359322
 20
4982.6481760173729
  0
LWPOLYLINE
  5
28B
100
AcDbEntity
  8
___E
  6
CONTINUOUS
 62
             7
100
AcDbPolyline
 90
       15
 70
             0
 10
7086.0288414567794
 20
4979.6481759919488
 10
7084.5288414440683
 20
4979.6481759919488
 10
7084.5288414440683
 20
4979.6481759919488
 10
7084.5288414440683
 20
4980.4481769987287
 10
7084.5288414440683
 20
4980.4481769987287
 10
7074.528842359322
 20
4980.4481769987287
 10
7074.528842359322
 20
4980.4481769987287
 10
7074.528842359322
 20
4979.6481759919488
 10
7074.528842359322
 20
4979.6481759919488
 10
7073.02884234661
 20
4979.6481759919488
 10
7073.02884234661
 20
4979.6481759919488
 10
7073.02884234661
 20
4979.6481759919488
 10
7073.02884234661
 20
4979.6481759919488
 10
7073.02884234661
 20
4979.6481759919488
 10
7073.02884234661
 20
4979.6481759919488
  0
LWPOLYLINE
  5
289
100
AcDbEntity
  8
___E
  6
CONTINUOUS
 62
             7
100
AcDbPolyline
 90
       36
 70
             1
 10
7080.0288414059323
 20
4978.6481769834754
 10
7080.0288414059323
 20
4976.6481759665248
 10
7080.0288414059323
 20
4976.6481759665248
 10
7082.028842422882
 20
4976.6481759665248
 10
7082.028842422882
 20
4976.6481759665248
 10
7082.028842422882
 20
4975.6481769580514
 10
7082.028842422882
 20
4975.6481769580514
 10
7080.0288414059323
 20
4975.6481769580514
 10
7080.0288414059323
 20
4975.6481769580514
 10
7080.0288414059323
 20
4973.6481759411017
 10
7080.0288414059323
 20
4973.6481759411017
 10
7079.028842397458
 20
4973.6481759411017
 10
7079.028842397458
 20
4973.6481759411017
 10
7079.028842397458
 20
4975.6481769580514
 10
7079.028842397458
 20
4975.6481769580514
 10
7077.0288413805083
 20
4975.6481769580514
 10
7077.0288413805083
 20
4975.6481769580514
 10
7077.0288413805083
 20
4976.6481759665248
 10
7077.0288413805083
 20
4976.6481759665248
 10
7079.028842397458
 20
4976.6481759665248
 10
7079.028842397458
 20
4976.6481759665248
 10
7079.028842397458
 20
4978.6481769834754
 10
7079.028842397458
 20
4978.6481769834754
 10
7080.0288414059323
 20
4978.6481769834754
 10
7080.0288414059323
 20
4978.6481769834754
 10
7080.0288414059323
 20
4978.6481769834754
 10
7080.0288414059323
 20
4978.6481769834754
 10
7080.0288414059323
 20
4978.6481769834754
 10
7080.0288414059323
 20
4978.6481769834754
 10
7080.0288414059323
 20
4978.6481769834754
 10
7080.0288414059323
 20
4978.6481769834754
 10
7080.0288414059323
 20
4978.6481769834754
 10
7080.0288414059323
 20
4978.6481769834754
 10
7080.0288414059323
 20
4978.6481769834754
 10
7080.0288414059323
 20
4978.6481769834754
 10
7080.0288414059323
 20
4978.6481769834754
  0
LWPOLYLINE
  5
287
100
AcDbEntity
  8
___E
  6
CONTINUOUS
 62
             7
100
AcDbPolyline
 90
       36
 70
             1
 10
7080.0288414059323
 20
4988.64817606822
 10
7080.0288414059323
 20
4986.6481765512708
 10
7080.0288414059323
 20
4986.6481765512708
 10
7082.028842422882
 20
4986.6481765512708
 10
7082.028842422882
 20
4986.6481765512708
 10
7082.028842422882
 20
4985.648176042796
 10
7082.028842422882
 20
4985.648176042796
 10
7080.0288414059323
 20
4985.648176042796
 10
7080.0288414059323
 20
4985.648176042796
 10
7080.0288414059323
 20
4983.6481765258468
 10
7080.0288414059323
 20
4983.6481765258468
 10
7079.028842397458
 20
4983.6481765258468
 10
7079.028842397458
 20
4983.6481765258468
 10
7079.028842397458
 20
4985.648176042796
 10
7079.028842397458
 20
4985.648176042796
 10
7077.0288413805083
 20
4985.648176042796
 10
7077.0288413805083
 20
4985.648176042796
 10
7077.0288413805083
 20
4986.6481765512708
 10
7077.0288413805083
 20
4986.6481765512708
 10
7079.028842397458
 20
4986.6481765512708
 10
7079.028842397458
 20
4986.6481765512708
 10
7079.028842397458
 20
4988.64817606822
 10
7079.028842397458
 20
4988.64817606822
 10
7080.0288414059323
 20
4988.64817606822
 10
7080.0288414059323
 20
4988.64817606822
 10
7080.0288414059323
 20
4988.64817606822
 10
7080.0288414059323
 20
4988.64817606822
 10
7080.0288414059323
 20
4988.64817606822
 10
7080.0288414059323
 20
4988.64817606822
 10
7080.0288414059323
 20
4988.64817606822
 10
7080.0288414059323
 20
4988.64817606822
 10
7080.0288414059323
 20
4988.64817606822
 10
7080.0288414059323
 20
4988.64817606822
 10
7080.0288414059323
 20
4988.64817606822
 10
7080.0288414059323
 20
4988.64817606822
 10
7080.0288414059323
 20
4988.64817606822
  0
LWPOLYLINE
  5
285
100
AcDbEntity
  8
___E
  6
CONTINUOUS
 62
             7
100
AcDbPolyline
 90
       15
 70
             0
 10
7086.0288414567794
 20
4959.6481763224574
 10
7084.5288414440683
 20
4959.6481763224574
 10
7084.5288414440683
 20
4959.6481763224574
 10
7084.5288414440683
 20
4960.4481758292368
 10
7084.5288414440683
 20
4960.4481758292368
 10
7074.528842359322
 20
4960.4481758292368
 10
7074.528842359322
 20
4960.4481758292368
 10
7074.528842359322
 20
4959.6481763224574
 10
7074.528842359322
 20
4959.6481763224574
 10
7073.02884234661
 20
4959.6481763224574
 10
7073.02884234661
 20
4959.6481763224574
 10
7073.02884234661
 20
4959.6481763224574
 10
7073.02884234661
 20
4959.6481763224574
 10
7073.02884234661
 20
4959.6481763224574
 10
7073.02884234661
 20
4959.6481763224574
  0
LWPOLYLINE
  5
283
100
AcDbEntity
  8
___E
  6
CONTINUOUS
 62
             7
100
AcDbPolyline
 90
       36
 70
             1
 10
7074.528842359322
 20
4952.6481757631354
 10
7074.528842359322
 20
4951.8481762563551
 10
7074.528842359322
 20
4951.8481762563551
 10
7084.5288414440683
 20
4951.8481762563551
 10
7084.5288414440683
 20
4951.8481762563551
 10
7084.5288414440683
 20
4952.6481757631354
 10
7084.5288414440683
 20
4952.6481757631354
 10
7086.0288414567794
 20
4952.6481757631354
 10
7086.0288414567794
 20
4952.6481757631354
 10
7086.0288414567794
 20
4942.6481766783891
 10
7086.0288414567794
 20
4942.6481766783891
 10
7084.5288414440683
 20
4942.6481766783891
 10
7084.5288414440683
 20
4942.6481766783891
 10
7084.5288414440683
 20
4941.8481756716101
 10
7084.5288414440683
 20
4941.8481756716101
 10
7074.528842359322
 20
4941.8481756716101
 10
7074.528842359322
 20
4941.8481756716101
 10
7074.528842359322
 20
4942.6481766783891
 10
7074.528842359322
 20
4942.6481766783891
 10
7073.02884234661
 20
4942.6481766783891
 10
7073.02884234661
 20
4942.6481766783891
 10
7073.02884234661
 20
4952.6481757631354
 10
7073.02884234661
 20
4952.6481757631354
 10
7074.528842359322
 20
4952.6481757631354
 10
7074.528842359322
 20
4952.6481757631354
 10
7074.528842359322
 20
4952.6481757631354
 10
7074.528842359322
 20
4952.6481757631354
 10
7074.528842359322
 20
4952.6481757631354
 10
7074.528842359322
 20
4952.6481757631354
 10
7074.528842359322
 20
4952.6481757631354
 10
7074.528842359322
 20
4952.6481757631354
 10
7074.528842359322
 20
4952.6481757631354
 10
7074.528842359322
 20
4952.6481757631354
 10
7074.528842359322
 20
4952.6481757631354
 10
7074.528842359322
 20
4952.6481757631354
 10
7074.528842359322
 20
4952.6481757631354
  0
LWPOLYLINE
  5
281
100
AcDbEntity
  8
___E
  6
CONTINUOUS
 62
             7
100
AcDbPolyline
 90
       15
 70
             0
 10
7086.0288414567794
 20
4949.6481757377114
 10
7084.5288414440683
 20
4949.6481757377114
 10
7084.5288414440683
 20
4949.6481757377114
 10
7084.5288414440683
 20
4950.4481767444913
 10
7084.5288414440683
 20
4950.4481767444913
 10
7074.528842359322
 20
4950.4481767444913
 10
7074.528842359322
 20
4950.4481767444913
 10
7074.528842359322
 20
4949.6481757377114
 10
7074.528842359322
 20
4949.6481757377114
 10
7073.02884234661
 20
4949.6481757377114
 10
7073.02884234661
 20
4949.6481757377114
 10
7073.02884234661
 20
4949.6481757377114
 10
7073.02884234661
 20
4949.6481757377114
 10
7073.02884234661
 20
4949.6481757377114
 10
7073.02884234661
 20
4949.6481757377114
  0
LWPOLYLINE
  5
27F
100
AcDbEntity
  8
___E
  6
CONTINUOUS
 62
             7
100
AcDbPolyline
 90
       36
 70
             1
 10
7080.0288414059323
 20
4948.6481767292371
 10
7080.0288414059323
 20
4946.6481757122874
 10
7080.0288414059323
 20
4946.6481757122874
 10
7082.028842422882
 20
4946.6481757122874
 10
7082.028842422882
 20
4946.6481757122874
 10
7082.028842422882
 20
4945.6481767038131
 10
7082.028842422882
 20
4945.6481767038131
 10
7080.0288414059323
 20
4945.6481767038131
 10
7080.0288414059323
 20
4945.6481767038131
 10
7080.0288414059323
 20
4943.6481756868643
 10
7080.0288414059323
 20
4943.6481756868643
 10
7079.028842397458
 20
4943.6481756868643
 10
7079.028842397458
 20
4943.6481756868643
 10
7079.028842397458
 20
4945.6481767038131
 10
7079.028842397458
 20
4945.6481767038131
 10
7077.0288413805083
 20
4945.6481767038131
 10
7077.0288413805083
 20
4945.6481767038131
 10
7077.0288413805083
 20
4946.6481757122874
 10
7077.0288413805083
 20
4946.6481757122874
 10
7079.028842397458
 20
4946.6481757122874
 10
7079.028842397458
 20
4946.6481757122874
 10
7079.028842397458
 20
4948.6481767292371
 10
7079.028842397458
 20
4948.6481767292371
 10
7080.0288414059323
 20
4948.6481767292371
 10
7080.0288414059323
 20
4948.6481767292371
 10
7080.0288414059323
 20
4948.6481767292371
 10
7080.0288414059323
 20
4948.6481767292371
 10
7080.0288414059323
 20
4948.6481767292371
 10
7080.0288414059323
 20
4948.6481767292371
 10
7080.0288414059323
 20
4948.6481767292371
 10
7080.0288414059323
 20
4948.6481767292371
 10
7080.0288414059323
 20
4948.6481767292371
 10
7080.0288414059323
 20
4948.6481767292371
 10
7080.0288414059323
 20
4948.6481767292371
 10
7080.0288414059323
 20
4948.6481767292371
 10
7080.0288414059323
 20
4948.6481767292371
  0
LWPOLYLINE
  5
27D
100
AcDbEntity
  8
___E
  6
CONTINUOUS
 62
             7
100
AcDbPolyline
 90
       36
 70
             1
 10
7080.0288414059323
 20
4958.6481758139826
 10
7080.0288414059323
 20
4956.6481762970334
 10
7080.0288414059323
 20
4956.6481762970334
 10
7082.028842422882
 20
4956.6481762970334
 10
7082.028842422882
 20
4956.6481762970334
 10
7082.028842422882
 20
4955.6481757885585
 10
7082.028842422882
 20
4955.6481757885585
 10
7080.0288414059323
 20
4955.6481757885585
 10
7080.0288414059323
 20
4955.6481757885585
 10
7080.0288414059323
 20
4953.6481762716103
 10
7080.0288414059323
 20
4953.6481762716103
 10
7079.028842397458
 20
4953.6481762716103
 10
7079.028842397458
 20
4953.6481762716103
 10
7079.028842397458
 20
4955.6481757885585
 10
7079.028842397458
 20
4955.6481757885585
 10
7077.0288413805083
 20
4955.6481757885585
 10
7077.0288413805083
 20
4955.6481757885585
 10
7077.0288413805083
 20
4956.6481762970334
 10
7077.0288413805083
 20
4956.6481762970334
 10
7079.028842397458
 20
4956.6481762970334
 10
7079.028842397458
 20
4956.6481762970334
 10
7079.028842397458
 20
4958.6481758139826
 10
7079.028842397458
 20
4958.6481758139826
 10
7080.0288414059323
 20
4958.6481758139826
 10
7080.0288414059323
 20
4958.6481758139826
 10
7080.0288414059323
 20
4958.6481758139826
 10
7080.0288414059323
 20
4958.6481758139826
 10
7080.0288414059323
 20
4958.6481758139826
 10
7080.0288414059323
 20
4958.6481758139826
 10
7080.0288414059323
 20
4958.6481758139826
 10
7080.0288414059323
 20
4958.6481758139826
 10
7080.0288414059323
 20
4958.6481758139826
 10
7080.0288414059323
 20
4958.6481758139826
 10
7080.0288414059323
 20
4958.6481758139826
 10
7080.0288414059323
 20
4958.6481758139826
 10
7080.0288414059323
 20
4958.6481758139826
  0
LWPOLYLINE
  5
27B
100
AcDbEntity
  8
___E
  6
CONTINUOUS
 62
             7
100
AcDbPolyline
 90
       15
 70
             0
 10
7086.0288414567794
 20
4969.6481769072034
 10
7084.5288414440683
 20
4969.6481769072034
 10
7084.5288414440683
 20
4969.6481769072034
 10
7084.5288414440683
 20
4970.4481764139828
 10
7084.5288414440683
 20
4970.4481764139828
 10
7074.528842359322
 20
4970.4481764139828
 10
7074.528842359322
 20
4970.4481764139828
 10
7074.528842359322
 20
4969.6481769072034
 10
7074.528842359322
 20
4969.6481769072034
 10
7073.02884234661
 20
4969.6481769072034
 10
7073.02884234661
 20
4969.6481769072034
 10
7073.02884234661
 20
4969.6481769072034
 10
7073.02884234661
 20
4969.6481769072034
 10
7073.02884234661
 20
4969.6481769072034
 10
7073.02884234661
 20
4969.6481769072034
  0
LWPOLYLINE
  5
279
100
AcDbEntity
  8
___E
  6
CONTINUOUS
 62
             7
100
AcDbPolyline
 90
       36
 70
             1
 10
7080.0288414059323
 20
4968.6481763987294
 10
7080.0288414059323
 20
4966.6481768817794
 10
7080.0288414059323
 20
4966.6481768817794
 10
7082.028842422882
 20
4966.6481768817794
 10
7082.028842422882
 20
4966.6481768817794
 10
7082.028842422882
 20
4965.6481763733054
 10
7082.028842422882
 20
4965.6481763733054
 10
7080.0288414059323
 20
4965.6481763733054
 10
7080.0288414059323
 20
4965.6481763733054
 10
7080.0288414059323
 20
4963.6481768563553
 10
7080.0288414059323
 20
4963.6481768563553
 10
7079.028842397458
 20
4963.6481768563553
 10
7079.028842397458
 20
4963.6481768563553
 10
7079.028842397458
 20
4965.6481763733054
 10
7079.028842397458
 20
4965.6481763733054
 10
7077.0288413805083
 20
4965.6481763733054
 10
7077.0288413805083
 20
4965.6481763733054
 10
7077.0288413805083
 20
4966.6481768817794
 10
7077.0288413805083
 20
4966.6481768817794
 10
7079.028842397458
 20
4966.6481768817794
 10
7079.028842397458
 20
4966.6481768817794
 10
7079.028842397458
 20
4968.6481763987294
 10
7079.028842397458
 20
4968.6481763987294
 10
7080.0288414059323
 20
4968.6481763987294
 10
7080.0288414059323
 20
4968.6481763987294
 10
7080.0288414059323
 20
4968.6481763987294
 10
7080.0288414059323
 20
4968.6481763987294
 10
7080.0288414059323
 20
4968.6481763987294
 10
7080.0288414059323
 20
4968.6481763987294
 10
7080.0288414059323
 20
4968.6481763987294
 10
7080.0288414059323
 20
4968.6481763987294
 10
7080.0288414059323
 20
4968.6481763987294
 10
7080.0288414059323
 20
4968.6481763987294
 10
7080.0288414059323
 20
4968.6481763987294
 10
7080.0288414059323
 20
4968.6481763987294
 10
7080.0288414059323
 20
4968.6481763987294
  0
LWPOLYLINE
  5
277
100
AcDbEntity
  8
___E
  6
CONTINUOUS
 62
             7
100
AcDbPolyline
 90
       36
 70
             1
 10
7074.528842359322
 20
4962.6481763478814
 10
7074.528842359322
 20
4961.8481768411011
 10
7074.528842359322
 20
4961.8481768411011
 10
7084.5288414440683
 20
4961.8481768411011
 10
7084.5288414440683
 20
4961.8481768411011
 10
7084.5288414440683
 20
4962.6481763478814
 10
7084.5288414440683
 20
4962.6481763478814
 10
7086.0288414567794
 20
4962.6481763478814
 10
7086.0288414567794
 20
4962.6481763478814
 10
7086.0288414567794
 20
4952.6481757631354
 10
7086.0288414567794
 20
4952.6481757631354
 10
7084.5288414440683
 20
4952.6481757631354
 10
7084.5288414440683
 20
4952.6481757631354
 10
7084.5288414440683
 20
4951.8481762563551
 10
7084.5288414440683
 20
4951.8481762563551
 10
7074.528842359322
 20
4951.8481762563551
 10
7074.528842359322
 20
4951.8481762563551
 10
7074.528842359322
 20
4952.6481757631354
 10
7074.528842359322
 20
4952.6481757631354
 10
7073.02884234661
 20
4952.6481757631354
 10
7073.02884234661
 20
4952.6481757631354
 10
7073.02884234661
 20
4962.6481763478814
 10
7073.02884234661
 20
4962.6481763478814
 10
7074.528842359322
 20
4962.6481763478814
 10
7074.528842359322
 20
4962.6481763478814
 10
7074.528842359322
 20
4962.6481763478814
 10
7074.528842359322
 20
4962.6481763478814
 10
7074.528842359322
 20
4962.6481763478814
 10
7074.528842359322
 20
4962.6481763478814
 10
7074.528842359322
 20
4962.6481763478814
 10
7074.528842359322
 20
4962.6481763478814
 10
7074.528842359322
 20
4962.6481763478814
 10
7074.528842359322
 20
4962.6481763478814
 10
7074.528842359322
 20
4962.6481763478814
 10
7074.528842359322
 20
4962.6481763478814
 10
7074.528842359322
 20
4962.6481763478814
  0
LWPOLYLINE
  5
275
100
AcDbEntity
  8
___E
  6
CONTINUOUS
 62
             7
100
AcDbPolyline
 90
       36
 70
             1
 10
7074.528842359322
 20
4972.6481769326274
 10
7074.528842359322
 20
4971.8481759258484
 10
7074.528842359322
 20
4971.8481759258484
 10
7084.5288414440683
 20
4971.8481759258484
 10
7084.5288414440683
 20
4971.8481759258484
 10
7084.5288414440683
 20
4972.6481769326274
 10
7084.5288414440683
 20
4972.6481769326274
 10
7086.0288414567794
 20
4972.6481769326274
 10
7086.0288414567794
 20
4972.6481769326274
 10
7086.0288414567794
 20
4962.6481763478814
 10
7086.0288414567794
 20
4962.6481763478814
 10
7084.5288414440683
 20
4962.6481763478814
 10
7084.5288414440683
 20
4962.6481763478814
 10
7084.5288414440683
 20
4961.8481768411011
 10
7084.5288414440683
 20
4961.8481768411011
 10
7074.528842359322
 20
4961.8481768411011
 10
7074.528842359322
 20
4961.8481768411011
 10
7074.528842359322
 20
4962.6481763478814
 10
7074.528842359322
 20
4962.6481763478814
 10
7073.02884234661
 20
4962.6481763478814
 10
7073.02884234661
 20
4962.6481763478814
 10
7073.02884234661
 20
4972.6481769326274
 10
7073.02884234661
 20
4972.6481769326274
 10
7074.528842359322
 20
4972.6481769326274
 10
7074.528842359322
 20
4972.6481769326274
 10
7074.528842359322
 20
4972.6481769326274
 10
7074.528842359322
 20
4972.6481769326274
 10
7074.528842359322
 20
4972.6481769326274
 10
7074.528842359322
 20
4972.6481769326274
 10
7074.528842359322
 20
4972.6481769326274
 10
7074.528842359322
 20
4972.6481769326274
 10
7074.528842359322
 20
4972.6481769326274
 10
7074.528842359322
 20
4972.6481769326274
 10
7074.528842359322
 20
4972.6481769326274
 10
7074.528842359322
 20
4972.6481769326274
 10
7074.528842359322
 20
4972.6481769326274
  0
LWPOLYLINE
  5
273
100
AcDbEntity
  8
___E
  6
CONTINUOUS
 62
             7
100
AcDbPolyline
 90
        6
 70
             0
 10
7078.2788423911024
 20
5027.3981773966098
 10
7078.2788423911024
 20
5015.3981772949146
 10
7078.2788423911024
 20
5015.3981772949146
 10
7077.2788418826276
 20
5015.3981772949146
 10
7077.2788418826276
 20
5015.3981772949146
 10
7077.2788418826276
 20
5015.3981772949146
  0
CIRCLE
  5
271
100
AcDbEntity
  8
___E
  6
CONTINUOUS
 62
             7
100
AcDbCircle
 10
7092.0288415076284
 20
4905.898176366949
 40
3.70000053135482
  0
CIRCLE
  5
270
100
AcDbEntity
  8
___E
  6
CONTINUOUS
 62
             7
100
AcDbCircle
 10
7102.0288420923744
 20
4905.898176366949
 40
3.70000053135482
  0
CIRCLE
  5
26F
100
AcDbEntity
  8
___E
  6
CONTINUOUS
 62
             7
100
AcDbCircle
 10
7233.028844711017
 20
5041.3981770152541
 40
3.00000002542311
  0
CIRCLE
  5
26E
100
AcDbEntity
  8
___E
  6
CONTINUOUS
 62
             7
100
AcDbCircle
 10
7233.028844711017
 20
4923.3981755152536
 40
3.00000002542311
  0
CIRCLE
  5
26D
100
AcDbEntity
  8
___E
  6
CONTINUOUS
 62
             7
100
AcDbCircle
 10
7097.0288425500003
 20
5029.3981769135589
 40
3.00000002542401
  0
CIRCLE
  5
26C
100
AcDbEntity
  8
___E
  6
CONTINUOUS
 62
             7
100
AcDbCircle
 10
7079.5288419016952
 20
4926.1481765385588
 40
4.00000053389795
  0
CIRCLE
  5
26B
100
AcDbEntity
  8
___E
  6
CONTINUOUS
 62
             7
100
AcDbCircle
 10
7079.5288419016952
 20
4936.1481756233043
 40
4.00000053389795
  0
CIRCLE
  5
26A
100
AcDbEntity
  8
___E
  6
CONTINUOUS
 62
             7
100
AcDbCircle
 10
7079.5288419016952
 20
4976.1481764622877
 40
4.00000053389795
  0
CIRCLE
  5
269
100
AcDbEntity
  8
___E
  6
CONTINUOUS
 62
             7
100
AcDbCircle
 10
7079.5288419016952
 20
4986.1481770470336
 40
4.00000053389795
  0
CIRCLE
  5
268
100
AcDbEntity
  8
___E
  6
CONTINUOUS
 62
             7
100
AcDbCircle
 10
7079.5288419016952
 20
4946.1481762080502
 40
4.00000053389795
  0
CIRCLE
  5
267
100
AcDbEntity
  8
___E
  6
CONTINUOUS
 62
             7
100
AcDbCircle
 10
7079.5288419016952
 20
4956.1481767927962
 40
4.00000053389795
  0
CIRCLE
  5
266
100
AcDbEntity
  8
___E
  6
CONTINUOUS
 62
             7
100
AcDbCircle
 10
7079.5288419016952
 20
4966.1481758775417
 40
4.00000053389795
  0
CIRCLE
  5
265
100
AcDbEntity
  8
___E
  6
CONTINUOUS
 62
             7
100
AcDbCircle
 10
7118.5288422322037
 20
5024.3981773711857
 40
1.75000051483039
  0
CIRCLE
  5
264
100
AcDbEntity
  8
___E
  6
CONTINUOUS
 62
             7
100
AcDbCircle
 10
7118.0288427279665
 20
5015.3981772949146
 40
2.74999952330472
  0
CIRCLE
  5
263
100
AcDbEntity
  8
___E
  6
CONTINUOUS
 62
             7
100
AcDbCircle
 10
7118.0288427279665
 20
5006.3981772186444
 40
2.74999952330472
  0
CIRCLE
  5
262
100
AcDbEntity
  8
___E
  6
CONTINUOUS
 62
             7
100
AcDbCircle
 10
7118.0288427279665
 20
4997.3981771423723
 40
2.74999952330472
  0
CIRCLE
  5
261
100
AcDbEntity
  8
___E
  6
CONTINUOUS
 62
             7
100
AcDbCircle
 10
7118.0288427279665
 20
5015.3981772949146
 40
1.99999951694917
  0
CIRCLE
  5
260
100
AcDbEntity
  8
___E
  6
CONTINUOUS
 62
             7
100
AcDbCircle
 10
7118.0288427279665
 20
5006.3981772186444
 40
1.99999951694917
  0
CIRCLE
  5
25F
100
AcDbEntity
  8
___E
  6
CONTINUOUS
 62
             7
100
AcDbCircle
 10
7118.0288427279665
 20
4997.3981771423723
 40
1.99999951694917
  0
CIRCLE
  5
25E
100
AcDbEntity
  8
___E
  6
CONTINUOUS
 62
             7
100
AcDbCircle
 10
7093.0288420161014
 20
4921.3981759983044
 40
3.00000002542401
  0
CIRCLE
  5
25D
100
AcDbEntity
  8
___E
  6
CONTINUOUS
 62
             7
100
AcDbCircle
 10
7118.5288422322037
 20
4921.3981759983044
 40
3.00000002542401
  0
ARC
  5
25C
100
AcDbEntity
  8
___E
  6
CONTINUOUS
 62
             7
100
AcDbCircle
 10
7097.0288425500003
 20
4890.8981762398298
 40
2.50000052118594
100
AcDbArc
 50
0.0
 51
180.0
  0
ARC
  5
25B
100
AcDbEntity
  8
___E
  6
CONTINUOUS
 62
             7
100
AcDbCircle
 10
7097.0288425500003
 20
5058.8981776635592
 40
2.50000052118685
100
AcDbArc
 50
180.0
 51
0.0
  0
ARC
  5
25A
100
AcDbEntity
  8
___E
  6
CONTINUOUS
 62
             7
100
AcDbCircle
 10
7066.5288412915252
 20
4903.8981753499993
 40
1.00000050847393
100
AcDbArc
 50
180.0
 51
-90.0
  0
ARC
  5
259
100
AcDbEntity
  8
___E
  6
CONTINUOUS
 62
             7
100
AcDbCircle
 10
7066.5288412915252
 20
4907.8981758838981
 40
1.00000050847393
100
AcDbArc
 50
90.0
 51
180.0
  0
ARC
  5
258
100
AcDbEntity
  8
___E
  6
CONTINUOUS
 62
             7
100
AcDbCircle
 10
7280.0288446093227
 20
4898.898175807627
 40
1.99999951694917
100
AcDbArc
 50
180.0
 51
-90.0
  0
ARC
  5
257
100
AcDbEntity
  8
___E
  6
CONTINUOUS
 62
             7
100
AcDbCircle
 10
7304.0288448127121
 20
4912.8981754262704
 40
1.00000050847484
100
AcDbArc
 50
180.0
 51
-90.0
  0
ARC
  5
256
100
AcDbEntity
  8
___E
  6
CONTINUOUS
 62
             7
100
AcDbCircle
 10
7210.2288445177974
 20
4956.1481767927962
 40
12.49999960593141
100
AcDbArc
 50
163.7397950000001
 51
-163.7397950000001
  0
ARC
  5
255
100
AcDbEntity
  8
___E
  6
CONTINUOUS
 62
             7
100
AcDbCircle
 10
7210.2288445177974
 20
4946.1481762080502
 40
12.49999960593141
100
AcDbArc
 50
163.7397950000001
 51
-163.73979500000411
  0
ARC
  5
254
100
AcDbEntity
  8
___E
  6
CONTINUOUS
 62
             7
100
AcDbCircle
 10
7210.2288445177974
 20
4936.1481756233043
 40
12.49999960593141
100
AcDbArc
 50
163.7397950000001
 51
-163.73979500000411
  0
ARC
  5
253
100
AcDbEntity
  8
___E
  6
CONTINUOUS
 62
             7
100
AcDbCircle
 10
7210.2288445177974
 20
4926.1481765385588
 40
12.49999960593141
100
AcDbArc
 50
163.7397950000001
 51
-163.7397950000001
  0
ARC
  5
252
100
AcDbEntity
  8
___E
  6
CONTINUOUS
 62
             7
100
AcDbCircle
 10
7210.2288445177974
 20
4986.1481770470336
 40
12.49999960593141
100
AcDbArc
 50
163.7397950000001
 51
-163.7397950000001
  0
ARC
  5
251
100
AcDbEntity
  8
___E
  6
CONTINUOUS
 62
             7
100
AcDbCircle
 10
7210.2288445177974
 20
4976.1481764622877
 40
12.49999960593141
100
AcDbArc
 50
163.7397950000001
 51
-163.7397950000001
  0
ARC
  5
250
100
AcDbEntity
  8
___E
  6
CONTINUOUS
 62
             7
100
AcDbCircle
 10
7210.2288445177974
 20
4966.1481758775417
 40
12.49999960593166
100
AcDbArc
 50
163.73979499999609
 51
-163.73979500000411
  0
ARC
  5
24F
100
AcDbEntity
  8
___E
  6
CONTINUOUS
 62
             7
100
AcDbCircle
 10
7207.0288449906784
 20
4917.3981754644064
 40
1.00000050847484
100
AcDbArc
 50
180.0
 51
-90.0
  0
ARC
  5
24E
100
AcDbEntity
  8
___E
  6
CONTINUOUS
 62
             7
100
AcDbCircle
 10
7207.0288449906784
 20
5031.4590929310243
 40
1.00000050847484
100
AcDbArc
 50
90.0
 51
180.0
  0
ARC
  5
24D
100
AcDbEntity
  8
___E
  6
CONTINUOUS
 62
             7
100
AcDbCircle
 10
7207.0288449906784
 20
5027.4590923971264
 40
1.00000050847484
100
AcDbArc
 50
180.0
 51
-90.0
  0
ARC
  5
24C
100
AcDbEntity
  8
___E
  6
CONTINUOUS
 62
             7
100
AcDbCircle
 10
7113.0288416855938
 20
4913.8981759347453
 40
3.70000053135596
100
AcDbArc
 50
-172.23356600000133
 51
-7.76643400000059
  0
ARC
  5
24B
100
AcDbEntity
  8
___E
  6
CONTINUOUS
 62
             7
100
AcDbCircle
 10
7081.0288419144072
 20
4913.8981759347453
 40
3.70000053135596
100
AcDbArc
 50
-172.23356600000133
 51
-7.76643400000059
  0
ARC
  5
24A
100
AcDbEntity
  8
___E
  6
CONTINUOUS
 62
             7
100
AcDbCircle
 10
7066.5288412915252
 20
4921.3981759983044
 40
1.00000050847393
100
AcDbArc
 50
180.0
 51
-90.0
  0
ARC
  5
249
100
AcDbEntity
  8
___E
  6
CONTINUOUS
 62
             7
100
AcDbCircle
 10
7066.5288412915252
 20
4925.3981765322033
 40
1.00000050847393
100
AcDbArc
 50
90.0
 51
180.0
  0
ARC
  5
248
100
AcDbEntity
  8
___E
  6
CONTINUOUS
 62
             7
100
AcDbCircle
 10
7066.5288412915252
 20
5038.3981769898301
 40
1.00000050847393
100
AcDbArc
 50
180.0
 51
-90.0
  0
ARC
  5
247
100
AcDbEntity
  8
___E
  6
CONTINUOUS
 62
             7
100
AcDbCircle
 10
7066.5288412915252
 20
5042.3981775237289
 40
1.00000050847393
100
AcDbArc
 50
90.0
 51
180.0
  0
ARC
  5
246
100
AcDbEntity
  8
___E
  6
CONTINUOUS
 62
             7
100
AcDbCircle
 10
7127.5288423084749
 20
4925.3981765322033
 40
1.00000050847484
100
AcDbArc
 50
0.0
 51
90.0
  0
ARC
  5
245
100
AcDbEntity
  8
___E
  6
CONTINUOUS
 62
             7
100
AcDbCircle
 10
7127.5288423084749
 20
4921.3981759983044
 40
1.00000050847302
100
AcDbArc
 50
-90.0
 51
0.0
  0
ARC
  5
244
100
AcDbEntity
  8
___E
  6
CONTINUOUS
 62
             7
100
AcDbCircle
 10
7127.5288423084749
 20
5042.3981775237289
 40
1.00000050847484
100
AcDbArc
 50
0.0
 51
90.0
  0
ARC
  5
243
100
AcDbEntity
  8
___E
  6
CONTINUOUS
 62
             7
100
AcDbCircle
 10
7127.5288423084749
 20
5038.3981769898301
 40
1.00000050847484
100
AcDbArc
 50
-90.0
 51
0.0
  0
ARC
  5
242
100
AcDbEntity
  8
___E
  6
CONTINUOUS
 62
             7
100
AcDbCircle
 10
7110.0288416601697
 20
4928.3981765576264
 40
1.00000050847484
100
AcDbArc
 50
180.0
 51
-90.0
  0
ARC
  5
241
100
AcDbEntity
  8
___E
  6
CONTINUOUS
 62
             7
100
AcDbCircle
 10
7110.0288416601697
 20
4981.3981765067792
 40
1.00000050847484
100
AcDbArc
 50
90.0
 51
180.0
  0
ARC
  5
240
100
AcDbEntity
  8
___E
  6
CONTINUOUS
 62
             7
100
AcDbCircle
 10
7123.0288422703388
 20
4981.3981765067792
 40
1.00000050847484
100
AcDbArc
 50
0.0
 51
90.0
  0
ARC
  5
23F
100
AcDbEntity
  8
___E
  6
CONTINUOUS
 62
             7
100
AcDbCircle
 10
7123.0288422703388
 20
4928.3981765576264
 40
1.00000050847393
100
AcDbArc
 50
-90.0
 51
0.0
  0
ARC
  5
23E
100
AcDbEntity
  8
___E
  6
CONTINUOUS
 62
             7
100
AcDbCircle
 10
7081.6273179194786
 20
5001.6140891781006
 40
0.16500000139888
100
AcDbArc
 50
-12.60158900005022
 51
113.98738400012313
  0
ARC
  5
23D
100
AcDbEntity
  8
___E
  6
CONTINUOUS
 62
             7
100
AcDbCircle
 10
7080.6428184111364
 20
5001.965912681082
 40
0.16500000139788
100
AcDbArc
 50
153.09390699971397
 51
-69.35121800007585
  0
ARC
  5
23C
100
AcDbEntity
  8
___E
  6
CONTINUOUS
 62
             7
100
AcDbCircle
 10
7075.5288413677972
 20
4996.948177138559
 40
0.5500005046616
100
AcDbArc
 50
149.23727999987912
 51
-90.0
  0
ARC
  5
23B
100
AcDbEntity
  8
___E
  6
CONTINUOUS
 62
             7
100
AcDbCircle
 10
7087.3439574679251
 20
4996.948177138559
 40
0.5500005046606
100
AcDbArc
 50
-90.0
 51
30.76272000016934
  0
ARC
  5
23A
100
AcDbEntity
  8
___E
  6
CONTINUOUS
 62
             7
100
AcDbCircle
 10
7081.4363994178611
 20
5006.8728747226669
 40
0.55000050466035
100
AcDbArc
 50
30.76272000008792
 51
149.23727999996055
  0
ARC
  5
239
100
AcDbEntity
  8
___E
  6
CONTINUOUS
 62
             7
100
AcDbCircle
 10
7319.0288449398313
 20
5031.8981774347458
 40
1.50000001271201
100
AcDbArc
 50
-90.0
 51
0.0
  0
ARC
  5
238
100
AcDbEntity
  8
___E
  6
CONTINUOUS
 62
             7
100
AcDbCircle
 10
7319.0288449398313
 20
5037.8981774855929
 40
1.50000001271201
100
AcDbArc
 50
0.0
 51
90.0
  0
ARC
  5
237
100
AcDbEntity
  8
___E
  6
CONTINUOUS
 62
             7
100
AcDbCircle
 10
7319.0288449398313
 20
4951.898175756779
 40
1.50000001271201
100
AcDbArc
 50
-90.0
 51
0.0
  0
ARC
  5
236
100
AcDbEntity
  8
___E
  6
CONTINUOUS
 62
             7
100
AcDbCircle
 10
7319.0288449398313
 20
4957.898175807627
 40
1.50000001271201
100
AcDbArc
 50
0.0
 51
90.0
  0
LINE
  5
235
100
AcDbEntity
  8
___E
  6
CONTINUOUS
 62
             7
100
AcDbLine
 10
7099.5288415711866
 20
4887.3123887094434
 11
7100.9430550831712
 21
4885.898175197457
  0
LINE
  5
234
100
AcDbEntity
  8
___E
  6
CONTINUOUS
 62
             7
100
AcDbLine
 10
7099.5288415711866
 20
4887.3123887094434
 11
7099.5288415711866
 21
4890.8981762398298
  0
LINE
  5
233
100
AcDbEntity
  8
___E
  6
CONTINUOUS
 62
             7
100
AcDbLine
 10
7094.5288420288134
 20
4887.3123887094434
 11
7093.1146285168288
 21
4885.898175197457
  0
LINE
  5
232
100
AcDbEntity
  8
___E
  6
CONTINUOUS
 62
             7
100
AcDbLine
 10
7094.5288420288134
 20
4887.3123887094434
 11
7094.5288420288134
 21
4890.8981762398298
  0
LINE
  5
231
100
AcDbEntity
  8
___E
  6
CONTINUOUS
 62
             7
100
AcDbLine
 10
7099.5288415711866
 20
5062.4839636939469
 11
7099.5288415711866
 21
5058.8981776635592
  0
LINE
  5
230
100
AcDbEntity
  8
___E
  6
CONTINUOUS
 62
             7
100
AcDbLine
 10
7099.5288415711866
 20
5062.4839636939469
 11
7100.9430550831712
 21
5063.8981772059324
  0
LINE
  5
22F
100
AcDbEntity
  8
___E
  6
CONTINUOUS
 62
             7
100
AcDbLine
 10
7094.5288420288134
 20
5062.4839636939469
 11
7093.1146285168288
 21
5063.8981772059324
  0
LINE
  5
22E
100
AcDbEntity
  8
___E
  6
CONTINUOUS
 62
             7
100
AcDbLine
 10
7094.5288420288134
 20
5062.4839636939469
 11
7094.5288420288134
 21
5058.8981776635592
  0
LINE
  5
22D
100
AcDbEntity
  8
___E
  6
CONTINUOUS
 62
             7
100
AcDbLine
 10
7073.4430553501206
 20
5063.8981772059324
 11
7093.1146285168288
 21
5063.8981772059324
  0
LINE
  5
22C
100
AcDbEntity
  8
___E
  6
CONTINUOUS
 62
             7
100
AcDbLine
 10
7120.6146282498794
 20
5063.8981772059324
 11
7100.9430550831712
 21
5063.8981772059324
  0
LINE
  5
22B
100
AcDbEntity
  8
___E
  6
CONTINUOUS
 62
             7
100
AcDbLine
 10
7073.4430553501206
 20
4885.898175197457
 11
7093.1146285168288
 21
4885.898175197457
  0
LINE
  5
22A
100
AcDbEntity
  8
___E
  6
CONTINUOUS
 62
             7
100
AcDbLine
 10
7100.9430550831712
 20
4885.898175197457
 11
7120.6146282498794
 21
4885.898175197457
  0
LINE
  5
229
100
AcDbEntity
  8
___E
  6
CONTINUOUS
 62
             7
100
AcDbLine
 10
7071.2788418317796
 20
5062.4839636939469
 11
7073.4430553501206
 21
5063.8981772059324
  0
LINE
  5
228
100
AcDbEntity
  8
___E
  6
CONTINUOUS
 62
             7
100
AcDbLine
 10
7071.2788418317796
 20
4887.3123887094434
 11
7071.2788418317796
 21
4895.898175782203
  0
LINE
  5
227
100
AcDbEntity
  8
___E
  6
CONTINUOUS
 62
             7
100
AcDbLine
 10
7071.2788418317796
 20
4887.3123887094434
 11
7073.4430553501206
 21
4885.898175197457
  0
LINE
  5
226
100
AcDbEntity
  8
___E
  6
CONTINUOUS
 62
             7
100
AcDbLine
 10
7122.7788417682204
 20
5062.4839636939469
 11
7120.6146282498794
 21
5063.8981772059324
  0
LINE
  5
225
100
AcDbEntity
  8
___E
  6
CONTINUOUS
 62
             7
100
AcDbLine
 10
7122.7788417682204
 20
4887.3123887094434
 11
7120.6146282498794
 21
4885.898175197457
  0
LINE
  5
224
100
AcDbEntity
  8
___E
  6
CONTINUOUS
 62
             7
100
AcDbLine
 10
7122.7788417682204
 20
4895.898175782203
 11
7122.7788417682204
 21
4887.3123887094434
  0
LINE
  5
223
100
AcDbEntity
  8
___E
  6
CONTINUOUS
 62
             7
100
AcDbLine
 10
7067.5288418
 20
4895.898175782203
 11
7069.1288423135593
 21
4895.898175782203
  0
LINE
  5
222
100
AcDbEntity
  8
___E
  6
CONTINUOUS
 62
             7
100
AcDbLine
 10
7068.7788413105936
 20
4895.898175782203
 11
7125.2788422894073
 21
4895.898175782203
  0
LINE
  5
221
100
AcDbEntity
  8
___E
  6
CONTINUOUS
 62
             7
100
AcDbLine
 10
7084.7288424457629
 20
4895.898175782203
 11
7087.7288424711869
 21
4895.898175782203
  0
LINE
  5
220
100
AcDbEntity
  8
___E
  6
CONTINUOUS
 62
             7
100
AcDbLine
 10
7097.7288415559324
 20
4895.898175782203
 11
7096.3288420440676
 21
4895.898175782203
  0
LINE
  5
21F
100
AcDbEntity
  8
___E
  6
CONTINUOUS
 62
             7
100
AcDbLine
 10
7097.7288415559324
 20
4910.8981759093213
 11
7097.7288415559324
 21
4895.898175782203
  0
LINE
  5
21E
100
AcDbEntity
  8
___E
  6
CONTINUOUS
 62
             7
100
AcDbLine
 10
7096.3288420440676
 20
4895.898175782203
 11
7096.3288420440676
 21
4910.8981759093213
  0
LINE
  5
21D
100
AcDbEntity
  8
___E
  6
CONTINUOUS
 62
             7
100
AcDbLine
 10
7097.7288415559324
 20
4910.8981759093213
 11
7096.3288420440676
 21
4910.8981759093213
  0
LINE
  5
21C
100
AcDbEntity
  8
___E
  6
CONTINUOUS
 62
             7
100
AcDbLine
 10
7109.3288426542376
 20
4895.898175782203
 11
7106.3288426288136
 21
4895.898175782203
  0
LINE
  5
21B
100
AcDbEntity
  8
___E
  6
CONTINUOUS
 62
             7
100
AcDbLine
 10
7087.7288424711869
 20
4897.8981752991522
 11
7096.3288420440676
 21
4897.8981752991522
  0
LINE
  5
21A
100
AcDbEntity
  8
___E
  6
CONTINUOUS
 62
             7
100
AcDbLine
 10
7097.7288415559324
 20
4897.8981752991522
 11
7106.3288426288136
 21
4897.8981752991522
  0
LINE
  5
219
100
AcDbEntity
  8
___E
  6
CONTINUOUS
 62
             7
100
AcDbLine
 10
7087.7288424711869
 20
4901.8981758330501
 11
7096.3288420440676
 21
4901.8981758330501
  0
LINE
  5
218
100
AcDbEntity
  8
___E
  6
CONTINUOUS
 62
             7
100
AcDbLine
 10
7097.7288415559324
 20
4901.8981758330501
 11
7106.7288416322044
 21
4901.8981758330501
  0
LINE
  5
217
100
AcDbEntity
  8
___E
  6
CONTINUOUS
 62
             7
100
AcDbLine
 10
7087.7288424711869
 20
4909.8981754008473
 11
7096.3288420440676
 21
4909.8981754008473
  0
LINE
  5
216
100
AcDbEntity
  8
___E
  6
CONTINUOUS
 62
             7
100
AcDbLine
 10
7097.7288415559324
 20
4909.8981754008473
 11
7106.3288426288136
 21
4909.8981754008473
  0
LINE
  5
215
100
AcDbEntity
  8
___E
  6
CONTINUOUS
 62
             7
100
AcDbLine
 10
7100.5288420796614
 20
4907.398176379661
 11
7103.5288421050845
 21
4904.398176354237
  0
LINE
  5
214
100
AcDbEntity
  8
___E
  6
CONTINUOUS
 62
             7
100
AcDbLine
 10
7103.5288421050845
 20
4907.398176379661
 11
7100.5288420796614
 21
4904.398176354237
  0
LINE
  5
213
100
AcDbEntity
  8
___E
  6
CONTINUOUS
 62
             7
100
AcDbLine
 10
7090.5288414949164
 20
4907.398176379661
 11
7093.5288415203404
 21
4904.398176354237
  0
LINE
  5
212
100
AcDbEntity
  8
___E
  6
CONTINUOUS
 62
             7
100
AcDbLine
 10
7093.5288415203404
 20
4907.398176379661
 11
7090.5288414949164
 21
4904.398176354237
  0
LINE
  5
211
100
AcDbEntity
  8
___E
  6
CONTINUOUS
 62
             7
100
AcDbLine
 10
7067.5288418
 20
4902.898176341525
 11
7066.5288412915252
 21
4902.898176341525
  0
LINE
  5
210
100
AcDbEntity
  8
___E
  6
CONTINUOUS
 62
             7
100
AcDbLine
 10
7065.5288422830508
 20
4903.8981753499993
 11
7065.5288422830508
 21
4907.8981758838981
  0
LINE
  5
20F
100
AcDbEntity
  8
___E
  6
CONTINUOUS
 62
             7
100
AcDbLine
 10
7066.5288412915252
 20
4908.8981763923721
 11
7067.5288418
 21
4908.8981763923721
  0
LINE
  5
20E
100
AcDbEntity
  8
___E
  6
CONTINUOUS
 62
             7
100
AcDbLine
 10
7084.7288424457629
 20
4900.8981753245762
 11
7076.7288413779661
 21
4900.8981753245762
  0
LINE
  5
20D
100
AcDbEntity
  8
___E
  6
CONTINUOUS
 62
             7
100
AcDbLine
 10
7109.3288426542376
 20
4900.8981753245762
 11
7117.3288422220339
 21
4900.8981753245762
  0
LINE
  5
20C
100
AcDbEntity
  8
___E
  6
CONTINUOUS
 62
             7
100
AcDbLine
 10
7076.7288413779661
 20
4906.8981753754233
 11
7084.7288424457629
 21
4906.8981753754233
  0
LINE
  5
20B
100
AcDbEntity
  8
___E
  6
CONTINUOUS
 62
             7
100
AcDbLine
 10
7109.3288426542376
 20
4906.8981753754233
 11
7117.3288422220339
 21
4906.8981753754233
  0
LINE
  5
20A
100
AcDbEntity
  8
___E
  6
CONTINUOUS
 62
             7
100
AcDbLine
 10
7328.0288450161024
 20
4885.898175197457
 11
7325.5288459949161
 21
4885.898175197457
  0
LINE
  5
209
100
AcDbEntity
  8
___E
  6
CONTINUOUS
 62
             7
100
AcDbLine
 10
7325.5288459949161
 20
5063.8981772059324
 11
7328.0288450161024
 21
5063.8981772059324
  0
LINE
  5
208
100
AcDbEntity
  8
___E
  6
CONTINUOUS
 62
             7
100
AcDbLine
 10
7325.5288459949161
 20
4896.8981762906778
 11
7325.5288459949161
 21
4885.898175197457
  0
LINE
  5
207
100
AcDbEntity
  8
___E
  6
CONTINUOUS
 62
             7
100
AcDbLine
 10
7328.0288450161024
 20
4899.3981753118642
 11
7328.0288450161024
 21
4885.898175197457
  0
LINE
  5
206
100
AcDbEntity
  8
___E
  6
CONTINUOUS
 62
             7
100
AcDbLine
 10
7325.5288459949161
 20
4896.8981762906778
 11
7313.0288448889833
 21
4896.8981762906778
  0
LINE
  5
205
100
AcDbEntity
  8
___E
  6
CONTINUOUS
 62
             7
100
AcDbLine
 10
7315.5288454101701
 20
4899.3981753118642
 11
7328.0288450161024
 21
4899.3981753118642
  0
LINE
  5
204
100
AcDbEntity
  8
___E
  6
CONTINUOUS
 62
             7
100
AcDbLine
 10
7325.5288459949161
 20
5052.8981776127112
 11
7325.5288459949161
 21
5063.8981772059324
  0
LINE
  5
203
100
AcDbEntity
  8
___E
  6
CONTINUOUS
 62
             7
100
AcDbLine
 10
7328.0288450161024
 20
5063.8981772059324
 11
7328.0288450161024
 21
5050.3981770915252
  0
LINE
  5
202
100
AcDbEntity
  8
___E
  6
CONTINUOUS
 62
             7
100
AcDbLine
 10
7325.5288459949161
 20
5052.8981776127112
 11
7313.0288448889833
 21
5052.8981776127112
  0
LINE
  5
201
100
AcDbEntity
  8
___E
  6
CONTINUOUS
 62
             7
100
AcDbLine
 10
7313.0288448889833
 20
5052.8981776127112
 11
7313.0288448889833
 21
5050.3981770915252
  0
LINE
  5
200
100
AcDbEntity
  8
___E
  6
CONTINUOUS
 62
             7
100
AcDbLine
 10
7313.0288448889833
 20
4913.3981764305081
 11
7313.0288448889833
 21
4896.8981762906778
  0
LINE
  5
1FF
100
AcDbEntity
  8
___E
  6
CONTINUOUS
 62
             7
100
AcDbLine
 10
7325.5288459949161
 20
4887.8981762144067
 11
7328.0288450161024
 21
4887.8981762144067
  0
LINE
  5
1FE
100
AcDbEntity
  8
___E
  6
CONTINUOUS
 62
             7
100
AcDbLine
 10
7325.5288459949161
 20
5061.8981776889832
 11
7328.0288450161024
 21
5061.8981776889832
  0
LINE
  5
1FD
100
AcDbEntity
  8
___E
  6
CONTINUOUS
 62
             7
100
AcDbLine
 10
7315.5288454101701
 20
4899.3981753118642
 11
7315.5288454101701
 21
5050.3981770915252
  0
LINE
  5
1FC
100
AcDbEntity
  8
___E
  6
CONTINUOUS
 62
             7
100
AcDbLine
 10
7208.0288439991527
 20
4913.3981764305081
 11
7315.5288454101701
 21
4913.3981764305081
  0
LINE
  5
1FB
100
AcDbEntity
  8
___E
  6
CONTINUOUS
 62
             7
100
AcDbLine
 10
7208.0288439991527
 20
5051.3981776000001
 11
7313.0288448889833
 21
5051.3981776000001
  0
LINE
  5
1FA
100
AcDbEntity
  8
___E
  6
CONTINUOUS
 62
             7
100
AcDbLine
 10
7234.6788447250001
 20
5039.748177001271
 11
7231.3288451966109
 21
5043.098176529661
  0
LINE
  5
1F9
100
AcDbEntity
  8
___E
  6
CONTINUOUS
 62
             7
100
AcDbLine
 10
7231.3788446970339
 20
5039.748177001271
 11
7234.7788452258483
 21
5043.1481775300854
  0
LINE
  5
1F8
100
AcDbEntity
  8
___E
  6
CONTINUOUS
 62
             7
100
AcDbLine
 10
7234.6788447250001
 20
4921.7481755012714
 11
7231.3288451966109
 21
4925.098176529661
  0
LINE
  5
1F7
100
AcDbEntity
  8
___E
  6
CONTINUOUS
 62
             7
100
AcDbLine
 10
7231.3788446970339
 20
4921.7481755012714
 11
7234.7788452258483
 21
4925.148176030084
  0
LINE
  5
1F6
100
AcDbEntity
  8
___E
  6
CONTINUOUS
 62
             7
100
AcDbLine
 10
7305.028845321187
 20
4901.8981758330501
 11
7313.0288448889833
 21
4901.8981758330501
  0
LINE
  5
1F5
100
AcDbEntity
  8
___E
  6
CONTINUOUS
 62
             7
100
AcDbLine
 10
7305.028845321187
 20
4911.8981764177961
 11
7304.0288448127121
 21
4911.8981764177961
  0
LINE
  5
1F4
100
AcDbEntity
  8
___E
  6
CONTINUOUS
 62
             7
100
AcDbLine
 10
7305.028845321187
 20
4907.8981758838981
 11
7313.0288448889833
 21
4907.8981758838981
  0
LINE
  5
1F3
100
AcDbEntity
  8
___E
  6
CONTINUOUS
 62
             7
100
AcDbLine
 10
7305.028845321187
 20
4901.8981758330501
 11
7291.0288457025426
 21
4896.8981762906778
  0
LINE
  5
1F2
100
AcDbEntity
  8
___E
  6
CONTINUOUS
 62
             7
100
AcDbLine
 10
7291.0288457025426
 20
4896.8981762906778
 11
7280.0288446093227
 21
4896.8981762906778
  0
LINE
  5
1F1
100
AcDbEntity
  8
___E
  6
CONTINUOUS
 62
             7
100
AcDbLine
 10
7202.0288439483056
 20
4952.6481757631354
 11
7202.0288439483056
 21
4959.6481763224574
  0
LINE
  5
1F0
100
AcDbEntity
  8
___E
  6
CONTINUOUS
 62
             7
100
AcDbLine
 10
7201.2288444415262
 20
4952.6481757631354
 11
7201.2288444415262
 21
4959.6481763224574
  0
LINE
  5
1EF
100
AcDbEntity
  8
___E
  6
CONTINUOUS
 62
             7
100
AcDbLine
 10
7200.2288439330514
 20
4952.6481757631354
 11
7200.2288439330514
 21
4959.6481763224574
  0
LINE
  5
1EE
100
AcDbEntity
  8
___E
  6
CONTINUOUS
 62
             7
100
AcDbLine
 10
7200.2288439330514
 20
4952.6481757631354
 11
7200.2288439330514
 21
4959.6481763224574
  0
LINE
  5
1ED
100
AcDbEntity
  8
___E
  6
CONTINUOUS
 62
             7
100
AcDbLine
 10
7198.2288444161022
 20
4952.6481757631354
 11
7198.2288444161022
 21
4959.6481763224574
  0
LINE
  5
1EC
100
AcDbEntity
  8
___E
  6
CONTINUOUS
 62
             7
100
AcDbLine
 10
7202.0288439483056
 20
4942.6481766783891
 11
7202.0288439483056
 21
4949.6481757377114
  0
LINE
  5
1EB
100
AcDbEntity
  8
___E
  6
CONTINUOUS
 62
             7
100
AcDbLine
 10
7201.2288444415262
 20
4942.6481766783891
 11
7201.2288444415262
 21
4949.6481757377114
  0
LINE
  5
1EA
100
AcDbEntity
  8
___E
  6
CONTINUOUS
 62
             7
100
AcDbLine
 10
7200.2288439330514
 20
4942.6481766783891
 11
7200.2288439330514
 21
4949.6481757377114
  0
LINE
  5
1E9
100
AcDbEntity
  8
___E
  6
CONTINUOUS
 62
             7
100
AcDbLine
 10
7200.2288439330514
 20
4942.6481766783891
 11
7200.2288439330514
 21
4949.6481757377114
  0
LINE
  5
1E8
100
AcDbEntity
  8
___E
  6
CONTINUOUS
 62
             7
100
AcDbLine
 10
7198.2288444161022
 20
4942.6481766783891
 11
7198.2288444161022
 21
4949.6481757377114
  0
LINE
  5
1E7
100
AcDbEntity
  8
___E
  6
CONTINUOUS
 62
             7
100
AcDbLine
 10
7202.0288439483056
 20
4932.648176093644
 11
7202.0288439483056
 21
4939.648176652966
  0
LINE
  5
1E6
100
AcDbEntity
  8
___E
  6
CONTINUOUS
 62
             7
100
AcDbLine
 10
7201.2288444415262
 20
4932.648176093644
 11
7201.2288444415262
 21
4939.648176652966
  0
LINE
  5
1E5
100
AcDbEntity
  8
___E
  6
CONTINUOUS
 62
             7
100
AcDbLine
 10
7200.2288439330514
 20
4932.648176093644
 11
7200.2288439330514
 21
4939.648176652966
  0
LINE
  5
1E4
100
AcDbEntity
  8
___E
  6
CONTINUOUS
 62
             7
100
AcDbLine
 10
7200.2288439330514
 20
4932.648176093644
 11
7200.2288439330514
 21
4939.648176652966
  0
LINE
  5
1E3
100
AcDbEntity
  8
___E
  6
CONTINUOUS
 62
             7
100
AcDbLine
 10
7198.2288444161022
 20
4932.648176093644
 11
7198.2288444161022
 21
4939.648176652966
  0
LINE
  5
1E2
100
AcDbEntity
  8
___E
  6
CONTINUOUS
 62
             7
100
AcDbLine
 10
7202.0288439483056
 20
4922.648175508898
 11
7202.0288439483056
 21
4929.64817606822
  0
LINE
  5
1E1
100
AcDbEntity
  8
___E
  6
CONTINUOUS
 62
             7
100
AcDbLine
 10
7201.2288444415262
 20
4922.648175508898
 11
7201.2288444415262
 21
4929.64817606822
  0
LINE
  5
1E0
100
AcDbEntity
  8
___E
  6
CONTINUOUS
 62
             7
100
AcDbLine
 10
7200.2288439330514
 20
4922.648175508898
 11
7200.2288439330514
 21
4929.64817606822
  0
LINE
  5
1DF
100
AcDbEntity
  8
___E
  6
CONTINUOUS
 62
             7
100
AcDbLine
 10
7200.2288439330514
 20
4922.648175508898
 11
7200.2288439330514
 21
4929.64817606822
  0
LINE
  5
1DE
100
AcDbEntity
  8
___E
  6
CONTINUOUS
 62
             7
100
AcDbLine
 10
7198.2288444161022
 20
4922.648175508898
 11
7198.2288444161022
 21
4929.64817606822
  0
LINE
  5
1DD
100
AcDbEntity
  8
___E
  6
CONTINUOUS
 62
             7
100
AcDbLine
 10
7194.0288443805093
 20
4959.6481763224574
 11
7194.0288443805093
 21
4962.6481763478814
  0
LINE
  5
1DC
100
AcDbEntity
  8
___E
  6
CONTINUOUS
 62
             7
100
AcDbLine
 10
7207.0288449906784
 20
4959.6481763224574
 11
7194.0288443805093
 21
4959.6481763224574
  0
LINE
  5
1DB
100
AcDbEntity
  8
___E
  6
CONTINUOUS
 62
             7
100
AcDbLine
 10
7207.0288449906784
 20
4952.6481757631354
 11
7207.0288449906784
 21
4959.6481763224574
  0
LINE
  5
1DA
100
AcDbEntity
  8
___E
  6
CONTINUOUS
 62
             7
100
AcDbLine
 10
7194.0288443805093
 20
4952.6481757631354
 11
7207.0288449906784
 21
4952.6481757631354
  0
LINE
  5
1D9
100
AcDbEntity
  8
___E
  6
CONTINUOUS
 62
             7
100
AcDbLine
 10
7196.0288438974594
 20
4960.6481768309322
 11
7196.0288438974594
 21
4961.6481758394066
  0
LINE
  5
1D8
100
AcDbEntity
  8
___E
  6
CONTINUOUS
 62
             7
100
AcDbLine
 10
7194.0288443805093
 20
4949.6481757377114
 11
7194.0288443805093
 21
4952.6481757631354
  0
LINE
  5
1D7
100
AcDbEntity
  8
___E
  6
CONTINUOUS
 62
             7
100
AcDbLine
 10
7207.0288449906784
 20
4949.6481757377114
 11
7194.0288443805093
 21
4949.6481757377114
  0
LINE
  5
1D6
100
AcDbEntity
  8
___E
  6
CONTINUOUS
 62
             7
100
AcDbLine
 10
7207.0288449906784
 20
4942.6481766783891
 11
7207.0288449906784
 21
4949.6481757377114
  0
LINE
  5
1D5
100
AcDbEntity
  8
___E
  6
CONTINUOUS
 62
             7
100
AcDbLine
 10
7194.0288443805093
 20
4942.6481766783891
 11
7207.0288449906784
 21
4942.6481766783891
  0
LINE
  5
1D4
100
AcDbEntity
  8
___E
  6
CONTINUOUS
 62
             7
100
AcDbLine
 10
7194.0288443805093
 20
4939.648176652966
 11
7194.0288443805093
 21
4942.6481766783891
  0
LINE
  5
1D3
100
AcDbEntity
  8
___E
  6
CONTINUOUS
 62
             7
100
AcDbLine
 10
7207.0288449906784
 20
4939.648176652966
 11
7194.0288443805093
 21
4939.648176652966
  0
LINE
  5
1D2
100
AcDbEntity
  8
___E
  6
CONTINUOUS
 62
             7
100
AcDbLine
 10
7207.0288449906784
 20
4932.648176093644
 11
7207.0288449906784
 21
4939.648176652966
  0
LINE
  5
1D1
100
AcDbEntity
  8
___E
  6
CONTINUOUS
 62
             7
100
AcDbLine
 10
7194.0288443805093
 20
4932.648176093644
 11
7207.0288449906784
 21
4932.648176093644
  0
LINE
  5
1D0
100
AcDbEntity
  8
___E
  6
CONTINUOUS
 62
             7
100
AcDbLine
 10
7194.0288443805093
 20
4929.64817606822
 11
7194.0288443805093
 21
4932.648176093644
  0
LINE
  5
1CF
100
AcDbEntity
  8
___E
  6
CONTINUOUS
 62
             7
100
AcDbLine
 10
7207.0288449906784
 20
4929.64817606822
 11
7194.0288443805093
 21
4929.64817606822
  0
LINE
  5
1CE
100
AcDbEntity
  8
___E
  6
CONTINUOUS
 62
             7
100
AcDbLine
 10
7207.0288449906784
 20
4922.648175508898
 11
7207.0288449906784
 21
4929.64817606822
  0
LINE
  5
1CD
100
AcDbEntity
  8
___E
  6
CONTINUOUS
 62
             7
100
AcDbLine
 10
7194.0288443805093
 20
4922.648175508898
 11
7207.0288449906784
 21
4922.648175508898
  0
LINE
  5
1CC
100
AcDbEntity
  8
___E
  6
CONTINUOUS
 62
             7
100
AcDbLine
 10
7196.0288438974594
 20
4930.6481765766948
 11
7196.0288438974594
 21
4931.6481755851692
  0
LINE
  5
1CB
100
AcDbEntity
  8
___E
  6
CONTINUOUS
 62
             7
100
AcDbLine
 10
7196.0288438974594
 20
4940.6481756614403
 11
7196.0288438974594
 21
4941.6481761699151
  0
LINE
  5
1CA
100
AcDbEntity
  8
___E
  6
CONTINUOUS
 62
             7
100
AcDbLine
 10
7196.0288438974594
 20
4950.6481762461863
 11
7196.0288438974594
 21
4951.6481767546611
  0
LINE
  5
1C9
100
AcDbEntity
  8
___E
  6
CONTINUOUS
 62
             7
100
AcDbLine
 10
7194.0288443805093
 20
4952.6481757631354
 11
7207.0288449906784
 21
4952.6481757631354
  0
LINE
  5
1C8
100
AcDbEntity
  8
___E
  6
CONTINUOUS
 62
             7
100
AcDbLine
 10
7194.0288443805093
 20
4942.6481766783891
 11
7207.0288449906784
 21
4942.6481766783891
  0
LINE
  5
1C7
100
AcDbEntity
  8
___E
  6
CONTINUOUS
 62
             7
100
AcDbLine
 10
7194.0288443805093
 20
4932.648176093644
 11
7207.0288449906784
 21
4932.648176093644
  0
LINE
  5
1C6
100
AcDbEntity
  8
___E
  6
CONTINUOUS
 62
             7
100
AcDbLine
 10
7194.0288443805093
 20
4919.648175483474
 11
7194.0288443805093
 21
4922.648175508898
  0
LINE
  5
1C5
100
AcDbEntity
  8
___E
  6
EXLTYPE3
 62
             7
100
AcDbLine
 10
7194.0288443805093
 20
4919.648175483474
 11
7193.0288438720354
 21
4919.648175483474
  0
LINE
  5
1C4
100
AcDbEntity
  8
___E
  6
CONTINUOUS
 62
             7
100
AcDbLine
 10
7196.0288438974594
 20
4920.6481759919488
 11
7196.0288438974594
 21
4921.6481765004237
  0
LINE
  5
1C3
100
AcDbEntity
  8
___E
  6
CONTINUOUS
 62
             7
100
AcDbLine
 10
7202.0288439483056
 20
4982.6481760173729
 11
7202.0288439483056
 21
4989.6481765766948
  0
LINE
  5
1C2
100
AcDbEntity
  8
___E
  6
CONTINUOUS
 62
             7
100
AcDbLine
 10
7201.2288444415262
 20
4982.6481760173729
 11
7201.2288444415262
 21
4989.6481765766948
  0
LINE
  5
1C1
100
AcDbEntity
  8
___E
  6
CONTINUOUS
 62
             7
100
AcDbLine
 10
7200.2288439330514
 20
4982.6481760173729
 11
7200.2288439330514
 21
4989.6481765766948
  0
LINE
  5
1C0
100
AcDbEntity
  8
___E
  6
CONTINUOUS
 62
             7
100
AcDbLine
 10
7200.2288439330514
 20
4982.6481760173729
 11
7200.2288439330514
 21
4989.6481765766948
  0
LINE
  5
1BF
100
AcDbEntity
  8
___E
  6
CONTINUOUS
 62
             7
100
AcDbLine
 10
7198.2288444161022
 20
4982.6481760173729
 11
7198.2288444161022
 21
4989.6481765766948
  0
LINE
  5
1BE
100
AcDbEntity
  8
___E
  6
CONTINUOUS
 62
             7
100
AcDbLine
 10
7202.0288439483056
 20
4972.6481769326274
 11
7202.0288439483056
 21
4979.6481759919488
  0
LINE
  5
1BD
100
AcDbEntity
  8
___E
  6
CONTINUOUS
 62
             7
100
AcDbLine
 10
7201.2288444415262
 20
4972.6481769326274
 11
7201.2288444415262
 21
4979.6481759919488
  0
LINE
  5
1BC
100
AcDbEntity
  8
___E
  6
CONTINUOUS
 62
             7
100
AcDbLine
 10
7200.2288439330514
 20
4972.6481769326274
 11
7200.2288439330514
 21
4979.6481759919488
  0
LINE
  5
1BB
100
AcDbEntity
  8
___E
  6
CONTINUOUS
 62
             7
100
AcDbLine
 10
7200.2288439330514
 20
4972.6481769326274
 11
7200.2288439330514
 21
4979.6481759919488
  0
LINE
  5
1BA
100
AcDbEntity
  8
___E
  6
CONTINUOUS
 62
             7
100
AcDbLine
 10
7198.2288444161022
 20
4972.6481769326274
 11
7198.2288444161022
 21
4979.6481759919488
  0
LINE
  5
1B9
100
AcDbEntity
  8
___E
  6
CONTINUOUS
 62
             7
100
AcDbLine
 10
7202.0288439483056
 20
4962.6481763478814
 11
7202.0288439483056
 21
4969.6481769072034
  0
LINE
  5
1B8
100
AcDbEntity
  8
___E
  6
CONTINUOUS
 62
             7
100
AcDbLine
 10
7201.2288444415262
 20
4962.6481763478814
 11
7201.2288444415262
 21
4969.6481769072034
  0
LINE
  5
1B7
100
AcDbEntity
  8
___E
  6
CONTINUOUS
 62
             7
100
AcDbLine
 10
7200.2288439330514
 20
4962.6481763478814
 11
7200.2288439330514
 21
4969.6481769072034
  0
LINE
  5
1B6
100
AcDbEntity
  8
___E
  6
CONTINUOUS
 62
             7
100
AcDbLine
 10
7200.2288439330514
 20
4962.6481763478814
 11
7200.2288439330514
 21
4969.6481769072034
  0
LINE
  5
1B5
100
AcDbEntity
  8
___E
  6
CONTINUOUS
 62
             7
100
AcDbLine
 10
7198.2288444161022
 20
4962.6481763478814
 11
7198.2288444161022
 21
4969.6481769072034
  0
LINE
  5
1B4
100
AcDbEntity
  8
___E
  6
CONTINUOUS
 62
             7
100
AcDbLine
 10
7194.0288443805093
 20
4989.6481765766948
 11
7194.0288443805093
 21
4992.6481766021179
  0
LINE
  5
1B3
100
AcDbEntity
  8
___E
  6
CONTINUOUS
 62
             7
100
AcDbLine
 10
7207.0288449906784
 20
4989.6481765766948
 11
7194.0288443805093
 21
4989.6481765766948
  0
LINE
  5
1B2
100
AcDbEntity
  8
___E
  6
CONTINUOUS
 62
             7
100
AcDbLine
 10
7207.0288449906784
 20
4982.6481760173729
 11
7207.0288449906784
 21
4989.6481765766948
  0
LINE
  5
1B1
100
AcDbEntity
  8
___E
  6
CONTINUOUS
 62
             7
100
AcDbLine
 10
7194.0288443805093
 20
4982.6481760173729
 11
7207.0288449906784
 21
4982.6481760173729
  0
LINE
  5
1B0
100
AcDbEntity
  8
___E
  6
CONTINUOUS
 62
             7
100
AcDbLine
 10
7196.0288438974594
 20
4990.6481770851688
 11
7196.0288438974594
 21
4991.648176093644
  0
LINE
  5
1AF
100
AcDbEntity
  8
___E
  6
CONTINUOUS
 62
             7
100
AcDbLine
 10
7194.0288443805093
 20
4979.6481759919488
 11
7194.0288443805093
 21
4982.6481760173729
  0
LINE
  5
1AE
100
AcDbEntity
  8
___E
  6
CONTINUOUS
 62
             7
100
AcDbLine
 10
7207.0288449906784
 20
4979.6481759919488
 11
7194.0288443805093
 21
4979.6481759919488
  0
LINE
  5
1AD
100
AcDbEntity
  8
___E
  6
CONTINUOUS
 62
             7
100
AcDbLine
 10
7207.0288449906784
 20
4972.6481769326274
 11
7207.0288449906784
 21
4979.6481759919488
  0
LINE
  5
1AC
100
AcDbEntity
  8
___E
  6
CONTINUOUS
 62
             7
100
AcDbLine
 10
7194.0288443805093
 20
4972.6481769326274
 11
7207.0288449906784
 21
4972.6481769326274
  0
LINE
  5
1AB
100
AcDbEntity
  8
___E
  6
CONTINUOUS
 62
             7
100
AcDbLine
 10
7194.0288443805093
 20
4969.6481769072034
 11
7194.0288443805093
 21
4972.6481769326274
  0
LINE
  5
1AA
100
AcDbEntity
  8
___E
  6
CONTINUOUS
 62
             7
100
AcDbLine
 10
7207.0288449906784
 20
4969.6481769072034
 11
7194.0288443805093
 21
4969.6481769072034
  0
LINE
  5
1A9
100
AcDbEntity
  8
___E
  6
CONTINUOUS
 62
             7
100
AcDbLine
 10
7207.0288449906784
 20
4962.6481763478814
 11
7207.0288449906784
 21
4969.6481769072034
  0
LINE
  5
1A8
100
AcDbEntity
  8
___E
  6
CONTINUOUS
 62
             7
100
AcDbLine
 10
7194.0288443805093
 20
4962.6481763478814
 11
7207.0288449906784
 21
4962.6481763478814
  0
LINE
  5
1A7
100
AcDbEntity
  8
___E
  6
CONTINUOUS
 62
             7
100
AcDbLine
 10
7196.0288438974594
 20
4970.6481759156777
 11
7196.0288438974594
 21
4971.6481764241526
  0
LINE
  5
1A6
100
AcDbEntity
  8
___E
  6
CONTINUOUS
 62
             7
100
AcDbLine
 10
7196.0288438974594
 20
4980.6481765004237
 11
7196.0288438974594
 21
4981.6481770088976
  0
LINE
  5
1A5
100
AcDbEntity
  8
___E
  6
CONTINUOUS
 62
             7
100
AcDbLine
 10
7194.0288443805093
 20
4982.6481760173729
 11
7207.0288449906784
 21
4982.6481760173729
  0
LINE
  5
1A4
100
AcDbEntity
  8
___E
  6
CONTINUOUS
 62
             7
100
AcDbLine
 10
7194.0288443805093
 20
4972.6481769326274
 11
7207.0288449906784
 21
4972.6481769326274
  0
LINE
  5
1A3
100
AcDbEntity
  8
___E
  6
CONTINUOUS
 62
             7
100
AcDbLine
 10
7194.0288443805093
 20
4962.6481763478814
 11
7207.0288449906784
 21
4962.6481763478814
  0
LINE
  5
1A2
100
AcDbEntity
  8
___E
  6
EXLTYPE3
 62
             7
100
AcDbLine
 10
7193.0288438720354
 20
4992.6481766021179
 11
7195.0288448889833
 21
4992.6481766021179
  0
LINE
  5
1A1
100
AcDbEntity
  8
___E
  6
EXLTYPE3
 62
             7
100
AcDbLine
 10
7193.0288438720354
 20
4919.648175483474
 11
7193.0288438720354
 21
4992.6481766021179
  0
LINE
  5
1A0
100
AcDbEntity
  8
___E
  6
EXLTYPE3
 62
             7
100
AcDbLine
 10
7194.0288443805093
 20
4919.648175483474
 11
7194.0288443805093
 21
4992.6481766021179
  0
LINE
  5
19F
100
AcDbEntity
  8
___E
  6
EXLTYPE3
 62
             7
100
AcDbLine
 10
7195.0288448889833
 20
4992.6481766021179
 11
7195.0288448889833
 21
4919.648175483474
  0
LINE
  5
19E
100
AcDbEntity
  8
___E
  6
CONTINUOUS
 62
             7
100
AcDbLine
 10
7194.0288443805093
 20
4962.6481763478814
 11
7208.0288439991527
 21
4962.6481763478814
  0
LINE
  5
19D
100
AcDbEntity
  8
___E
  6
CONTINUOUS
 62
             7
100
AcDbLine
 10
7196.0288438974594
 20
4961.6481758394066
 11
7208.0288439991527
 21
4961.6481758394066
  0
LINE
  5
19C
100
AcDbEntity
  8
___E
  6
CONTINUOUS
 62
             7
100
AcDbLine
 10
7208.0288439991527
 20
4960.6481768309322
 11
7196.0288438974594
 21
4960.6481768309322
  0
LINE
  5
19B
100
AcDbEntity
  8
___E
  6
CONTINUOUS
 62
             7
100
AcDbLine
 10
7196.0288438974594
 20
4931.6481755851692
 11
7208.0288439991527
 21
4931.6481755851692
  0
LINE
  5
19A
100
AcDbEntity
  8
___E
  6
CONTINUOUS
 62
             7
100
AcDbLine
 10
7208.0288439991527
 20
4930.6481765766948
 11
7196.0288438974594
 21
4930.6481765766948
  0
LINE
  5
199
100
AcDbEntity
  8
___E
  6
CONTINUOUS
 62
             7
100
AcDbLine
 10
7196.0288438974594
 20
4941.6481761699151
 11
7208.0288439991527
 21
4941.6481761699151
  0
LINE
  5
198
100
AcDbEntity
  8
___E
  6
CONTINUOUS
 62
             7
100
AcDbLine
 10
7208.0288439991527
 20
4940.6481756614403
 11
7196.0288438974594
 21
4940.6481756614403
  0
LINE
  5
197
100
AcDbEntity
  8
___E
  6
CONTINUOUS
 62
             7
100
AcDbLine
 10
7196.0288438974594
 20
4951.6481767546611
 11
7208.0288439991527
 21
4951.6481767546611
  0
LINE
  5
196
100
AcDbEntity
  8
___E
  6
CONTINUOUS
 62
             7
100
AcDbLine
 10
7208.0288439991527
 20
4950.6481762461863
 11
7196.0288438974594
 21
4950.6481762461863
  0
LINE
  5
195
100
AcDbEntity
  8
___E
  6
CONTINUOUS
 62
             7
100
AcDbLine
 10
7194.0288443805093
 20
4919.648175483474
 11
7208.0288439991527
 21
4919.648175483474
  0
LINE
  5
194
100
AcDbEntity
  8
___E
  6
CONTINUOUS
 62
             7
100
AcDbLine
 10
7194.0288443805093
 20
4919.648175483474
 11
7208.0288439991527
 21
4919.648175483474
  0
LINE
  5
193
100
AcDbEntity
  8
___E
  6
CONTINUOUS
 62
             7
100
AcDbLine
 10
7196.0288438974594
 20
4921.6481765004237
 11
7208.0288439991527
 21
4921.6481765004237
  0
LINE
  5
192
100
AcDbEntity
  8
___E
  6
CONTINUOUS
 62
             7
100
AcDbLine
 10
7208.0288439991527
 20
4920.6481759919488
 11
7196.0288438974594
 21
4920.6481759919488
  0
LINE
  5
191
100
AcDbEntity
  8
___E
  6
CONTINUOUS
 62
             7
100
AcDbLine
 10
7194.0288443805093
 20
4992.6481766021179
 11
7208.0288439991527
 21
4992.6481766021179
  0
LINE
  5
190
100
AcDbEntity
  8
___E
  6
CONTINUOUS
 62
             7
100
AcDbLine
 10
7196.0288438974594
 20
4991.648176093644
 11
7208.0288439991527
 21
4991.648176093644
  0
LINE
  5
18F
100
AcDbEntity
  8
___E
  6
CONTINUOUS
 62
             7
100
AcDbLine
 10
7208.0288439991527
 20
4990.6481770851688
 11
7196.0288438974594
 21
4990.6481770851688
  0
LINE
  5
18E
100
AcDbEntity
  8
___E
  6
CONTINUOUS
 62
             7
100
AcDbLine
 10
7196.0288438974594
 20
4971.6481764241526
 11
7208.0288439991527
 21
4971.6481764241526
  0
LINE
  5
18D
100
AcDbEntity
  8
___E
  6
CONTINUOUS
 62
             7
100
AcDbLine
 10
7208.0288439991527
 20
4970.6481759156777
 11
7196.0288438974594
 21
4970.6481759156777
  0
LINE
  5
18C
100
AcDbEntity
  8
___E
  6
CONTINUOUS
 62
             7
100
AcDbLine
 10
7196.0288438974594
 20
4981.6481770088976
 11
7208.0288439991527
 21
4981.6481770088976
  0
LINE
  5
18B
100
AcDbEntity
  8
___E
  6
CONTINUOUS
 62
             7
100
AcDbLine
 10
7208.0288439991527
 20
4980.6481765004237
 11
7196.0288438974594
 21
4980.6481765004237
  0
LINE
  5
18A
100
AcDbEntity
  8
___E
  6
CONTINUOUS
 62
             7
100
AcDbLine
 10
7208.0288439991527
 20
4916.3981764559321
 11
7207.0288449906784
 21
4916.3981764559321
  0
LINE
  5
189
100
AcDbEntity
  8
___E
  6
CONTINUOUS
 62
             7
100
AcDbLine
 10
7206.0288444822036
 20
4917.3981754644064
 11
7206.0288444822036
 21
4919.648175483474
  0
LINE
  5
188
100
AcDbEntity
  8
___E
  6
CONTINUOUS
 62
             7
100
AcDbLine
 10
7208.0288439991527
 20
4913.3981764305081
 11
7208.0288439991527
 21
5051.3981776000001
  0
LINE
  5
187
100
AcDbEntity
  8
___E
  6
CONTINUOUS
 62
             7
100
AcDbLine
 10
7207.0288449906784
 20
5032.4590934394992
 11
7208.0288439991527
 21
5032.4590934394992
  0
LINE
  5
186
100
AcDbEntity
  8
___E
  6
CONTINUOUS
 62
             7
100
AcDbLine
 10
7206.0288444822036
 20
5027.4590923971264
 11
7206.0288444822036
 21
5031.4590929310243
  0
LINE
  5
185
100
AcDbEntity
  8
___E
  6
CONTINUOUS
 62
             7
100
AcDbLine
 10
7208.0288439991527
 20
5026.4590933886511
 11
7207.0288449906784
 21
5026.4590933886511
  0
LINE
  5
184
100
AcDbEntity
  8
___E
  6
CONTINUOUS
 62
             7
100
AcDbLine
 10
7303.0288458042378
 20
4912.8981754262704
 11
7303.0288458042378
 21
4913.3981764305081
  0
LINE
  5
183
100
AcDbEntity
  8
___E
  6
CONTINUOUS
 62
             7
100
AcDbLine
 10
7305.028845321187
 20
4901.8981758330501
 11
7305.028845321187
 21
4913.3981764305081
  0
LINE
  5
182
100
AcDbEntity
  8
___E
  6
CONTINUOUS
 62
             7
100
AcDbLine
 10
7278.0288450923736
 20
4898.898175807627
 11
7278.0288450923736
 21
4913.3981764305081
  0
LINE
  5
181
100
AcDbEntity
  8
___E
  6
CONTINUOUS
 62
             7
100
AcDbLine
 10
7125.2788422894073
 20
4913.3981764305081
 11
7125.2788422894073
 21
4895.898175782203
  0
LINE
  5
180
100
AcDbEntity
  8
___E
  6
CONTINUOUS
 62
             7
100
AcDbLine
 10
7117.3288422220339
 20
4913.3981764305081
 11
7117.3288422220339
 21
4900.8981753245762
  0
LINE
  5
17F
100
AcDbEntity
  8
___E
  6
CONTINUOUS
 62
             7
100
AcDbLine
 10
7113.5288426898314
 20
4913.3981764305081
 11
7114.5288416983049
 21
4912.3981759220333
  0
LINE
  5
17E
100
AcDbEntity
  8
___E
  6
CONTINUOUS
 62
             7
100
AcDbLine
 10
7112.5288421813566
 20
4913.3981764305081
 11
7111.5288416728818
 21
4912.3981759220333
  0
LINE
  5
17D
100
AcDbEntity
  8
___E
  6
CONTINUOUS
 62
             7
100
AcDbLine
 10
7106.3288426288136
 20
4895.898175782203
 11
7106.3288426288136
 21
4913.3981764305081
  0
LINE
  5
17C
100
AcDbEntity
  8
___E
  6
CONTINUOUS
 62
             7
100
AcDbLine
 10
7087.7288424711869
 20
4895.898175782203
 11
7087.7288424711869
 21
4913.3981764305081
  0
LINE
  5
17B
100
AcDbEntity
  8
___E
  6
CONTINUOUS
 62
             7
100
AcDbLine
 10
7084.7288424457629
 20
4913.3981764305081
 11
7084.7288424457629
 21
4895.898175782203
  0
LINE
  5
17A
100
AcDbEntity
  8
___E
  6
CONTINUOUS
 62
             7
100
AcDbLine
 10
7081.5288414186443
 20
4913.3981764305081
 11
7082.5288419271192
 21
4912.3981759220333
  0
LINE
  5
179
100
AcDbEntity
  8
___E
  6
CONTINUOUS
 62
             7
100
AcDbLine
 10
7080.52884241017
 20
4913.3981764305081
 11
7079.5288419016952
 21
4912.3981759220333
  0
LINE
  5
178
100
AcDbEntity
  8
___E
  6
CONTINUOUS
 62
             7
100
AcDbLine
 10
7076.7288413779661
 20
4900.8981753245762
 11
7076.7288413779661
 21
4913.3981764305081
  0
LINE
  5
177
100
AcDbEntity
  8
___E
  6
CONTINUOUS
 62
             7
100
AcDbLine
 10
7067.5288418
 20
4913.3981764305081
 11
7067.5288418
 21
4895.898175782203
  0
LINE
  5
176
100
AcDbEntity
  8
___E
  6
CONTINUOUS
 62
             7
100
AcDbLine
 10
7098.7288420644072
 20
5031.0981764279659
 11
7095.3788425360171
 21
5027.7481768995758
  0
LINE
  5
175
100
AcDbEntity
  8
___E
  6
CONTINUOUS
 62
             7
100
AcDbLine
 10
7095.2788420351699
 20
5031.1481774283893
 11
7098.6788425639834
 21
5027.7481768995758
  0
LINE
  5
174
100
AcDbEntity
  8
___E
  6
CONTINUOUS
 62
             7
100
AcDbLine
 10
7067.5288418
 20
4920.3981754898314
 11
7066.5288412915252
 21
4920.3981754898314
  0
LINE
  5
173
100
AcDbEntity
  8
___E
  6
CONTINUOUS
 62
             7
100
AcDbLine
 10
7065.5288422830508
 20
4921.3981759983044
 11
7065.5288422830508
 21
4925.3981765322033
  0
LINE
  5
172
100
AcDbEntity
  8
___E
  6
CONTINUOUS
 62
             7
100
AcDbLine
 10
7066.5288412915252
 20
4926.3981755406776
 11
7067.5288418
 21
4926.3981755406776
  0
LINE
  5
171
100
AcDbEntity
  8
___E
  6
CONTINUOUS
 62
             7
100
AcDbLine
 10
7067.5288418
 20
5037.3981764813552
 11
7066.5288412915252
 21
5037.3981764813552
  0
LINE
  5
170
100
AcDbEntity
  8
___E
  6
CONTINUOUS
 62
             7
100
AcDbLine
 10
7065.5288422830508
 20
5038.3981769898301
 11
7065.5288422830508
 21
5042.3981775237289
  0
LINE
  5
16F
100
AcDbEntity
  8
___E
  6
CONTINUOUS
 62
             7
100
AcDbLine
 10
7066.5288412915252
 20
5043.3981765322033
 11
7067.5288418
 21
5043.3981765322033
  0
LINE
  5
16E
100
AcDbEntity
  8
___E
  6
CONTINUOUS
 62
             7
100
AcDbLine
 10
7126.5288418
 20
4926.3981755406776
 11
7127.5288423084749
 21
4926.3981755406776
  0
LINE
  5
16D
100
AcDbEntity
  8
___E
  6
CONTINUOUS
 62
             7
100
AcDbLine
 10
7128.5288428169497
 20
4925.3981765322033
 11
7128.5288428169497
 21
4921.3981759983044
  0
LINE
  5
16C
100
AcDbEntity
  8
___E
  6
CONTINUOUS
 62
             7
100
AcDbLine
 10
7127.5288423084749
 20
4920.3981754898314
 11
7126.5288418
 21
4920.3981754898314
  0
LINE
  5
16B
100
AcDbEntity
  8
___E
  6
CONTINUOUS
 62
             7
100
AcDbLine
 10
7126.5288418
 20
5043.3981765322033
 11
7127.5288423084749
 21
5043.3981765322033
  0
LINE
  5
16A
100
AcDbEntity
  8
___E
  6
CONTINUOUS
 62
             7
100
AcDbLine
 10
7128.5288428169497
 20
5042.3981775237289
 11
7128.5288428169497
 21
5038.3981769898301
  0
LINE
  5
169
100
AcDbEntity
  8
___E
  6
CONTINUOUS
 62
             7
100
AcDbLine
 10
7127.5288423084749
 20
5037.3981764813552
 11
7126.5288418
 21
5037.3981764813552
  0
LINE
  5
168
100
AcDbEntity
  8
___E
  6
CONTINUOUS
 62
             7
100
AcDbLine
 10
7109.3288426542376
 20
4913.3981764305081
 11
7109.3288426542376
 21
4895.898175782203
  0
LINE
  5
167
100
AcDbEntity
  8
___E
  6
CONTINUOUS
 62
             7
100
AcDbLine
 10
7122.7788417682204
 20
5051.3981776000001
 11
7122.7788417682204
 21
5062.4839636939469
  0
LINE
  5
166
100
AcDbEntity
  8
___E
  6
CONTINUOUS
 62
             7
100
AcDbLine
 10
7122.7788417682204
 20
5051.3981776000001
 11
7125.2788422894073
 21
5051.3981776000001
  0
LINE
  5
165
100
AcDbEntity
  8
___E
  6
CONTINUOUS
 62
             7
100
AcDbLine
 10
7071.2788418317796
 20
5062.4839636939469
 11
7071.2788418317796
 21
5051.3981776000001
  0
LINE
  5
164
100
AcDbEntity
  8
___E
  6
CONTINUOUS
 62
             7
100
AcDbLine
 10
7068.7788413105936
 20
5051.3981776000001
 11
7071.2788418317796
 21
5051.3981776000001
  0
LINE
  5
163
100
AcDbEntity
  8
___E
  6
CONTINUOUS
 62
             7
100
AcDbLine
 10
7068.7788413105936
 20
5051.3981776000001
 11
7071.2788418317796
 21
5051.3981776000001
  0
LINE
  5
162
100
AcDbEntity
  8
___E
  6
CONTINUOUS
 62
             7
100
AcDbLine
 10
7071.2788418317796
 20
5052.8981776127112
 11
7122.7788417682204
 21
5052.8981776127112
  0
LINE
  5
161
100
AcDbEntity
  8
___E
  6
CONTINUOUS
 62
             7
100
AcDbLine
 10
7318.5288454355941
 20
4912.8981754262704
 11
7318.5288454355941
 21
4916.8981759601693
  0
LINE
  5
160
100
AcDbEntity
  8
___E
  6
CONTINUOUS
 62
             7
100
AcDbLine
 10
7318.5288454355941
 20
4912.8981754262704
 11
7315.5288454101701
 21
4912.8981754262704
  0
LINE
  5
15F
100
AcDbEntity
  8
___E
  6
CONTINUOUS
 62
             7
100
AcDbLine
 10
7318.5288454355941
 20
4916.8981759601693
 11
7315.5288454101701
 21
4916.8981759601693
  0
LINE
  5
15E
100
AcDbEntity
  8
___E
  6
CONTINUOUS
 62
             7
100
AcDbLine
 10
7328.0288450161024
 20
5050.3981770915252
 11
7313.0288448889833
 21
5050.3981770915252
  0
LINE
  5
15D
100
AcDbEntity
  8
___E
  6
CONTINUOUS
 62
             7
100
AcDbLine
 10
7311.0288453720341
 20
5041.3981770152541
 11
7313.0288448889833
 21
5043.3981765322033
  0
LINE
  5
15C
100
AcDbEntity
  8
___E
  6
CONTINUOUS
 62
             7
100
AcDbLine
 10
7241.0288442788142
 20
4913.3981764305081
 11
7243.0288452957629
 21
4915.3981759474573
  0
LINE
  5
15B
100
AcDbEntity
  8
___E
  6
CONTINUOUS
 62
             7
100
AcDbLine
 10
7243.0288452957629
 20
4915.3981759474573
 11
7243.0288452957629
 21
5051.3981776000001
  0
LINE
  5
15A
100
AcDbEntity
  8
___E
  6
CONTINUOUS
 62
             7
100
AcDbLine
 10
7313.0288448889833
 20
5050.3981770915252
 11
7313.0288448889833
 21
5043.3981765322033
  0
LINE
  5
159
100
AcDbEntity
  8
___E
  6
CONTINUOUS
 62
             7
100
AcDbLine
 10
7243.0288452957629
 20
5041.3981770152541
 11
7311.0288453720341
 21
5041.3981770152541
  0
LINE
  5
158
100
AcDbEntity
  8
___E
  6
CONTINUOUS
 62
             7
100
AcDbLine
 10
7084.5288414440683
 20
4939.648176652966
 11
7084.5288414440683
 21
4932.648176093644
  0
LINE
  5
157
100
AcDbEntity
  8
___E
  6
CONTINUOUS
 62
             7
100
AcDbLine
 10
7074.528842359322
 20
4939.648176652966
 11
7074.528842359322
 21
4932.648176093644
  0
LINE
  5
156
100
AcDbEntity
  8
___E
  6
CONTINUOUS
 62
             7
100
AcDbLine
 10
7084.5288414440683
 20
4929.64817606822
 11
7084.5288414440683
 21
4922.648175508898
  0
LINE
  5
155
100
AcDbEntity
  8
___E
  6
CONTINUOUS
 62
             7
100
AcDbLine
 10
7074.528842359322
 20
4929.64817606822
 11
7074.528842359322
 21
4922.648175508898
  0
LINE
  5
154
100
AcDbEntity
  8
___E
  6
CONTINUOUS
 62
             7
100
AcDbLine
 10
7074.528842359322
 20
4932.648176093644
 11
7073.02884234661
 21
4932.648176093644
  0
LINE
  5
153
100
AcDbEntity
  8
___E
  6
CONTINUOUS
 62
             7
100
AcDbLine
 10
7073.02884234661
 20
4932.648176093644
 11
7073.02884234661
 21
4922.648175508898
  0
LINE
  5
152
100
AcDbEntity
  8
___E
  6
CONTINUOUS
 62
             7
100
AcDbLine
 10
7073.02884234661
 20
4922.648175508898
 11
7074.528842359322
 21
4922.648175508898
  0
LINE
  5
151
100
AcDbEntity
  8
___E
  6
CONTINUOUS
 62
             7
100
AcDbLine
 10
7074.528842359322
 20
4922.648175508898
 11
7074.528842359322
 21
4921.8481760021186
  0
LINE
  5
150
100
AcDbEntity
  8
___E
  6
CONTINUOUS
 62
             7
100
AcDbLine
 10
7074.528842359322
 20
4921.8481760021186
 11
7084.5288414440683
 21
4921.8481760021186
  0
LINE
  5
14F
100
AcDbEntity
  8
___E
  6
CONTINUOUS
 62
             7
100
AcDbLine
 10
7084.5288414440683
 20
4921.8481760021186
 11
7084.5288414440683
 21
4922.648175508898
  0
LINE
  5
14E
100
AcDbEntity
  8
___E
  6
CONTINUOUS
 62
             7
100
AcDbLine
 10
7084.5288414440683
 20
4922.648175508898
 11
7086.0288414567794
 21
4922.648175508898
  0
LINE
  5
14D
100
AcDbEntity
  8
___E
  6
CONTINUOUS
 62
             7
100
AcDbLine
 10
7086.0288414567794
 20
4922.648175508898
 11
7086.0288414567794
 21
4932.648176093644
  0
LINE
  5
14C
100
AcDbEntity
  8
___E
  6
CONTINUOUS
 62
             7
100
AcDbLine
 10
7086.0288414567794
 20
4932.648176093644
 11
7084.5288414440683
 21
4932.648176093644
  0
LINE
  5
14B
100
AcDbEntity
  8
___E
  6
CONTINUOUS
 62
             7
100
AcDbLine
 10
7084.5288414440683
 20
4932.648176093644
 11
7084.5288414440683
 21
4931.8481765868637
  0
LINE
  5
14A
100
AcDbEntity
  8
___E
  6
CONTINUOUS
 62
             7
100
AcDbLine
 10
7084.5288414440683
 20
4931.8481765868637
 11
7074.528842359322
 21
4931.8481765868637
  0
LINE
  5
149
100
AcDbEntity
  8
___E
  6
CONTINUOUS
 62
             7
100
AcDbLine
 10
7074.528842359322
 20
4931.8481765868637
 11
7074.528842359322
 21
4932.648176093644
  0
LINE
  5
148
100
AcDbEntity
  8
___E
  6
CONTINUOUS
 62
             7
100
AcDbLine
 10
7074.528842359322
 20
4919.648175483474
 11
7084.5288414440683
 21
4919.648175483474
  0
LINE
  5
147
100
AcDbEntity
  8
___E
  6
CONTINUOUS
 62
             7
100
AcDbLine
 10
7084.5288414440683
 20
4989.6481765766948
 11
7084.5288414440683
 21
4982.6481760173729
  0
LINE
  5
146
100
AcDbEntity
  8
___E
  6
CONTINUOUS
 62
             7
100
AcDbLine
 10
7074.528842359322
 20
4989.6481765766948
 11
7074.528842359322
 21
4982.6481760173729
  0
LINE
  5
145
100
AcDbEntity
  8
___E
  6
CONTINUOUS
 62
             7
100
AcDbLine
 10
7084.5288414440683
 20
4979.6481759919488
 11
7084.5288414440683
 21
4972.6481769326274
  0
LINE
  5
144
100
AcDbEntity
  8
___E
  6
CONTINUOUS
 62
             7
100
AcDbLine
 10
7074.528842359322
 20
4979.6481759919488
 11
7074.528842359322
 21
4972.6481769326274
  0
LINE
  5
143
100
AcDbEntity
  8
___E
  6
CONTINUOUS
 62
             7
100
AcDbLine
 10
7074.528842359322
 20
4992.6481766021179
 11
7084.5288414440683
 21
4992.6481766021179
  0
LINE
  5
142
100
AcDbEntity
  8
___E
  6
CONTINUOUS
 62
             7
100
AcDbLine
 10
7084.5288414440683
 20
4959.6481763224574
 11
7084.5288414440683
 21
4952.6481757631354
  0
LINE
  5
141
100
AcDbEntity
  8
___E
  6
CONTINUOUS
 62
             7
100
AcDbLine
 10
7074.528842359322
 20
4959.6481763224574
 11
7074.528842359322
 21
4952.6481757631354
  0
LINE
  5
140
100
AcDbEntity
  8
___E
  6
CONTINUOUS
 62
             7
100
AcDbLine
 10
7084.5288414440683
 20
4949.6481757377114
 11
7084.5288414440683
 21
4942.6481766783891
  0
LINE
  5
13F
100
AcDbEntity
  8
___E
  6
CONTINUOUS
 62
             7
100
AcDbLine
 10
7074.528842359322
 20
4949.6481757377114
 11
7074.528842359322
 21
4942.6481766783891
  0
LINE
  5
13E
100
AcDbEntity
  8
___E
  6
CONTINUOUS
 62
             7
100
AcDbLine
 10
7084.5288414440683
 20
4969.6481769072034
 11
7084.5288414440683
 21
4962.6481763478814
  0
LINE
  5
13D
100
AcDbEntity
  8
___E
  6
CONTINUOUS
 62
             7
100
AcDbLine
 10
7074.528842359322
 20
4969.6481769072034
 11
7074.528842359322
 21
4962.6481763478814
  0
LINE
  5
13C
100
AcDbEntity
  8
___E
  6
CONTINUOUS
 62
             7
100
AcDbLine
 10
7117.0288422194917
 20
5014.3981767864407
 11
7119.0288417364409
 21
5016.3981763033898
  0
LINE
  5
13B
100
AcDbEntity
  8
___E
  6
CONTINUOUS
 62
             7
100
AcDbLine
 10
7119.0288417364409
 20
5014.3981767864407
 11
7117.0288422194917
 21
5016.3981763033898
  0
LINE
  5
13A
100
AcDbEntity
  8
___E
  6
CONTINUOUS
 62
             7
100
AcDbLine
 10
7117.0288422194917
 20
5005.3981767101704
 11
7119.0288417364409
 21
5007.3981762271187
  0
LINE
  5
139
100
AcDbEntity
  8
___E
  6
CONTINUOUS
 62
             7
100
AcDbLine
 10
7119.0288417364409
 20
5005.3981767101704
 11
7117.0288422194917
 21
5007.3981762271187
  0
LINE
  5
138
100
AcDbEntity
  8
___E
  6
CONTINUOUS
 62
             7
100
AcDbLine
 10
7117.0288422194917
 20
4996.3981766338984
 11
7119.0288417364409
 21
4998.3981761508476
  0
LINE
  5
137
100
AcDbEntity
  8
___E
  6
CONTINUOUS
 62
             7
100
AcDbLine
 10
7119.0288417364409
 20
4996.3981766338984
 11
7117.0288422194917
 21
4998.3981761508476
  0
LINE
  5
136
100
AcDbEntity
  8
___E
  6
CONTINUOUS
 62
             7
100
AcDbLine
 10
7110.0288416601697
 20
4927.3981760491524
 11
7123.0288422703388
 21
4927.3981760491524
  0
LINE
  5
135
100
AcDbEntity
  8
___E
  6
CONTINUOUS
 62
             7
100
AcDbLine
 10
7109.0288426516954
 20
4928.3981765576264
 11
7109.0288426516954
 21
4981.3981765067792
  0
LINE
  5
134
100
AcDbEntity
  8
___E
  6
CONTINUOUS
 62
             7
100
AcDbLine
 10
7110.0288416601697
 20
4982.3981770152541
 11
7123.0288422703388
 21
4982.3981770152541
  0
LINE
  5
133
100
AcDbEntity
  8
___E
  6
CONTINUOUS
 62
             7
100
AcDbLine
 10
7124.0288427788137
 20
4981.3981765067792
 11
7124.0288427788137
 21
4928.3981765576264
  0
LINE
  5
132
100
AcDbEntity
  8
___E
  6
CONTINUOUS
 62
             7
100
AcDbLine
 10
7094.7288415305084
 20
4923.0981755127114
 11
7091.3788420021192
 21
4919.7481759843213
  0
LINE
  5
131
100
AcDbEntity
  8
___E
  6
CONTINUOUS
 62
             7
100
AcDbLine
 10
7091.278841501271
 20
4923.1481765131357
 11
7094.6788420300854
 21
4919.7481759843213
  0
LINE
  5
130
100
AcDbEntity
  8
___E
  6
CONTINUOUS
 62
             7
100
AcDbLine
 10
7120.2288417466107
 20
4923.0981755127114
 11
7116.8788422182206
 21
4919.7481759843213
  0
LINE
  5
12F
100
AcDbEntity
  8
___E
  6
CONTINUOUS
 62
             7
100
AcDbLine
 10
7116.7788417173733
 20
4923.1481765131357
 11
7120.1788422461868
 21
4919.7481759843213
  0
LINE
  5
12E
100
AcDbEntity
  8
___E
  6
CONTINUOUS
 62
             7
100
AcDbLine
 10
7077.2788418826276
 20
5019.398176328813
 11
7077.2788418826276
 21
5015.3981772949146
  0
LINE
  5
12D
100
AcDbEntity
  8
___E
  6
CONTINUOUS
 62
             7
100
AcDbLine
 10
7075.2788423656784
 20
5019.398176328813
 11
7077.2788418826276
 21
5019.398176328813
  0
LINE
  5
12C
100
AcDbEntity
  8
___E
  6
CONTINUOUS
 62
             7
100
AcDbLine
 10
7075.2788423656784
 20
5019.398176328813
 11
7078.2788423911024
 21
5027.3981773966098
  0
LINE
  5
12B
100
AcDbEntity
  8
___E
  6
CONTINUOUS
 62
             7
100
AcDbLine
 10
7081.2961494166721
 20
5004.7994262050952
 11
7081.9863999225217
 21
5004.9781767066097
  0
LINE
  5
12A
100
AcDbEntity
  8
___E
  6
CONTINUOUS
 62
             7
100
AcDbLine
 10
7080.8864004132001
 20
5005.2531762089402
 11
7081.2961494166721
 21
5004.7994262050952
  0
LINE
  5
129
100
AcDbEntity
  8
___E
  6
CONTINUOUS
 62
             7
100
AcDbLine
 10
7081.56023941891
 20
5001.7648376793786
 11
7079.5113999015484
 21
5000.8531766716524
  0
LINE
  5
128
100
AcDbEntity
  8
___E
  6
CONTINUOUS
 62
             7
100
AcDbLine
 10
7080.7010034116283
 20
5001.811513179774
 11
7082.5364004271833
 21
5002.5031766856364
  0
LINE
  5
127
100
AcDbEntity
  8
___E
  6
CONTINUOUS
 62
             7
100
AcDbLine
 10
7081.9863999225217
 20
5004.9781767066097
 11
7080.4956789098887
 21
5002.0405796817149
  0
LINE
  5
126
100
AcDbEntity
  8
___E
  6
CONTINUOUS
 62
             7
100
AcDbLine
 10
7081.3826814174054
 20
4998.1190501484816
 11
7082.5364004271833
 21
5002.5031766856364
  0
LINE
  5
125
100
AcDbEntity
  8
___E
  6
CONTINUOUS
 62
             7
100
AcDbLine
 10
7081.9863999225217
 20
4998.3231761502111
 11
7081.3826814174054
 21
4998.1190501484816
  0
LINE
  5
124
100
AcDbEntity
  8
___E
  6
CONTINUOUS
 62
             7
100
AcDbLine
 10
7080.9413994136657
 20
4997.49817614322
 11
7081.9863999225217
 21
4998.3231761502111
  0
LINE
  5
123
100
AcDbEntity
  8
___E
  6
CONTINUOUS
 62
             7
100
AcDbLine
 10
7080.9413994136657
 20
4997.49817614322
 11
7080.6113994108691
 21
4998.5981771525421
  0
LINE
  5
122
100
AcDbEntity
  8
___E
  6
CONTINUOUS
 62
             7
100
AcDbLine
 10
7087.8165684719297
 20
4997.2294931409433
 11
7081.9090104218658
 21
5007.1541907250503
  0
LINE
  5
121
100
AcDbEntity
  8
___E
  6
CONTINUOUS
 62
             7
100
AcDbLine
 10
7075.5288413677972
 20
4996.3981766338984
 11
7087.3439574679251
 21
4996.3981766338984
  0
LINE
  5
120
100
AcDbEntity
  8
___E
  6
CONTINUOUS
 62
             7
100
AcDbLine
 10
7080.9637884138556
 20
5007.1541907250503
 11
7075.0562303637917
 21
4997.2294931409433
  0
LINE
  5
11F
100
AcDbEntity
  8
___E
  6
CONTINUOUS
 62
             7
100
AcDbLine
 10
7316.5288459186449
 20
5041.3981770152541
 11
7316.5288459186449
 21
5028.3981764050841
  0
LINE
  5
11E
100
AcDbEntity
  8
___E
  6
CONTINUOUS
 62
             7
100
AcDbLine
 10
7315.5288454101701
 20
5028.3981764050841
 11
7316.5288459186449
 21
5028.3981764050841
  0
LINE
  5
11D
100
AcDbEntity
  8
___E
  6
CONTINUOUS
 62
             7
100
AcDbLine
 10
7315.5288454101701
 20
5041.3981770152541
 11
7316.5288459186449
 21
5041.3981770152541
  0
LINE
  5
11C
100
AcDbEntity
  8
___E
  6
CONTINUOUS
 62
             7
100
AcDbLine
 10
7317.5288449271193
 20
5030.3981774220338
 11
7316.5288459186449
 21
5030.3981774220338
  0
LINE
  5
11B
100
AcDbEntity
  8
___E
  6
CONTINUOUS
 62
             7
100
AcDbLine
 10
7317.5288449271193
 20
5039.3981774983049
 11
7317.5288449271193
 21
5030.3981774220338
  0
LINE
  5
11A
100
AcDbEntity
  8
___E
  6
CONTINUOUS
 62
             7
100
AcDbLine
 10
7316.5288459186449
 20
5039.3981774983049
 11
7317.5288449271193
 21
5039.3981774983049
  0
LINE
  5
119
100
AcDbEntity
  8
___E
  6
CONTINUOUS
 62
             7
100
AcDbLine
 10
7316.5288459186449
 20
5033.8981769516949
 11
7317.5288449271193
 21
5035.8981764686441
  0
LINE
  5
118
100
AcDbEntity
  8
___E
  6
CONTINUOUS
 62
             7
100
AcDbLine
 10
7319.0288449398313
 20
5030.3981774220338
 11
7317.5288449271193
 21
5030.3981774220338
  0
LINE
  5
117
100
AcDbEntity
  8
___E
  6
CONTINUOUS
 62
             7
100
AcDbLine
 10
7320.5288449525433
 20
5037.8981774855929
 11
7320.5288449525433
 21
5031.8981774347458
  0
LINE
  5
116
100
AcDbEntity
  8
___E
  6
CONTINUOUS
 62
             7
100
AcDbLine
 10
7319.0288449398313
 20
5039.3981774983049
 11
7317.5288449271193
 21
5039.3981774983049
  0
LINE
  5
115
100
AcDbEntity
  8
___E
  6
CONTINUOUS
 62
             7
100
AcDbLine
 10
7316.5288459186449
 20
4961.3981768372878
 11
7316.5288459186449
 21
4948.3981762271187
  0
LINE
  5
114
100
AcDbEntity
  8
___E
  6
CONTINUOUS
 62
             7
100
AcDbLine
 10
7315.5288454101701
 20
4948.3981762271187
 11
7316.5288459186449
 21
4948.3981762271187
  0
LINE
  5
113
100
AcDbEntity
  8
___E
  6
CONTINUOUS
 62
             7
100
AcDbLine
 10
7315.5288454101701
 20
4961.3981768372878
 11
7316.5288459186449
 21
4961.3981768372878
  0
LINE
  5
112
100
AcDbEntity
  8
___E
  6
CONTINUOUS
 62
             7
100
AcDbLine
 10
7317.5288449271193
 20
4950.398175744067
 11
7316.5288459186449
 21
4950.398175744067
  0
LINE
  5
111
100
AcDbEntity
  8
___E
  6
CONTINUOUS
 62
             7
100
AcDbLine
 10
7317.5288449271193
 20
4959.398175820339
 11
7317.5288449271193
 21
4950.398175744067
  0
LINE
  5
110
100
AcDbEntity
  8
___E
  6
CONTINUOUS
 62
             7
100
AcDbLine
 10
7316.5288459186449
 20
4959.398175820339
 11
7317.5288449271193
 21
4959.398175820339
  0
LINE
  5
10F
100
AcDbEntity
  8
___E
  6
CONTINUOUS
 62
             7
100
AcDbLine
 10
7316.5288459186449
 20
4953.8981767737287
 11
7317.5288449271193
 21
4955.8981762906778
  0
LINE
  5
10E
100
AcDbEntity
  8
___E
  6
CONTINUOUS
 62
             7
100
AcDbLine
 10
7319.0288449398313
 20
4950.398175744067
 11
7317.5288449271193
 21
4950.398175744067
  0
LINE
  5
10D
100
AcDbEntity
  8
___E
  6
CONTINUOUS
 62
             7
100
AcDbLine
 10
7320.5288449525433
 20
4957.898175807627
 11
7320.5288449525433
 21
4951.898175756779
  0
LINE
  5
10C
100
AcDbEntity
  8
___E
  6
CONTINUOUS
 62
             7
100
AcDbLine
 10
7319.0288449398313
 20
4959.398175820339
 11
7317.5288449271193
 21
4959.398175820339
  0
LINE
  5
3B
100
AcDbEntity
  8
___E
  6
CONTINUOUS
 62
             7
100
AcDbLine
 10
7080.8864004132001
 20
5005.2531762089402
 11
7079.5113999015484
 21
5000.8531766716524
  0
LINE
  5
3A
100
AcDbEntity
  8
___E
  6
CONTINUOUS
 62
             7
100
AcDbLine
 10
7080.6113994108691
 20
4998.5981771525421
 11
7081.0094499142424
 21
4998.0939791482688
  0
LINE
  5
39
100
AcDbEntity
  8
___E
  6
CONTINUOUS
 62
             7
100
AcDbLine
 10
7081.0094499142424
 20
4998.0939791482688
 11
7081.7883429208432
 21
5001.5780906777954
  0
POINT
  5
38
100
AcDbEntity
  8
___E
 62
             7
100
AcDbPoint
 10
7067.5288418
 20
5051.3981775999991
  0
POINT
  5
37
100
AcDbEntity
  8
___E
 62
             7
100
AcDbPoint
 10
7126.5288418
 20
5051.3981775999991
  0
POINT
  5
36
100
AcDbEntity
  8
___E
 62
             7
100
AcDbPoint
 10
7094.5288420288134
 20
5062.4839636939469
  0
POINT
  5
35
100
AcDbEntity
  8
___E
 62
             7
100
AcDbPoint
 10
7099.5288415711866
 20
5062.4839636939469
  0
POINT
  5
34
100
AcDbEntity
  8
___E
 62
             7
100
AcDbPoint
 10
7073.4430553501206
 20
5063.8981772059324
  0
POINT
  5
33
100
AcDbEntity
  8
___E
 62
             7
100
AcDbPoint
 10
7073.4430553501206
 20
4885.898175197457
  0
POINT
  5
32
100
AcDbEntity
  8
___E
 62
             7
100
AcDbPoint
 10
7092.0288415076284
 20
5058.8981776635592
  0
POINT
  5
31
100
AcDbEntity
  8
___E
 62
             7
100
AcDbPoint
 10
7092.0288415076284
 20
4890.8981762398298
  0
POINT
  5
30
100
AcDbEntity
  8
___E
 62
             7
100
AcDbPoint
 10
7328.0288450161024
 20
5063.8981772059324
  0
POINT
  5
2F
100
AcDbEntity
  8
___E
 62
             7
100
AcDbPoint
 10
7208.0288439991527
 20
5053.8981766211864
  0
POINT
  5
2E
100
AcDbEntity
  8
___E
 62
             7
100
AcDbPoint
 10
7208.0288439991527
 20
5053.8981766211864
  0
POINT
  5
2D
100
AcDbEntity
  8
___E
 62
             7
100
AcDbPoint
 10
7193.0288438720354
 20
4996.1481761317791
  0
POINT
  5
2C
100
AcDbEntity
  8
___E
 62
             7
100
AcDbPoint
 10
7328.0288450161024
 20
5063.8981772059324
  0
POINT
  5
2B
100
AcDbEntity
  8
___E
 62
             7
100
AcDbPoint
 10
7193.0288438720354
 20
4992.6481766021179
  0
POINT
  5
2A
100
AcDbEntity
  8
___E
 62
             7
100
AcDbPoint
 10
7328.0288450161024
 20
4885.898175197457
  0
POINT
  5
29
100
AcDbEntity
  8
___E
 62
             7
100
AcDbPoint
 10
7325.5288459949161
 20
4885.898175197457
  0
ENDSEC
  0
SECTION
  2
OBJECTS
  0
DICTIONARY
  5
19
100
AcDbDictionary
  3
ACAD_GROUP
350
1A
  3
ACAD_MLINESTYLE
350
1B
  0
DICTIONARY
  5
1A
102
{ACAD_REACTORS
330
19
102
}
100
AcDbDictionary
  0
DICTIONARY
  5
1B
102
{ACAD_REACTORS
330
19
102
}
100
AcDbDictionary
  3
STANDARD
350
1C
  0
MLINESTYLE
  5
1C
102
{ACAD_REACTORS
330
1B
102
}
100
AcDbMlineStyle
  2
STANDARD
 70
             0
  3

 62
             0
 51
90.0
 52
90.0
 71
             2
 49
0.5
 62
           256
  6
BYLAYER
 49
-0.5
 62
           256
  6
BYLAYER
  0
ENDSEC
  0
EOF
