  0
SECTION
  2
HEADER
  9
$ACADVER
  1
AC1014
  9
$ACADMAINTVER
 70
             0
  9
$DWGCODEPAGE
  3
ANSI_1252
  9
$INSBASE
 10
0.0
 20
0.0
 30
0.0
  9
$EXTMIN
 10
1.00000000000000E+20
 20
1.00000000000000E+20
 30
1.00000000000000E+20
  9
$EXTMAX
 10
-1.00000000000000E+20
 20
-1.00000000000000E+20
 30
-1.00000000000000E+20
  9
$LIMMIN
 10
0.0
 20
0.0
  9
$LIMMAX
 10
0.0
 20
0.0
  9
$ORTHOMODE
 70
             0
  9
$REGENMODE
 70
             1
  9
$FILLMODE
 70
             1
  9
$QTEXTMODE
 70
             0
  9
$MIRRTEXT
 70
             1
  9
$DRAGMODE
 70
             2
  9
$LTSCALE
 40
1.0
  9
$OSMODE
 70
             0
  9
$ATTMODE
 70
             1
  9
$TEXTSIZE
 40
0.2
  9
$TRACEWID
 40
0.05
  9
$TEXTSTYLE
  7
STANDARD
  9
$CLAYER
  8
0
  9
$CELTYPE
  6
CONTINUOUS
  9
$CECOLOR
 62
           256
  9
$CELTSCALE
 40
1.0
  9
$DELOBJ
 70
             1
  9
$DISPSILH
 70
             0
  9
$DIMSCALE
 40
1.0
  9
$DIMASZ
 40
0.18
  9
$DIMEXO
 40
0.0625
  9
$DIMDLI
 40
0.38
  9
$DIMRND
 40
0.0
  9
$DIMDLE
 40
0.0
  9
$DIMEXE
 40
0.18
  9
$DIMTP
 40
0.0
  9
$DIMTM
 40
0.0
  9
$DIMTXT
 40
0.18
  9
$DIMCEN
 40
0.09
  9
$DIMTSZ
 40
0.0
  9
$DIMTOL
 70
             0
  9
$DIMLIM
 70
             0
  9
$DIMTIH
 70
             1
  9
$DIMTOH
 70
             1
  9
$DIMSE1
 70
             0
  9
$DIMSE2
 70
             0
  9
$DIMTAD
 70
             0
  9
$DIMZIN
 70
             0
  9
$DIMBLK
  1

  9
$DIMASO
 70
             1
  9
$DIMSHO
 70
             1
  9
$DIMPOST
  1

  9
$DIMAPOST
  1

  9
$DIMALT
 70
             0
  9
$DIMALTD
 70
             2
  9
$DIMALTF
 40
25.4
  9
$DIMLFAC
 40
1.0
  9
$DIMTOFL
 70
             0
  9
$DIMTVP
 40
0.0
  9
$DIMTIX
 70
             0
  9
$DIMSOXD
 70
             0
  9
$DIMSAH
 70
             0
  9
$DIMBLK1
  1

  9
$DIMBLK2
  1

  9
$DIMSTYLE
  2
STANDARD
  9
$DIMCLRD
 70
             0
  9
$DIMCLRE
 70
             0
  9
$DIMCLRT
 70
             0
  9
$DIMTFAC
 40
1.0
  9
$DIMGAP
 40
0.09
  9
$DIMJUST
 70
             0
  9
$DIMSD1
 70
             0
  9
$DIMSD2
 70
             0
  9
$DIMTOLJ
 70
             1
  9
$DIMTZIN
 70
             0
  9
$DIMALTZ
 70
             0
  9
$DIMALTTZ
 70
             0
  9
$DIMFIT
 70
             3
  9
$DIMUPT
 70
             0
  9
$DIMUNIT
 70
             2
  9
$DIMDEC
 70
             4
  9
$DIMTDEC
 70
             4
  9
$DIMALTU
 70
             2
  9
$DIMALTTD
 70
             2
  9
$DIMTXSTY
  7
STANDARD
  9
$DIMAUNIT
 70
             0
  9
$LUNITS
 70
             2
  9
$LUPREC
 70
             4
  9
$SKETCHINC
 40
0.1
  9
$FILLETRAD
 40
0.0
  9
$AUNITS
 70
             0
  9
$AUPREC
 70
             0
  9
$MENU
  1
acad
  9
$ELEVATION
 40
0.0
  9
$PELEVATION
 40
0.0
  9
$THICKNESS
 40
0.0
  9
$LIMCHECK
 70
             0
  9
$BLIPMODE
 70
             1
  9
$CHAMFERA
 40
0.0
  9
$CHAMFERB
 40
0.0
  9
$CHAMFERC
 40
0.0
  9
$CHAMFERD
 40
0.0
  9
$SKPOLY
 70
             0
  9
$TDCREATE
 40
0.000000000
  9
$TDUPDATE
 40
0.000000000
  9
$TDINDWG
 40
0.0000000000
  9
$TDUSRTIMER
 40
0.0000000000
  9
$USRTIMER
 70
             1
  9
$ANGBASE
 50
0.0
  9
$ANGDIR
 70
             0
  9
$PDMODE
 70
             0
  9
$PDSIZE
 40
0.0
  9
$PLINEWID
 40
0.0
  9
$COORDS
 70
             0
  9
$SPLFRAME
 70
             0
  9
$SPLINETYPE
 70
             6
  9
$SPLINESEGS
 70
             8
  9
$ATTDIA
 70
             0
  9
$ATTREQ
 70
             1
  9
$HANDLING
 70
             1
  9
$HANDSEED
  5
115
  9
$SURFTAB1
 70
             6
  9
$SURFTAB2
 70
             6
  9
$SURFTYPE
 70
             6
  9
$SURFU
 70
             6
  9
$SURFV
 70
             6
  9
$UCSNAME
  2

  9
$UCSORG
 10
0.0
 20
0.0
 30
0.0
  9
$UCSXDIR
 10
1.0
 20
0.0
 30
0.0
  9
$UCSYDIR
 10
0.0
 20
1.0
 30
0.0
  9
$PUCSNAME
  2

  9
$PUCSORG
 10
0.0
 20
0.0
 30
0.0
  9
$PUCSXDIR
 10
1.0
 20
0.0
 30
0.0
  9
$PUCSYDIR
 10
0.0
 20
1.0
 30
0.0
  9
$USERI1
 70
             0
  9
$USERI2
 70
             0
  9
$USERI3
 70
             0
  9
$USERI4
 70
             0
  9
$USERI5
 70
             0
  9
$USERR1
 40
11.6
  9
$USERR2
 40
0.0
  9
$USERR3
 40
0.0
  9
$USERR4
 40
0.0
  9
$USERR5
 40
0.0
  9
$WORLDVIEW
 70
             1
  9
$SHADEDGE
 70
             3
  9
$SHADEDIF
 70
            70
  9
$TILEMODE
 70
             1
  9
$MAXACTVP
 70
            16
  9
$PINSBASE
 10
0.0
 20
0.0
 30
0.0
  9
$PLIMCHECK
 70
             0
  9
$PEXTMIN
 10
1.00000000000000E+20
 20
1.00000000000000E+20
 30
1.00000000000000E+20
  9
$PEXTMAX
 10
-1.00000000000000E+20
 20
-1.00000000000000E+20
 30
-1.00000000000000E+20
  9
$PLIMMIN
 10
0.0
 20
0.0
  9
$PLIMMAX
 10
12.0
 20
9.0
  9
$UNITMODE
 70
             0
  9
$VISRETAIN
 70
             0
  9
$PLINEGEN
 70
             1
  9
$PSLTSCALE
 70
             0
  9
$TREEDEPTH
 70
          3020
  9
$PICKSTYLE
 70
             1
  9
$CMLSTYLE
  2
STANDARD
  9
$CMLJUST
 70
             0
  9
$CMLSCALE
 40
1.0
  9
$PROXYGRAPHICS
 70
             0
  9
$MEASUREMENT
 70
             1
  0
ENDSEC
  0
SECTION
  2
CLASSES
  0
CLASS
  1
LWPOLYLINE
  2
AcDbPolyline
  3
"AutoCAD"
 90
        0
280
             0
281
             1
  0
CLASS
  1
IMAGE
  2
AcDbRasterImage
  3
ISM
 90
      127
280
             0
281
             1
  0
CLASS
  1
OLE2FRAME
  2
AcDbOle2Frame
  3
""
 90
        0
280
             0
281
             1
  0
CLASS
  1
HATCH
  2
AcDbHatch
  3
"ACAD_SEDONA"
 90
        0
280
             0
281
             1
  0
CLASS
  1
DICTIONARYVAR
  2
AcDbDictionaryVar
  3
"AutoCAD"
 90
        0
280
             0
281
             0
  0
CLASS
  1
RASTERVARIABLES
  2
AcDbRasterVariables
  3
ISM
 90
        0
280
             0
281
             0
  0
CLASS
  1
IMAGEDEF
  2
AcDbRasterImageDef
  3
ISM
 90
        0
280
             0
281
             0
  0
CLASS
  1
IMAGEDEF_REACTOR
  2
AcDbRasterImageDefReactor
  3
ISM
 90
        1
280
             0
281
             0
  0
CLASS
  1
IDBUFFER
  2
AcDbIdBuffer
  3
"Acad"
 90
        0
280
             0
281
             0
  0
CLASS
  1
SPATIAL_FILTER
  2
AcDbSpatialFilter
  3
"Acad"
 90
        0
280
             0
281
             0
  0
CLASS
  1
XRECORD
  2
AcDbXrecord
  3
"<Built In>"
 90
        0
280
             0
281
             0
  0
CLASS
  1
SORTENTSTABLE
  2
AcDbSortentsTable
  3
"AutoCAD"
 90
        0
280
             0
281
             0
  0
CLASS
  1
LAYER_INDEX
  2
AcDbLayerIndex
  3
"Acad"
 90
        0
280
             0
281
             0
  0
CLASS
  1
SPATIAL_INDEX
  2
AcDbSpatialIndex
  3
"Acad"
 90
        0
280
             0
281
             0
  0
CLASS
  1
OBJECT_PTR
  2
CAseDLPNTableRecord
  3
"ASE-LPNTableRecord"
 90
        1
280
             0
281
             0
  0
CLASS
  1
LAYOUT
  2
AcDbLayout
  3
"AutoCAD 2000"
 90
        1
280
             0
281
             0
  0
CLASS
  1
PLOTSETTINGS
  2
AcDbPlotSettings
  3
"AutoCAD 2000"
 90
        1
280
             0
281
             0
  0
CLASS
  1
ACDBDICTIONARYWDFLT
  2
AcDbDictionaryWithDefault
  3
"AutoCAD 2000"
 90
        1
280
             0
281
             0
  0
CLASS
  1
ACDBPLACEHOLDER
  2
AcDbPlaceHolder
  3
"AutoCAD 2000"
 90
        1
280
             0
281
             0
  0
ENDSEC
  0
SECTION
  2
TABLES
  0
TABLE
  2
VPORT
  5
7
100
AcDbSymbolTable
 70
             1
  0
VPORT
  5
15
100
AcDbSymbolTableRecord
100
AcDbViewportTableRecord
  2
*ACTIVE
 70
             0
 10
0.0
 20
0.0
 11
1.0
 21
1.0
 12
450.75000000000034
 22
-842.23600586152702
 13
0.0
 23
0.0
 14
1.0
 24
1.0
 15
0.0
 25
0.0
 16
0.0
 26
0.0
 36
1.0
 17
0.0
 27
0.0
 37
0.0
 40
250.20319136683474
 41
1.60267857142857
 42
50.0
 43
0.0
 44
0.0
 50
0.0
 51
0.0
 71
             0
 72
           100
 73
             1
 74
             1
 75
             0
 76
             0
 77
             0
 78
             0
  0
ENDTAB
  0
TABLE
  2
LTYPE
  5
4
100
AcDbSymbolTable
 70
            10
  0
LTYPE
  5
11
100
AcDbSymbolTableRecord
100
AcDbLinetypeTableRecord
  2
BYBLOCK
 70
            64
  3

 72
            65
 73
             0
 40
0.0
  0
LTYPE
  5
12
100
AcDbSymbolTableRecord
100
AcDbLinetypeTableRecord
  2
BYLAYER
 70
            64
  3

 72
            65
 73
             0
 40
0.0
  0
LTYPE
  5
13
100
AcDbSymbolTableRecord
100
AcDbLinetypeTableRecord
  2
CONTINUOUS
 70
            64
  3
Solid line
 72
            65
 73
             0
 40
0.0
  0
LTYPE
  5
1D
100
AcDbSymbolTableRecord
100
AcDbLinetypeTableRecord
  2
DASHED
 70
            64
  3
Dashed
 72
            65
 73
             2
 40
15.0
 49
12.0
 74
             0
 49
-3.0
 74
             0
  0
LTYPE
  5
1E
100
AcDbSymbolTableRecord
100
AcDbLinetypeTableRecord
  2
DOTTED
 70
            64
  3
Dotted
 72
            65
 73
             2
 40
3.5
 49
0.5
 74
             0
 49
-3.0
 74
             0
  0
LTYPE
  5
1F
100
AcDbSymbolTableRecord
100
AcDbLinetypeTableRecord
  2
DOT_CENTER
 70
            64
  3
Dot_Center
 72
            65
 73
             4
 40
2.0
 49
1.25
 74
             0
 49
-0.25
 74
             0
 49
0.25
 74
             0
 49
-0.25
 74
             0
  0
LTYPE
  5
20
100
AcDbSymbolTableRecord
100
AcDbLinetypeTableRecord
  2
LONG_DASHED
 70
            64
  3
Long_Dashed
 72
            65
 73
             2
 40
2.0
 49
1.5
 74
             0
 49
-0.5
 74
             0
  0
LTYPE
  5
21
100
AcDbSymbolTableRecord
100
AcDbLinetypeTableRecord
  2
DASH_CENTER
 70
            64
  3
Dash_Center
 72
            65
 73
             4
 40
36.0
 49
24.0
 74
             0
 49
-3.0
 74
             0
 49
6.0
 74
             0
 49
-3.0
 74
             0
  0
LTYPE
  5
22
100
AcDbSymbolTableRecord
100
AcDbLinetypeTableRecord
  2
PHANTOM
 70
            64
  3
Phantom
 72
            65
 73
             6
 40
2.5
 49
1.25
 74
             0
 49
-0.25
 74
             0
 49
0.25
 74
             0
 49
-0.25
 74
             0
 49
0.25
 74
             0
 49
-0.25
 74
             0
  0
LTYPE
  5
23
100
AcDbSymbolTableRecord
100
AcDbLinetypeTableRecord
  2
CENTER_DASH_DASH
 70
            64
  3
Center_Dash_Dash
 72
            65
 73
             6
 40
22.0
 49
12.0
 74
             0
 49
-3.0
 74
             0
 49
0.5
 74
             0
 49
-3.0
 74
             0
 49
0.5
 74
             0
 49
-3.0
 74
             0
  0
ENDTAB
  0
TABLE
  2
LAYER
  5
2
100
AcDbSymbolTable
 70
             2
  0
LAYER
  5
14
100
AcDbSymbolTableRecord
100
AcDbLayerTableRecord
  2
0
 70
             0
 62
             7
  6
CONTINUOUS
  0
LAYER
  5
24
100
AcDbSymbolTableRecord
100
AcDbLayerTableRecord
  2
1
 70
             0
 62
             7
  6
CONTINUOUS
  0
ENDTAB
  0
TABLE
  2
STYLE
  5
3
100
AcDbSymbolTable
 70
             1
  0
STYLE
  5
17
100
AcDbSymbolTableRecord
100
AcDbTextStyleTableRecord
  2
STANDARD
 70
             0
 40
0.0
 41
1.0
 50
0.0
 71
             0
 42
0.0
  3
txt
  4

  0
ENDTAB
  0
TABLE
  2
VIEW
  5
5
100
AcDbSymbolTable
 70
             0
  0
ENDTAB
  0
TABLE
  2
UCS
  5
6
100
AcDbSymbolTable
 70
             0
  0
ENDTAB
  0
TABLE
  2
APPID
  5
8
100
AcDbSymbolTable
 70
             1
  0
APPID
  5
16
100
AcDbSymbolTableRecord
100
AcDbRegAppTableRecord
  2
ACAD
 70
             0
  0
ENDTAB
  0
TABLE
  2
DIMSTYLE
  5
9
100
AcDbSymbolTable
 70
             1
  0
DIMSTYLE
105
18
100
AcDbSymbolTableRecord
100
AcDbDimStyleTableRecord
  2
STANDARD
 70
             0
  3

  4

  5

  6

  7

 40
1.0
 41
0.18
 42
0.0625
 43
0.38
 44
0.18
 45
0.0
 46
0.0
 47
0.0
 48
0.0
 71
             0
 72
             0
 73
             1
 74
             1
 75
             0
 76
             0
 77
             0
 78
             0
140
0.18
141
0.09
142
0.0
143
25.4
144
1.0
145
0.0
146
1.0
147
0.09
170
             0
171
             2
172
             0
173
             0
174
             0
175
             0
176
             0
177
             0
178
             0
270
             2
271
             4
272
             4
273
             2
274
             2
275
             0
280
             0
281
             0
282
             0
283
             1
284
             0
285
             0
286
             0
287
             0
288
             0
340
17
  0
ENDTAB
  0
TABLE
  2
BLOCK_RECORD
  5
1
100
AcDbSymbolTable
 70
             0
  0
BLOCK_RECORD
  5
A
100
AcDbSymbolTableRecord
100
AcDbBlockTableRecord
  2
*MODEL_SPACE
  0
BLOCK_RECORD
  5
B
100
AcDbSymbolTableRecord
100
AcDbBlockTableRecord
  2
*PAPER_SPACE
  0
ENDTAB
  0
ENDSEC
  0
SECTION
  2
BLOCKS
  0
BLOCK
  5
D
100
AcDbEntity
  8
0
100
AcDbBlockBegin
  2
*MODEL_SPACE
 70
             0
 10
0.0
 20
0.0
 30
0.0
  3
*MODEL_SPACE
  1

  0
ENDBLK
  5
E
100
AcDbEntity
  8
0
100
AcDbBlockEnd
  0
BLOCK
  5
F
100
AcDbEntity
 67
             1
  8
0
100
AcDbBlockBegin
  2
*PAPER_SPACE
 70
             0
 10
0.0
 20
0.0
 30
0.0
  3
*PAPER_SPACE
  1

  0
ENDBLK
  5
10
100
AcDbEntity
 67
             1
  8
0
100
AcDbBlockEnd
  0
ENDSEC
  0
SECTION
  2
ENTITIES
  0
CIRCLE
  5
113
100
AcDbEntity
  8
1
  6
CONTINUOUS
 62
             7
100
AcDbCircle
 10
395.75
 20
-769.50728251296573
 40
2.25
  0
CIRCLE
  5
112
100
AcDbEntity
  8
1
  6
CONTINUOUS
 62
             7
100
AcDbCircle
 10
469.08767132154878
 20
-951.96472921008808
 40
2.00000000000003
  0
CIRCLE
  5
111
100
AcDbEntity
  8
1
  6
CONTINUOUS
 62
             7
100
AcDbCircle
 10
482.75363792400958
 20
-951.24852624869686
 40
2.00000000000009
  0
CIRCLE
  5
110
100
AcDbEntity
  8
1
  6
CONTINUOUS
 62
             7
100
AcDbCircle
 10
496.08762044743378
 20
-948.17013382301423
 40
2.00000000000006
  0
CIRCLE
  5
10F
100
AcDbEntity
  8
1
  6
CONTINUOUS
 62
             7
100
AcDbCircle
 10
455.50495411995411
 20
-950.29698124262177
 40
2.00000000000008
  0
CIRCLE
  5
10E
100
AcDbEntity
  8
1
  6
CONTINUOUS
 62
             7
100
AcDbCircle
 10
442.41819030820972
 20
-946.29595602436871
 40
2.00000000000004
  0
ARC
  5
10D
100
AcDbEntity
  8
1
  6
CONTINUOUS
 62
             7
100
AcDbCircle
 10
461.00000000000091
 20
-802.59147940361959
 40
4.99999999999943
100
AcDbArc
 50
180.0
 51
-92.00000000000118
  0
ARC
  5
10C
100
AcDbEntity
  8
1
  6
CONTINUOUS
 62
             7
100
AcDbCircle
 10
461.00000000000091
 20
-737.24609198012377
 40
4.99999999999954
100
AcDbArc
 50
97.00000000000138
 51
180.0
  0
ARC
  5
10B
100
AcDbEntity
  8
1
  6
CONTINUOUS
 62
             7
100
AcDbCircle
 10
482.0000000000008
 20
-728.62255724840975
 40
1.00000000000071
100
AcDbArc
 50
-83.00000000000885
 51
0.0
  0
ARC
  5
10A
100
AcDbEntity
  8
1
  6
CONTINUOUS
 62
             7
100
AcDbCircle
 10
454.50000000000068
 20
-749.65827299493367
 40
1.49999999999937
100
AcDbArc
 50
105.00000000000539
 51
180.0
  0
ARC
  5
109
100
AcDbEntity
  8
1
  6
CONTINUOUS
 62
             7
100
AcDbCircle
 10
454.5000000000008
 20
-746.55244445370386
 40
1.50000000000027
100
AcDbArc
 50
-75.00000000000151
 51
0.0
  0
ARC
  5
108
100
AcDbEntity
  8
1
  6
CONTINUOUS
 62
             7
100
AcDbCircle
 10
454.5000000000008
 20
-792.46212057222783
 40
1.50000000000011
100
AcDbArc
 50
0.0
 51
75.00000000000375
  0
ARC
  5
107
100
AcDbEntity
  8
1
  6
CONTINUOUS
 62
             7
100
AcDbCircle
 10
454.50000000000068
 20
-789.35629203099779
 40
1.5
100
AcDbArc
 50
180.0
 51
-105.00000000000539
  0
ARC
  5
106
100
AcDbEntity
  8
1
  6
CONTINUOUS
 62
             7
100
AcDbCircle
 10
454.21256510416453
 20
-753.94478251296573
 40
11.81256510416461
100
AcDbArc
 50
180.0
 51
-153.95027466090187
  0
ARC
  5
105
100
AcDbEntity
  8
1
  6
CONTINUOUS
 62
             7
100
AcDbCircle
 10
454.21256510416657
 20
-785.06978251296573
 40
11.81256510417626
100
AcDbArc
 50
180.0
 51
-153.95027466090625
  0
ARC
  5
104
100
AcDbEntity
  8
1
  6
CONTINUOUS
 62
             7
100
AcDbCircle
 10
454.21256510416453
 20
-753.94478251296573
 40
11.81256510416472
100
AcDbArc
 50
153.95027466090187
 51
180.0
  0
ARC
  5
103
100
AcDbEntity
  8
1
  6
CONTINUOUS
 62
             7
100
AcDbCircle
 10
487.85026041666617
 20
-769.50728251296573
 40
45.45026041666617
100
AcDbArc
 50
166.80466980172983
 51
179.99999999998224
  0
ARC
  5
102
100
AcDbEntity
  8
1
  6
CONTINUOUS
 62
             7
100
AcDbCircle
 10
400.85973423686818
 20
-731.50728251296573
 40
1.99999999999991
100
AcDbArc
 50
4.76364169071725
 51
90.0
  0
ARC
  5
101
100
AcDbEntity
  8
1
  6
CONTINUOUS
 62
             7
100
AcDbCircle
 10
372.55561711201312
 20
-731.50728251296573
 40
2.0
100
AcDbArc
 50
90.0
 51
175.71084667119146
  0
ARC
  5
100
100
AcDbEntity
  8
1
  6
CONTINUOUS
 62
             7
100
AcDbCircle
 10
372.55561711201312
 20
-807.50728251296573
 40
2.0000000000002
100
AcDbArc
 50
-175.71084667119146
 51
-90.0
  0
ARC
  5
FF
100
AcDbEntity
  8
1
  6
CONTINUOUS
 62
             7
100
AcDbCircle
 10
400.85973423686818
 20
-807.50728251296573
 40
2.0
100
AcDbArc
 50
-90.0
 51
-4.76364169070427
  0
ARC
  5
FE
100
AcDbEntity
  8
1
  6
CONTINUOUS
 62
             7
100
AcDbCircle
 10
487.85026041666617
 20
-769.50728251296573
 40
45.45026041667086
100
AcDbArc
 50
-179.99999999998252
 51
-166.80466980173009
  0
ARC
  5
FD
100
AcDbEntity
  8
1
  6
CONTINUOUS
 62
             7
100
AcDbCircle
 10
454.21256510416453
 20
-785.0697825129655
 40
11.81256510416472
100
AcDbArc
 50
153.95027466090187
 51
180.0
  0
ARC
  5
FC
100
AcDbEntity
  8
1
  6
CONTINUOUS
 62
             7
100
AcDbCircle
 10
438.39582562299591
 20
-784.23804462649855
 40
14.39834311326207
100
AcDbArc
 50
155.06362534915587
 51
-178.92855076519913
  0
ARC
  5
FB
100
AcDbEntity
  8
1
  6
CONTINUOUS
 62
             7
100
AcDbCircle
 10
420.60417437700391
 20
-784.23804462649844
 40
14.39834311326181
100
AcDbArc
 50
-1.07144923480136
 51
24.93637465084409
  0
ARC
  5
FA
100
AcDbEntity
  8
1
  6
CONTINUOUS
 62
             7
100
AcDbCircle
 10
396.83012701892102
 20
-768.03613934266684
 40
38.19821285897024
100
AcDbArc
 50
-15.3807524406242
 51
-2.20720133336609
  0
ARC
  5
F9
100
AcDbEntity
  8
1
  6
CONTINUOUS
 62
             7
100
AcDbCircle
 10
462.16987298107881
 20
-768.03613934266684
 40
38.19821285897057
100
AcDbArc
 50
-177.79279866663393
 51
-164.61924755937591
  0
ARC
  5
F8
100
AcDbEntity
  8
1
  6
CONTINUOUS
 62
             7
100
AcDbCircle
 10
396.83012701892102
 20
-770.97842568326462
 40
38.1982128589704
100
AcDbArc
 50
2.20720133336609
 51
15.38075244062403
  0
ARC
  5
F7
100
AcDbEntity
  8
1
  6
CONTINUOUS
 62
             7
100
AcDbCircle
 10
462.16987298107881
 20
-770.97842568326473
 40
38.19821285897024
100
AcDbArc
 50
164.61924755937582
 51
177.79279866663376
  0
ARC
  5
F6
100
AcDbEntity
  8
1
  6
CONTINUOUS
 62
             7
100
AcDbCircle
 10
420.60417437700391
 20
-754.77652039943302
 40
14.39834311326187
100
AcDbArc
 50
-24.93637465084451
 51
1.07144923480135
  0
ARC
  5
F5
100
AcDbEntity
  8
1
  6
CONTINUOUS
 62
             7
100
AcDbCircle
 10
429.69392033916
 20
-756.24766356973123
 40
5.95396129072527
100
AcDbArc
 50
136.996088057175
 51
163.00391194282508
  0
ARC
  5
F4
100
AcDbEntity
  8
1
  6
CONTINUOUS
 62
             7
100
AcDbCircle
 10
429.30607966084011
 20
-782.76690145619978
 40
5.95396129072489
100
AcDbArc
 50
-43.00391194282835
 51
-16.99608805718039
  0
ARC
  5
F3
100
AcDbEntity
  8
1
  6
CONTINUOUS
 62
             7
100
AcDbCircle
 10
429.30607966083971
 20
-756.24766356973123
 40
5.953961290725
100
AcDbArc
 50
16.99608805717477
 51
43.00391194282729
  0
ARC
  5
F2
100
AcDbEntity
  8
1
  6
CONTINUOUS
 62
             7
100
AcDbCircle
 10
438.39582562299591
 20
-754.77652039943302
 40
14.39834311326198
100
AcDbArc
 50
178.92855076519868
 51
-155.0636253491555
  0
ARC
  5
F1
100
AcDbEntity
  8
1
  6
CONTINUOUS
 62
             7
100
AcDbCircle
 10
429.69392033915898
 20
-782.7669014562
 40
5.95396129072414
100
AcDbArc
 50
-163.00391194282042
 51
-136.99608805716989
  0
ARC
  5
F0
100
AcDbEntity
  8
1
  6
CONTINUOUS
 62
             7
100
AcDbCircle
 10
486.0
 20
-808.25728251296573
 40
1.0
100
AcDbArc
 50
180.0
 51
-59.99999999994694
  0
ARC
  5
EF
100
AcDbEntity
  8
1
  6
CONTINUOUS
 62
             7
100
AcDbCircle
 10
486.0
 20
-730.75728251296573
 40
0.9999999999992
100
AcDbArc
 50
59.99999999992089
 51
180.0
  0
ARC
  5
EE
100
AcDbEntity
  8
1
  6
CONTINUOUS
 62
             7
100
AcDbCircle
 10
528.80000000000075
 20
-738.08979954199185
 40
5.0
100
AcDbArc
 50
0.0
 51
85.0000000000001
  0
ARC
  5
ED
100
AcDbEntity
  8
1
  6
CONTINUOUS
 62
             7
100
AcDbCircle
 10
500.0000000000008
 20
-730.04911692595692
 40
0.5
100
AcDbArc
 50
180.0
 51
-94.99999999999184
  0
ARC
  5
EC
100
AcDbEntity
  8
1
  6
CONTINUOUS
 62
             7
100
AcDbCircle
 10
528.80000000000075
 20
-800.92476548393915
 40
5.00000000000011
100
AcDbArc
 50
-85.00000000000031
 51
0.0
  0
ARC
  5
EB
100
AcDbEntity
  8
1
  6
CONTINUOUS
 62
             7
100
AcDbCircle
 10
500.0000000000008
 20
-808.96544809997431
 40
0.50000000000014
100
AcDbArc
 50
94.99999999999184
 51
180.0
  0
ARC
  5
EA
100
AcDbEntity
  8
1
  6
CONTINUOUS
 62
             7
100
AcDbCircle
 10
498.5000000000008
 20
-729.92694129116535
 40
1.0
100
AcDbArc
 50
0.0
 51
87.99999999998954
  0
ARC
  5
E9
100
AcDbEntity
  8
1
  6
CONTINUOUS
 62
             7
100
AcDbCircle
 10
498.5000000000008
 20
-809.08762373476566
 40
1.00000000000031
100
AcDbArc
 50
-87.99999999999045
 51
0.0
  0
ARC
  5
E8
100
AcDbEntity
  8
1
  6
CONTINUOUS
 62
             7
100
AcDbCircle
 10
472.6157800247164
 20
-947.28501994137855
 40
1.86263997652035
100
AcDbArc
 50
177.99962270117334
 51
-124.82587374395213
  0
ARC
  5
E7
100
AcDbEntity
  8
1
  6
CONTINUOUS
 62
             7
100
AcDbCircle
 10
465.89878418622868
 20
-947.05046034668624
 40
1.85845006149488
100
AcDbArc
 50
-56.31775441272409
 51
-1.99952730176277
  0
ARC
  5
E6
100
AcDbEntity
  8
1
  6
CONTINUOUS
 62
             7
100
AcDbCircle
 10
469.08767132154878
 20
-951.96472921008808
 40
3.99999999999993
100
AcDbArc
 50
122.65327661219278
 51
51.96839538144925
  0
ARC
  5
E5
100
AcDbEntity
  8
1
  6
CONTINUOUS
 62
             7
100
AcDbCircle
 10
482.75363792400958
 20
-951.24852624869686
 40
3.99999999999986
100
AcDbArc
 50
132.65327661219339
 51
61.96839538144747
  0
ARC
  5
E4
100
AcDbEntity
  8
1
  6
CONTINUOUS
 62
             7
100
AcDbCircle
 10
478.75984331697038
 20
-946.96266061146616
 40
1.85845006149491
100
AcDbArc
 50
-46.31775441272355
 51
8.00047269824025
  0
ARC
  5
E3
100
AcDbEntity
  8
1
  6
CONTINUOUS
 62
             7
100
AcDbCircle
 10
485.41552374183658
 20
-946.02726263211287
 40
1.86263997652031
100
AcDbArc
 50
-172.00037729882897
 51
-114.82587374395395
  0
ARC
  5
E2
100
AcDbEntity
  8
1
  6
CONTINUOUS
 62
             7
100
AcDbCircle
 10
497.80240332632451
 20
-942.56596131145852
 40
1.86263997652027
100
AcDbArc
 50
-162.00037729882621
 51
-104.82587374395168
  0
ARC
  5
E1
100
AcDbEntity
  8
1
  6
CONTINUOUS
 62
             7
100
AcDbCircle
 10
491.41026779685279
 20
-944.64289527058907
 40
1.85845006149494
100
AcDbArc
 50
-36.31775441272342
 51
18.00047269823819
  0
ARC
  5
E0
100
AcDbEntity
  8
1
  6
CONTINUOUS
 62
             7
100
AcDbCircle
 10
496.08762044743378
 20
-948.17013382301423
 40
3.9999999999999
100
AcDbArc
 50
142.65327661219186
 51
71.96839538144812
  0
ARC
  5
DF
100
AcDbEntity
  8
1
  6
CONTINUOUS
 62
             7
100
AcDbCircle
 10
455.50495411995411
 20
-950.29698124262177
 40
3.99999999999987
100
AcDbArc
 50
112.65327661219371
 51
41.96839538144763
  0
ARC
  5
DE
100
AcDbEntity
  8
1
  6
CONTINUOUS
 62
             7
100
AcDbCircle
 10
453.21786717830503
 20
-944.90362672572337
 40
1.85845006149487
100
AcDbArc
 50
-66.31775441272447
 51
-11.99952730176572
  0
ARC
  5
DD
100
AcDbEntity
  8
1
  6
CONTINUOUS
 62
             7
100
AcDbCircle
 10
459.7920859108259
 20
-946.30101691986954
 40
1.86263997652031
100
AcDbArc
 50
167.99962270117359
 51
-134.82587374395212
  0
ARC
  5
DC
100
AcDbEntity
  8
1
  6
CONTINUOUS
 62
             7
100
AcDbCircle
 10
447.33408285671328
 20
-943.10515200146494
 40
1.86263997652035
100
AcDbArc
 50
157.99962270117049
 51
-144.82587374394873
  0
ARC
  5
DB
100
AcDbEntity
  8
1
  6
CONTINUOUS
 62
             7
100
AcDbCircle
 10
441.10239553963169
 20
-940.58739020180064
 40
1.85845006149487
100
AcDbArc
 50
-76.31775441272093
 51
-21.99952730176035
  0
ARC
  5
DA
100
AcDbEntity
  8
1
  6
CONTINUOUS
 62
             7
100
AcDbCircle
 10
442.41819030820972
 20
-946.29595602436871
 40
3.99999999999982
100
AcDbArc
 50
102.65327661219446
 51
31.96839538144736
  0
ARC
  5
D9
100
AcDbEntity
  8
1
  6
CONTINUOUS
 62
             7
100
AcDbCircle
 10
474.17476644865837
 20
-849.26994719765662
 40
1.62499999999999
100
AcDbArc
 50
-159.38013505195815
 51
-24.61986494803937
  0
ARC
  5
D8
100
AcDbEntity
  8
1
  6
CONTINUOUS
 62
             7
100
AcDbCircle
 10
471.17659396760098
 20
-849.16524870754915
 40
1.62499999999989
100
AcDbArc
 50
-159.38013505195673
 51
-24.61986494803854
  0
ARC
  5
D7
100
AcDbEntity
  8
1
  6
CONTINUOUS
 62
             7
100
AcDbCircle
 10
474.13114207778023
 20
-850.51918573143064
 40
1.62500000000014
100
AcDbArc
 50
20.6198649480442
 51
155.38013505195534
  0
ARC
  5
D6
100
AcDbEntity
  8
1
  6
CONTINUOUS
 62
             7
100
AcDbCircle
 10
474.03047883723718
 20
-853.40180378389778
 40
1.62500000000014
100
AcDbArc
 50
20.6198649480442
 51
155.38013505195448
  0
ARC
  5
D5
100
AcDbEntity
  8
1
  6
CONTINUOUS
 62
             7
100
AcDbCircle
 10
471.07593072705811
 20
-852.04786676001629
 40
1.62499999999999
100
AcDbArc
 50
-159.38013505195815
 51
-24.61986494804021
  0
ARC
  5
D4
100
AcDbEntity
  8
1
  6
CONTINUOUS
 62
             7
100
AcDbCircle
 10
471.03230635618002
 20
-853.29710529379042
 40
1.62500000000007
100
AcDbArc
 50
20.61986494804937
 51
155.38013505195249
  0
ARC
  5
D3
100
AcDbEntity
  8
1
  6
CONTINUOUS
 62
             7
100
AcDbCircle
 10
476.3408067853926
 20
-826.64151647221172
 40
3.49999999999981
100
AcDbArc
 50
-92.00000000000097
 51
-1.99999999999994
  0
ARC
  5
D2
100
AcDbEntity
  8
1
  6
CONTINUOUS
 62
             7
100
AcDbCircle
 10
470.59430953003272
 20
-826.44084436617231
 40
3.49999999999986
100
AcDbArc
 50
178.0
 51
-92.00000000000091
  0
ARC
  5
D1
100
AcDbEntity
  8
1
  6
CONTINUOUS
 62
             7
100
AcDbCircle
 10
479.91738031575198
 20
-824.50983018931993
 40
2.25520833333328
100
AcDbArc
 50
-162.43518593638365
 51
-91.99999999999868
  0
ARC
  5
D0
100
AcDbEntity
  8
1
  6
CONTINUOUS
 62
             7
100
AcDbCircle
 10
467.17514727125848
 20
-824.06486160636291
 40
2.25520833333335
100
AcDbArc
 50
-162.43518593637813
 51
-91.99999999999569
  0
ARC
  5
CF
100
AcDbEntity
  8
1
  6
CONTINUOUS
 62
             7
100
AcDbCircle
 10
479.91738031575198
 20
-824.50983018931993
 40
2.25520833333352
100
AcDbArc
 50
-91.99999999999868
 51
-21.56481406361427
  0
ARC
  5
CE
100
AcDbEntity
  8
1
  6
CONTINUOUS
 62
             7
100
AcDbCircle
 10
467.17514727125848
 20
-824.06486160636291
 40
2.25520833333363
100
AcDbArc
 50
-91.99999999999569
 51
-21.56481406361858
  0
ARC
  5
CD
100
AcDbEntity
  8
1
  6
CONTINUOUS
 62
             7
100
AcDbCircle
 10
473.7038568333025
 20
-819.77447169458333
 40
6.7708333333334
100
AcDbArc
 50
-130.88006965635131
 51
-53.11993034364779
  0
LINE
  5
CC
100
AcDbEntity
  8
1
  6
CONTINUOUS
 62
             7
100
AcDbLine
 10
482.0348994967033
 20
-808.3290820017196
 11
469.30000000000081
 21
-807.88436951189465
  0
LINE
  5
CB
100
AcDbEntity
  8
1
  6
CONTINUOUS
 62
             7
100
AcDbLine
 10
469.30000000000081
 20
-807.88436951189465
 11
468.80000000000081
 21
-807.86690912714971
  0
LINE
  5
CA
100
AcDbEntity
  8
1
  6
CONTINUOUS
 62
             7
100
AcDbLine
 10
468.80000000000081
 20
-807.86690912714971
 11
460.82550251648831
 21
-807.58843353871475
  0
LINE
  5
C9
100
AcDbEntity
  8
1
  6
CONTINUOUS
 62
             7
100
AcDbLine
 10
456.00000000000091
 20
-801.7684730458077
 11
456.00000000000148
 21
-802.59147940361959
  0
LINE
  5
C8
100
AcDbEntity
  8
1
  6
CONTINUOUS
 62
             7
100
AcDbLine
 10
456.00000000000091
 20
-801.7684730458077
 11
456.00000000000091
 21
-792.46212057222783
  0
LINE
  5
C7
100
AcDbEntity
  8
1
  6
CONTINUOUS
 62
             7
100
AcDbLine
 10
483.0000000000008
 20
-728.50728251296573
 11
483.00000000000068
 21
-728.62255724840975
  0
LINE
  5
C6
100
AcDbEntity
  8
1
  6
CONTINUOUS
 62
             7
100
AcDbLine
 10
456.00000000000091
 20
-746.55244445370386
 11
456.00000000000091
 21
-737.24609198012377
  0
LINE
  5
C5
100
AcDbEntity
  8
1
  6
CONTINUOUS
 62
             7
100
AcDbLine
 10
482.12186934340588
 20
-729.61510340005179
 11
460.39065328297511
 21
-732.28336122191763
  0
LINE
  5
C4
100
AcDbEntity
  8
1
  6
CONTINUOUS
 62
             7
100
AcDbLine
 10
484.5000000000008
 20
-728.50728251296573
 11
483.0000000000008
 21
-728.50728251296573
  0
LINE
  5
C3
100
AcDbEntity
  8
1
  6
CONTINUOUS
 62
             7
100
AcDbLine
 10
483.0000000000008
 20
-810.50728251296573
 11
484.5000000000008
 21
-810.50728251296573
  0
LINE
  5
C2
100
AcDbEntity
  8
1
  6
CONTINUOUS
 62
             7
100
AcDbLine
 10
454.88822856765461
 20
-748.00133319313773
 11
454.11177143234693
 21
-748.20938425550071
  0
LINE
  5
C1
100
AcDbEntity
  8
1
  6
CONTINUOUS
 62
             7
100
AcDbLine
 10
454.11177143234693
 20
-790.80518077043075
 11
454.88822856765461
 21
-791.01323183279374
  0
LINE
  5
C0
100
AcDbEntity
  8
1
  6
CONTINUOUS
 62
             7
100
AcDbLine
 10
484.5000000000008
 20
-810.50728251296573
 11
485.0000000000008
 21
-810.00728251296573
  0
LINE
  5
BF
100
AcDbEntity
  8
1
  6
CONTINUOUS
 62
             7
100
AcDbLine
 10
484.5000000000008
 20
-728.50728251296573
 11
485.0000000000008
 21
-729.00728251296573
  0
LINE
  5
BE
100
AcDbEntity
  8
1
  6
CONTINUOUS
 62
             7
100
AcDbLine
 10
434.99999999999977
 20
-782.72778251296586
 11
442.19999999999669
 21
-782.72778251296586
  0
LINE
  5
BD
100
AcDbEntity
  8
1
  6
CONTINUOUS
 62
             7
100
AcDbLine
 10
442.19999999999919
 20
-756.28678251296583
 11
434.99999999999989
 21
-756.28678251296583
  0
LINE
  5
BC
100
AcDbEntity
  8
1
  6
CONTINUOUS
 62
             7
100
AcDbLine
 10
442.19999999999891
 20
-757.44878251296586
 11
434.99999999999989
 21
-757.44878251296586
  0
LINE
  5
BB
100
AcDbEntity
  8
1
  6
CONTINUOUS
 62
             7
100
AcDbLine
 10
442.1999999999997
 20
-781.56578251296582
 11
434.99999999999977
 21
-781.56578251296582
  0
LINE
  5
BA
100
AcDbEntity
  8
1
  6
CONTINUOUS
 62
             7
100
AcDbLine
 10
456.00000000000091
 20
-746.55244445370386
 11
456.00000000000091
 21
-792.46212057222783
  0
LINE
  5
B9
100
AcDbEntity
  8
1
  6
CONTINUOUS
 62
             7
100
AcDbLine
 10
483.00000000000068
 20
-728.62255724840975
 11
483.0000000000008
 21
-810.50728251296573
  0
LINE
  5
B8
100
AcDbEntity
  8
1
  6
CONTINUOUS
 62
             7
100
AcDbLine
 10
485.0000000000008
 20
-810.00728251296573
 11
485.0000000000008
 21
-729.00728251296573
  0
LINE
  5
B7
100
AcDbEntity
  8
1
  6
CONTINUOUS
 62
             7
100
AcDbLine
 10
443.60000000000002
 20
-748.75728251296573
 11
449.39999999999992
 21
-748.75728251296573
  0
LINE
  5
B6
100
AcDbEntity
  8
1
  6
CONTINUOUS
 62
             7
100
AcDbLine
 10
443.60000000000002
 20
-759.13228251296573
 11
449.39999999999992
 21
-759.13228251296573
  0
LINE
  5
B5
100
AcDbEntity
  8
1
  6
CONTINUOUS
 62
             7
100
AcDbLine
 10
443.60000000000002
 20
-790.25728251296573
 11
449.39999999999992
 21
-790.25728251296573
  0
LINE
  5
B4
100
AcDbEntity
  8
1
  6
CONTINUOUS
 62
             7
100
AcDbLine
 10
442.39999999999992
 20
-753.94478251296573
 11
442.39999999999532
 21
-769.50728251295163
  0
LINE
  5
B3
100
AcDbEntity
  8
1
  6
CONTINUOUS
 62
             7
100
AcDbLine
 10
442.39999999999532
 20
-769.50728251295163
 11
442.39999999999992
 21
-781.50728251296573
  0
LINE
  5
B2
100
AcDbEntity
  8
1
  6
CONTINUOUS
 62
             7
100
AcDbLine
 10
442.39999999999992
 20
-781.50728251296573
 11
442.39999999999031
 21
-785.06978251296573
  0
LINE
  5
B1
100
AcDbEntity
  8
1
  6
CONTINUOUS
 62
             7
100
AcDbLine
 10
449.39999999999992
 20
-748.75728251296573
 11
449.39999999999992
 21
-790.25728251296573
  0
LINE
  5
B0
100
AcDbEntity
  8
1
  6
CONTINUOUS
 62
             7
100
AcDbLine
 10
372.55561711201312
 20
-729.50728251296573
 11
400.85973423686818
 21
-729.50728251296573
  0
LINE
  5
AF
100
AcDbEntity
  8
1
  6
CONTINUOUS
 62
             7
100
AcDbLine
 10
402.85282575335788
 20
-731.34119155325857
 11
405.69999999999987
 21
-765.50728251296573
  0
LINE
  5
AE
100
AcDbEntity
  8
1
  6
CONTINUOUS
 62
             7
100
AcDbLine
 10
370.56121849223598
 20
-731.35770261648281
 11
367.69999999999987
 21
-769.50728251296573
  0
LINE
  5
AD
100
AcDbEntity
  8
1
  6
CONTINUOUS
 62
             7
100
AcDbLine
 10
367.69999999999987
 20
-769.50728251296573
 11
370.56121849223598
 21
-807.65686240944865
  0
LINE
  5
AC
100
AcDbEntity
  8
1
  6
CONTINUOUS
 62
             7
100
AcDbLine
 10
400.85973423686818
 20
-809.50728251296573
 11
372.55561711201312
 21
-809.50728251296573
  0
LINE
  5
AB
100
AcDbEntity
  8
1
  6
CONTINUOUS
 62
             7
100
AcDbLine
 10
405.69999999999987
 20
-773.50728251296573
 11
402.85282575335788
 21
-807.67337347267244
  0
LINE
  5
AA
100
AcDbEntity
  8
1
  6
CONTINUOUS
 62
             7
100
AcDbLine
 10
449.39999999999992
 20
-779.8822825129655
 11
443.60000000000002
 21
-779.8822825129655
  0
LINE
  5
A9
100
AcDbEntity
  8
1
  6
CONTINUOUS
 62
             7
100
AcDbLine
 10
391.75
 20
-773.50728251296573
 11
390.75
 21
-772.50728251296573
  0
LINE
  5
A8
100
AcDbEntity
  8
1
  6
CONTINUOUS
 62
             7
100
AcDbLine
 10
390.75
 20
-766.50728251296573
 11
391.75
 21
-765.50728251296573
  0
LINE
  5
A7
100
AcDbEntity
  8
1
  6
CONTINUOUS
 62
             7
100
AcDbLine
 10
391.75
 20
-773.50728251296573
 11
423.99999999999989
 21
-773.50728251296573
  0
LINE
  5
A6
100
AcDbEntity
  8
1
  6
CONTINUOUS
 62
             7
100
AcDbLine
 10
423.99999999999989
 20
-765.50728251296573
 11
391.75
 21
-765.50728251296573
  0
LINE
  5
A5
100
AcDbEntity
  8
1
  6
CONTINUOUS
 62
             7
100
AcDbLine
 10
391.75
 20
-765.50728251296573
 11
391.75
 21
-773.50728251296573
  0
LINE
  5
A4
100
AcDbEntity
  8
1
  6
CONTINUOUS
 62
             7
100
AcDbLine
 10
390.75
 20
-772.50728251296573
 11
390.75
 21
-766.50728251296573
  0
LINE
  5
A3
100
AcDbEntity
  8
1
  6
CONTINUOUS
 62
             7
100
AcDbLine
 10
425.33974596215518
 20
-778.16753655080981
 11
433.66025403784442
 21
-778.16753655080981
  0
LINE
  5
A2
100
AcDbEntity
  8
1
  6
CONTINUOUS
 62
             7
100
AcDbLine
 10
423.99999999999977
 20
-784.50728251296619
 11
423.99999999999977
 21
-769.50728251296573
  0
LINE
  5
A1
100
AcDbEntity
  8
1
  6
CONTINUOUS
 62
             7
100
AcDbLine
 10
434.99999999999989
 20
-754.50728251296528
 11
434.99999999999977
 21
-784.50728251296619
  0
LINE
  5
A0
100
AcDbEntity
  8
1
  6
CONTINUOUS
 62
             7
100
AcDbLine
 10
423.99999999999977
 20
-769.50728251296573
 11
423.99999999999989
 21
-754.50728251296528
  0
LINE
  5
9F
100
AcDbEntity
  8
1
  6
CONTINUOUS
 62
             7
100
AcDbLine
 10
425.33974596215518
 20
-752.18677443727643
 11
433.66025403784431
 21
-752.18677443727631
  0
LINE
  5
9E
100
AcDbEntity
  8
1
  6
CONTINUOUS
 62
             7
100
AcDbLine
 10
433.66025403784442
 20
-760.84702847512176
 11
425.3397459621554
 21
-760.84702847512176
  0
LINE
  5
9D
100
AcDbEntity
  8
1
  6
CONTINUOUS
 62
             7
100
AcDbLine
 10
433.66025403784442
 20
-786.82779058865458
 11
425.33974596215518
 21
-786.82779058865458
  0
LINE
  5
9C
100
AcDbEntity
  8
1
  6
CONTINUOUS
 62
             7
100
AcDbLine
 10
452.99999999999989
 20
-790.50728251296573
 11
450.99999999999989
 21
-790.50728251296573
  0
LINE
  5
9B
100
AcDbEntity
  8
1
  6
CONTINUOUS
 62
             7
100
AcDbLine
 10
452.99999999999989
 20
-748.50728251296573
 11
450.99999999999989
 21
-748.50728251296573
  0
LINE
  5
9A
100
AcDbEntity
  8
1
  6
CONTINUOUS
 62
             7
100
AcDbLine
 10
450.99999999999989
 20
-748.50728251296573
 11
450.99999999999989
 21
-790.50728251296573
  0
LINE
  5
99
100
AcDbEntity
  8
1
  6
CONTINUOUS
 62
             7
100
AcDbLine
 10
452.99999999999989
 20
-790.50728251296573
 11
452.99999999999989
 21
-748.50728251296573
  0
LINE
  5
98
100
AcDbEntity
  8
1
  6
CONTINUOUS
 62
             7
100
AcDbLine
 10
486.5000000000008
 20
-730.50728251296596
 11
486.5000000000008
 21
-810.00728251296573
  0
LINE
  5
97
100
AcDbEntity
  8
1
  6
CONTINUOUS
 62
             7
100
AcDbLine
 10
486.5000000000008
 20
-728.54659382530394
 11
486.5000000000008
 21
-728.50728251296573
  0
LINE
  5
96
100
AcDbEntity
  8
1
  6
CONTINUOUS
 62
             7
100
AcDbLine
 10
486.53820487785049
 20
-728.50861665669845
 11
486.5000000000008
 21
-728.50728251296573
  0
LINE
  5
95
100
AcDbEntity
  8
1
  6
CONTINUOUS
 62
             7
100
AcDbLine
 10
486.5000000000008
 20
-810.50728251296573
 11
486.53820487785049
 21
-810.50594836923278
  0
LINE
  5
94
100
AcDbEntity
  8
1
  6
CONTINUOUS
 62
             7
100
AcDbLine
 10
486.5000000000008
 20
-810.50728251296573
 11
486.5000000000008
 21
-810.46797120062752
  0
LINE
  5
93
100
AcDbEntity
  8
1
  6
CONTINUOUS
 62
             7
100
AcDbLine
 10
486.99969541351038
 20
-810.48983276461445
 11
486.5000000000008
 21
-810.00728251296573
  0
LINE
  5
92
100
AcDbEntity
  8
1
  6
CONTINUOUS
 62
             7
100
AcDbLine
 10
486.99969541351038
 20
-728.52473226131701
 11
486.5000000000008
 21
-729.00728251296573
  0
LINE
  5
91
100
AcDbEntity
  8
1
  6
CONTINUOUS
 62
             7
100
AcDbLine
 10
499.95642212862703
 20
-730.54721427500294
 11
529.23577871373902
 21
-733.10882605153324
  0
LINE
  5
90
100
AcDbEntity
  8
1
  6
CONTINUOUS
 62
             7
100
AcDbLine
 10
499.5000000000008
 20
-729.92694129116535
 11
499.5000000000008
 21
-730.04911692595692
  0
LINE
  5
8F
100
AcDbEntity
  8
1
  6
CONTINUOUS
 62
             7
100
AcDbLine
 10
529.23577871373902
 20
-805.90573897439799
 11
499.95642212862703
 21
-808.46735075092829
  0
LINE
  5
8E
100
AcDbEntity
  8
1
  6
CONTINUOUS
 62
             7
100
AcDbLine
 10
499.5000000000008
 20
-808.96544809997431
 11
499.5000000000008
 21
-809.08762373476566
  0
LINE
  5
8D
100
AcDbEntity
  8
1
  6
CONTINUOUS
 62
             7
100
AcDbLine
 10
499.5000000000008
 20
-808.50728251296573
 11
499.51480784342112
 21
-808.50598699453508
  0
LINE
  5
8C
100
AcDbEntity
  8
1
  6
CONTINUOUS
 62
             7
100
AcDbLine
 10
533.80000000000052
 20
-738.48438994605158
 11
533.80000000000052
 21
-738.5072825129655
  0
LINE
  5
8B
100
AcDbEntity
  8
1
  6
CONTINUOUS
 62
             7
100
AcDbLine
 10
533.80000000000052
 20
-738.48438994605158
 11
533.80000000000052
 21
-738.5072825129655
  0
LINE
  5
8A
100
AcDbEntity
  8
1
  6
CONTINUOUS
 62
             7
100
AcDbLine
 10
533.80000000000052
 20
-800.50728251296573
 11
533.80000000000052
 21
-800.53017507987965
  0
LINE
  5
89
100
AcDbEntity
  8
1
  6
CONTINUOUS
 62
             7
100
AcDbLine
 10
533.80000000000052
 20
-800.50728251296573
 11
533.80000000000052
 21
-800.53017507987965
  0
LINE
  5
88
100
AcDbEntity
  8
1
  6
CONTINUOUS
 62
             7
100
AcDbLine
 10
486.99969541351038
 20
-728.52473226131701
 11
498.53489949670347
 21
-728.92755046414641
  0
LINE
  5
87
100
AcDbEntity
  8
1
  6
CONTINUOUS
 62
             7
100
AcDbLine
 10
499.5000000000008
 20
-808.50728251296573
 11
499.5000000000008
 21
-808.52745238614261
  0
LINE
  5
86
100
AcDbEntity
  8
1
  6
CONTINUOUS
 62
             7
100
AcDbLine
 10
499.5000000000008
 20
-810.05331250957306
 11
499.46938291481842
 21
-810.05438168174715
  0
LINE
  5
85
100
AcDbEntity
  8
1
  6
CONTINUOUS
 62
             7
100
AcDbLine
 10
499.5000000000008
 20
-810.05331250957306
 11
499.5000000000008
 21
-810.0162461558516
  0
LINE
  5
84
100
AcDbEntity
  8
1
  6
CONTINUOUS
 62
             7
100
AcDbLine
 10
498.53489949670347
 20
-810.08701456178505
 11
486.99969541351038
 21
-810.48983276461445
  0
LINE
  5
83
100
AcDbEntity
  8
1
  6
CONTINUOUS
 62
             7
100
AcDbLine
 10
486.5000000000008
 20
-729.00728251296573
 11
486.5000000000008
 21
-730.50728251296596
  0
LINE
  5
82
100
AcDbEntity
  8
1
  6
CONTINUOUS
 62
             7
100
AcDbLine
 10
450.99999999999989
 20
-791.50728251296573
 11
449.39999999999992
 21
-791.50728251296573
  0
LINE
  5
81
100
AcDbEntity
  8
1
  6
CONTINUOUS
 62
             7
100
AcDbLine
 10
450.99999999999989
 20
-747.50728251296573
 11
449.39999999999992
 21
-747.50728251296573
  0
LINE
  5
80
100
AcDbEntity
  8
1
  6
CONTINUOUS
 62
             7
100
AcDbLine
 10
449.39999999999992
 20
-791.50728251296573
 11
449.39999999999992
 21
-747.50728251296573
  0
LINE
  5
7F
100
AcDbEntity
  8
1
  6
CONTINUOUS
 62
             7
100
AcDbLine
 10
450.99999999999989
 20
-747.50728251296573
 11
450.99999999999989
 21
-791.50728251296573
  0
LINE
  5
7E
100
AcDbEntity
  8
1
  6
CONTINUOUS
 62
             7
100
AcDbLine
 10
499.5000000000008
 20
-730.04911692595692
 11
499.5000000000008
 21
-808.96544809997431
  0
LINE
  5
7D
100
AcDbEntity
  8
1
  6
CONTINUOUS
 62
             7
100
AcDbLine
 10
533.80000000000075
 20
-738.08979954199185
 11
533.80000000000052
 21
-800.92683232855416
  0
LINE
  5
7C
100
AcDbEntity
  8
1
  6
CONTINUOUS
 62
             7
100
AcDbLine
 10
476.34358240031122
 20
-830.14374680386618
 11
475.65204050374803
 21
-849.94691570959731
  0
LINE
  5
7B
100
AcDbEntity
  8
1
  6
CONTINUOUS
 62
             7
100
AcDbLine
 10
470.3472374381966
 20
-829.93434982365113
 11
469.65569554163341
 21
-849.73751872938237
  0
LINE
  5
7A
100
AcDbEntity
  8
1
  6
CONTINUOUS
 62
             7
100
AcDbLine
 10
468.70696109317907
 20
-876.90571869354835
 11
469.89760002188831
 21
-876.94729672112578
  0
LINE
  5
79
100
AcDbEntity
  8
1
  6
CONTINUOUS
 62
             7
100
AcDbLine
 10
472.20482898774588
 20
-877.0278669320071
 11
472.12777984591702
 21
-879.23426567264903
  0
LINE
  5
78
100
AcDbEntity
  8
1
  6
CONTINUOUS
 62
             7
100
AcDbLine
 10
472.20482898774588
 20
-877.0278669320071
 11
472.83058940099932
 21
-877.0497189671554
  0
LINE
  5
77
100
AcDbEntity
  8
1
  6
CONTINUOUS
 62
             7
100
AcDbLine
 10
468.28657501507013
 20
-931.92456342465243
 11
471.28474749612741
 21
-932.0292619147599
  0
LINE
  5
76
100
AcDbEntity
  8
1
  6
CONTINUOUS
 62
             7
100
AcDbLine
 10
470.76125504558991
 20
-947.02012432004631
 11
467.76308256453262
 21
-946.91542582993884
  0
LINE
  5
75
100
AcDbEntity
  8
1
  6
CONTINUOUS
 62
             7
100
AcDbLine
 10
467.76308256453262
 20
-946.91542582993884
 11
468.28657501507013
 21
-931.92456342465243
  0
LINE
  5
74
100
AcDbEntity
  8
1
  6
CONTINUOUS
 62
             7
100
AcDbLine
 10
471.28474749612741
 20
-932.0292619147599
 11
470.76125504558991
 21
-947.02012432004631
  0
LINE
  5
73
100
AcDbEntity
  8
1
  6
CONTINUOUS
 62
             7
100
AcDbLine
 10
470.75427514624943
 20
-947.22000248545021
 11
470.76125504558991
 21
-947.02012432004631
  0
LINE
  5
72
100
AcDbEntity
  8
1
  6
CONTINUOUS
 62
             7
100
AcDbLine
 10
467.7561026651922
 20
-947.11530399534274
 11
467.76308256453262
 21
-946.91542582993884
  0
LINE
  5
71
100
AcDbEntity
  8
1
  6
CONTINUOUS
 62
             7
100
AcDbLine
 10
480.60020493628912
 20
-946.70399917017744
 11
480.57237031609702
 21
-946.50594555642908
  0
LINE
  5
70
100
AcDbEntity
  8
1
  6
CONTINUOUS
 62
             7
100
AcDbLine
 10
483.57100914251379
 20
-946.28647986729732
 11
483.54317452232169
 21
-946.08842625354896
  0
LINE
  5
6F
100
AcDbEntity
  8
1
  6
CONTINUOUS
 62
             7
100
AcDbLine
 10
481.45557800792068
 20
-931.23440522242549
 11
483.54317452232169
 21
-946.08842625354896
  0
LINE
  5
6E
100
AcDbEntity
  8
1
  6
CONTINUOUS
 62
             7
100
AcDbLine
 10
480.57237031609702
 20
-946.50594555642908
 11
478.48477380169601
 21
-931.6519245253055
  0
LINE
  5
6D
100
AcDbEntity
  8
1
  6
CONTINUOUS
 62
             7
100
AcDbLine
 10
483.54317452232169
 20
-946.08842625354896
 11
480.57237031609702
 21
-946.50594555642908
  0
LINE
  5
6C
100
AcDbEntity
  8
1
  6
CONTINUOUS
 62
             7
100
AcDbLine
 10
478.48477380169601
 20
-931.6519245253055
 11
481.45557800792068
 21
-931.23440522242549
  0
LINE
  5
6B
100
AcDbEntity
  8
1
  6
CONTINUOUS
 62
             7
100
AcDbLine
 10
488.48069578549217
 20
-929.61252898867349
 11
491.33386533437761
 21
-928.68547800554859
  0
LINE
  5
6A
100
AcDbEntity
  8
1
  6
CONTINUOUS
 62
             7
100
AcDbLine
 10
495.96912025000182
 20
-942.95132574997592
 11
493.11595070111628
 21
-943.87837673310071
  0
LINE
  5
69
100
AcDbEntity
  8
1
  6
CONTINUOUS
 62
             7
100
AcDbLine
 10
493.11595070111628
 20
-943.87837673310071
 11
488.48069578549217
 21
-929.61252898867349
  0
LINE
  5
68
100
AcDbEntity
  8
1
  6
CONTINUOUS
 62
             7
100
AcDbLine
 10
491.33386533437761
 20
-928.68547800554859
 11
495.96912025000182
 21
-942.95132574997592
  0
LINE
  5
67
100
AcDbEntity
  8
1
  6
CONTINUOUS
 62
             7
100
AcDbLine
 10
496.03092364887692
 20
-943.14153705323508
 11
495.96912025000182
 21
-942.95132574997592
  0
LINE
  5
66
100
AcDbEntity
  8
1
  6
CONTINUOUS
 62
             7
100
AcDbLine
 10
493.17775409999138
 20
-944.06858803635987
 11
493.11595070111628
 21
-943.87837673310071
  0
LINE
  5
65
100
AcDbEntity
  8
1
  6
CONTINUOUS
 62
             7
100
AcDbLine
 10
471.58740473165301
 20
-877.03986703299552
 11
471.12838901889791
 21
-879.19936617594658
  0
LINE
  5
64
100
AcDbEntity
  8
1
  6
CONTINUOUS
 62
             7
100
AcDbLine
 10
455.03570883477857
 20
-945.29000522287311
 11
455.07729117294218
 21
-945.09437570272632
  0
LINE
  5
63
100
AcDbEntity
  8
1
  6
CONTINUOUS
 62
             7
100
AcDbLine
 10
457.97015163698012
 20
-945.91374029532631
 11
458.01173397514361
 21
-945.71811077517953
  0
LINE
  5
62
100
AcDbEntity
  8
1
  6
CONTINUOUS
 62
             7
100
AcDbLine
 10
461.13040933741007
 20
-931.04589676417243
 11
458.01173397514361
 21
-945.71811077517953
  0
LINE
  5
61
100
AcDbEntity
  8
1
  6
CONTINUOUS
 62
             7
100
AcDbLine
 10
455.07729117294218
 20
-945.09437570272632
 11
458.19596653520858
 21
-930.42216169171934
  0
LINE
  5
60
100
AcDbEntity
  8
1
  6
CONTINUOUS
 62
             7
100
AcDbLine
 10
458.01173397514361
 20
-945.71811077517953
 11
455.07729117294218
 21
-945.09437570272632
  0
LINE
  5
5F
100
AcDbEntity
  8
1
  6
CONTINUOUS
 62
             7
100
AcDbLine
 10
458.19596653520858
 20
-930.42216169171934
 11
461.13040933741007
 21
-931.04589676417243
  0
LINE
  5
5E
100
AcDbEntity
  8
1
  6
CONTINUOUS
 62
             7
100
AcDbLine
 10
448.51954639467772
 20
-927.1903690429092
 11
451.30109795837808
 21
-928.314188823157
  0
LINE
  5
5D
100
AcDbEntity
  8
1
  6
CONTINUOUS
 62
             7
100
AcDbLine
 10
445.68199905713942
 20
-942.22194664165863
 11
442.900447493439
 21
-941.09812686141095
  0
LINE
  5
5C
100
AcDbEntity
  8
1
  6
CONTINUOUS
 62
             7
100
AcDbLine
 10
442.900447493439
 20
-941.09812686141095
 11
448.51954639467772
 21
-927.1903690429092
  0
LINE
  5
5B
100
AcDbEntity
  8
1
  6
CONTINUOUS
 62
             7
100
AcDbLine
 10
445.60707773845621
 20
-942.40738341257202
 11
445.68199905713942
 21
-942.22194664165863
  0
LINE
  5
5A
100
AcDbEntity
  8
1
  6
CONTINUOUS
 62
             7
100
AcDbLine
 10
442.82552617475579
 20
-941.28356363232444
 11
442.900447493439
 21
-941.09812686141095
  0
LINE
  5
59
100
AcDbEntity
  8
1
  6
CONTINUOUS
 62
             7
100
AcDbLine
 10
469.89760002188831
 20
-876.94729672112578
 11
470.96112952601828
 21
-876.98443598978713
  0
LINE
  5
58
100
AcDbEntity
  8
1
  6
CONTINUOUS
 62
             7
100
AcDbLine
 10
469.89760002188831
 20
-876.94729672112578
 11
449.44673024924452
 21
-927.56497563632513
  0
LINE
  5
57
100
AcDbEntity
  8
1
  6
CONTINUOUS
 62
             7
100
AcDbLine
 10
470.96112952601828
 20
-876.98443598978713
 11
470.15024141816423
 21
-878.99145448512843
  0
LINE
  5
56
100
AcDbEntity
  8
1
  6
CONTINUOUS
 62
             7
100
AcDbLine
 10
470.96112952601828
 20
-876.98443598978713
 11
472.20482898774588
 21
-877.0278669320071
  0
LINE
  5
55
100
AcDbEntity
  8
1
  6
CONTINUOUS
 62
             7
100
AcDbLine
 10
470.15024141816423
 20
-878.99145448512843
 11
459.17411413594238
 21
-930.63007338253692
  0
LINE
  5
54
100
AcDbEntity
  8
1
  6
CONTINUOUS
 62
             7
100
AcDbLine
 10
470.15024141816423
 20
-878.99145448512843
 11
450.37391410381127
 21
-927.93958222974095
  0
LINE
  5
53
100
AcDbEntity
  8
1
  6
CONTINUOUS
 62
             7
100
AcDbLine
 10
471.12838901889791
 20
-879.19936617594658
 11
469.28596584208918
 21
-931.95946292135488
  0
LINE
  5
52
100
AcDbEntity
  8
1
  6
CONTINUOUS
 62
             7
100
AcDbLine
 10
471.12838901889791
 20
-879.19936617594658
 11
460.15226173667628
 21
-930.83798507335473
  0
LINE
  5
51
100
AcDbEntity
  8
1
  6
CONTINUOUS
 62
             7
100
AcDbLine
 10
472.12777984591702
 20
-879.23426567264903
 11
470.2853566691083
 21
-931.99436241805734
  0
LINE
  5
50
100
AcDbEntity
  8
1
  6
CONTINUOUS
 62
             7
100
AcDbLine
 10
472.12777984591702
 20
-879.23426567264903
 11
479.47504187043762
 21
-931.51275142434554
  0
LINE
  5
4F
100
AcDbEntity
  8
1
  6
CONTINUOUS
 62
             7
100
AcDbLine
 10
473.11804791465852
 20
-879.09509257168872
 11
480.46530993917912
 21
-931.37357832338546
  0
LINE
  5
4E
100
AcDbEntity
  8
1
  6
CONTINUOUS
 62
             7
100
AcDbLine
 10
473.11804791465852
 20
-879.09509257168872
 11
489.43175230178718
 21
-929.30351199429856
  0
LINE
  5
4D
100
AcDbEntity
  8
1
  6
CONTINUOUS
 62
             7
100
AcDbLine
 10
473.51266712658429
 20
-877.07353764618608
 11
474.70330605529358
 21
-877.1151156737634
  0
LINE
  5
4C
100
AcDbEntity
  8
1
  6
CONTINUOUS
 62
             7
100
AcDbLine
 10
473.51266712658429
 20
-877.07353764618608
 11
490.38280881808242
 21
-928.99449499992363
  0
LINE
  5
4B
100
AcDbEntity
  8
1
  6
CONTINUOUS
 62
             7
100
AcDbLine
 10
472.83058940099932
 20
-877.0497189671554
 11
473.51266712658429
 21
-877.07353764618608
  0
LINE
  5
4A
100
AcDbEntity
  8
1
  6
CONTINUOUS
 62
             7
100
AcDbLine
 10
472.83058940099932
 20
-877.0497189671554
 11
473.11804791465852
 21
-879.09509257168872
  0
LINE
  5
49
100
AcDbEntity
  8
1
  6
CONTINUOUS
 62
             7
100
AcDbLine
 10
475.55137726320498
 20
-852.82953376206444
 11
474.70330605529358
 21
-877.1151156737634
  0
LINE
  5
48
100
AcDbEntity
  8
1
  6
CONTINUOUS
 62
             7
100
AcDbLine
 10
469.55503230109042
 20
-852.62013678184951
 11
468.70696109317907
 21
-876.90571869354835
  0
LINE
  5
47
100
AcDbEntity
  8
1
  6
CONTINUOUS
 62
             7
100
AcDbLine
 10
482.87293862777437
 20
-809.35895651733972
 11
482.90783812447688
 21
-808.35956569032055
  0
LINE
  5
46
100
AcDbEntity
  8
1
  6
CONTINUOUS
 62
             7
100
AcDbLine
 10
465.28366007223849
 20
-808.74472537537576
 11
465.31855956894088
 21
-807.74533454835671
  0
LINE
  5
45
100
AcDbEntity
  8
1
  6
CONTINUOUS
 62
             7
100
AcDbLine
 10
478.04651439121761
 20
-817.1952904234962
 11
482.29392540604869
 21
-817.34361328448165
  0
LINE
  5
44
100
AcDbEntity
  8
1
  6
CONTINUOUS
 62
             7
100
AcDbLine
 10
478.04651439121761
 20
-817.1952904234962
 11
477.76731841759761
 21
-825.19041703964888
  0
LINE
  5
43
100
AcDbEntity
  8
1
  6
CONTINUOUS
 62
             7
100
AcDbLine
 10
469.5516923615553
 20
-816.89864470152497
 11
478.04651439121761
 21
-817.1952904234962
  0
LINE
  5
42
100
AcDbEntity
  8
1
  6
CONTINUOUS
 62
             7
100
AcDbLine
 10
469.5516923615553
 20
-816.89864470152497
 11
469.27249638793529
 21
-824.89377131767765
  0
LINE
  5
41
100
AcDbEntity
  8
1
  6
CONTINUOUS
 62
             7
100
AcDbLine
 10
482.01472943242868
 20
-825.33873990063444
 11
482.29392540604869
 21
-817.34361328448165
  0
LINE
  5
40
100
AcDbEntity
  8
1
  6
CONTINUOUS
 62
             7
100
AcDbLine
 10
476.2186585469338
 20
-830.13938436677836
 11
470.47216129157391
 21
-829.93871226073907
  0
LINE
  5
3F
100
AcDbEntity
  8
1
  6
CONTINUOUS
 62
             7
100
AcDbLine
 10
467.09644163546602
 20
-826.31869612771357
 11
479.83867467995941
 21
-826.76366471067047
  0
LINE
  5
3E
100
AcDbEntity
  8
1
  6
CONTINUOUS
 62
             7
100
AcDbLine
 10
465.0250853731041
 20
-824.74544845669209
 11
465.30428134672411
 21
-816.75032184053919
  0
LINE
  5
3D
100
AcDbEntity
  8
1
  6
CONTINUOUS
 62
             7
100
AcDbLine
 10
465.30428134672411
 20
-816.75032184053919
 11
469.5516923615553
 21
-816.89864470152497
  0
LINE
  5
3C
100
AcDbEntity
  8
1
  6
CONTINUOUS
 62
             7
100
AcDbLine
 10
479.90014682860851
 20
-814.25819206166807
 11
478.90075600158951
 21
-814.22329256496573
  0
LINE
  5
3B
100
AcDbEntity
  8
1
  6
CONTINUOUS
 62
             7
100
AcDbLine
 10
479.90014682860851
 20
-814.25819206166807
 11
479.79544833850099
 21
-817.25636454272558
  0
LINE
  5
3A
100
AcDbEntity
  8
1
  6
CONTINUOUS
 62
             7
100
AcDbLine
 10
478.90075600158951
 20
-814.22329256496573
 11
478.15121288132508
 21
-814.19711794243892
  0
LINE
  5
39
100
AcDbEntity
  8
1
  6
CONTINUOUS
 62
             7
100
AcDbLine
 10
478.90075600158951
 20
-814.22329256496573
 11
478.79605751148199
 21
-817.22146504602301
  0
LINE
  5
38
100
AcDbEntity
  8
1
  6
CONTINUOUS
 62
             7
100
AcDbLine
 10
467.90745690437927
 20
-813.83939810123832
 11
465.40897983683158
 21
-813.7521493594819
  0
LINE
  5
37
100
AcDbEntity
  8
1
  6
CONTINUOUS
 62
             7
100
AcDbLine
 10
467.90745690437927
 20
-813.83939810123832
 11
467.80275841427192
 21
-816.8375705822956
  0
LINE
  5
36
100
AcDbEntity
  8
1
  6
CONTINUOUS
 62
             7
100
AcDbLine
 10
468.9068477313985
 20
-813.87429759794077
 11
467.90745690437927
 21
-813.83939810123832
  0
LINE
  5
35
100
AcDbEntity
  8
1
  6
CONTINUOUS
 62
             7
100
AcDbLine
 10
468.9068477313985
 20
-813.87429759794077
 11
468.80214924129098
 21
-816.87247007899805
  0
LINE
  5
34
100
AcDbEntity
  8
1
  6
CONTINUOUS
 62
             7
100
AcDbLine
 10
478.32571036483762
 20
-809.20016380734342
 11
482.57312137966881
 21
-809.34848666832897
  0
LINE
  5
33
100
AcDbEntity
  8
1
  6
CONTINUOUS
 62
             7
100
AcDbLine
 10
478.15121288132508
 20
-814.19711794243892
 11
469.65639085166282
 21
-813.90047222046758
  0
LINE
  5
32
100
AcDbEntity
  8
1
  6
CONTINUOUS
 62
             7
100
AcDbLine
 10
478.32571036483762
 20
-809.20016380734342
 11
478.15121288132508
 21
-814.19711794243892
  0
LINE
  5
31
100
AcDbEntity
  8
1
  6
CONTINUOUS
 62
             7
100
AcDbLine
 10
469.65639085166282
 20
-813.90047222046758
 11
468.9068477313985
 21
-813.87429759794077
  0
LINE
  5
30
100
AcDbEntity
  8
1
  6
CONTINUOUS
 62
             7
100
AcDbLine
 10
469.83088833517542
 20
-808.90351808537218
 11
478.32571036483762
 21
-809.20016380734342
  0
LINE
  5
2F
100
AcDbEntity
  8
1
  6
CONTINUOUS
 62
             7
100
AcDbLine
 10
469.65639085166282
 20
-813.90047222046758
 11
469.83088833517542
 21
-808.90351808537218
  0
LINE
  5
2E
100
AcDbEntity
  8
1
  6
CONTINUOUS
 62
             7
100
AcDbLine
 10
482.39862389615632
 20
-814.34544080342448
 11
479.90014682860851
 21
-814.25819206166807
  0
LINE
  5
2D
100
AcDbEntity
  8
1
  6
CONTINUOUS
 62
             7
100
AcDbLine
 10
482.57312137966881
 20
-809.34848666832897
 11
482.39862389615632
 21
-814.34544080342448
  0
LINE
  5
2C
100
AcDbEntity
  8
1
  6
CONTINUOUS
 62
             7
100
AcDbLine
 10
465.58347732034412
 20
-808.75519522438651
 11
469.83088833517542
 21
-808.90351808537218
  0
LINE
  5
2B
100
AcDbEntity
  8
1
  6
CONTINUOUS
 62
             7
100
AcDbLine
 10
465.40897983683158
 20
-813.7521493594819
 11
465.58347732034412
 21
-808.75519522438651
  0
LINE
  5
2A
100
AcDbEntity
  8
1
  6
CONTINUOUS
 62
             7
100
AcDbLine
 10
465.31855956894088
 20
-807.74533454835671
 11
482.90783812447688
 21
-808.35956569032055
  0
LINE
  5
29
100
AcDbEntity
  8
1
  6
CONTINUOUS
 62
             7
100
AcDbLine
 10
482.87293862777437
 20
-809.35895651733972
 11
465.28366007223849
 21
-808.74472537537576
  0
LINE
  5
28
100
AcDbEntity
  8
1
  6
CONTINUOUS
 62
             7
100
AcDbLine
 10
451.30109795837808
 20
-928.314188823157
 11
445.68199905713942
 21
-942.22194664165863
  0
ENDSEC
  0
SECTION
  2
OBJECTS
  0
DICTIONARY
  5
19
100
AcDbDictionary
  3
ACAD_GROUP
350
1A
  3
ACAD_MLINESTYLE
350
1B
  0
DICTIONARY
  5
1A
102
{ACAD_REACTORS
330
19
102
}
100
AcDbDictionary
  0
DICTIONARY
  5
1B
102
{ACAD_REACTORS
330
19
102
}
100
AcDbDictionary
  3
STANDARD
350
1C
  0
MLINESTYLE
  5
1C
102
{ACAD_REACTORS
330
1B
102
}
100
AcDbMlineStyle
  2
STANDARD
 70
             0
  3

 62
             0
 51
90.0
 52
90.0
 71
             2
 49
0.5
 62
           256
  6
BYLAYER
 49
-0.5
 62
           256
  6
BYLAYER
  0
ENDSEC
  0
EOF
