  0
SECTION
  2
HEADER
  9
$ACADVER
  1
AC1014
  9
$ACADMAINTVER
 70
             0
  9
$DWGCODEPAGE
  3
ANSI_1252
  9
$INSBASE
 10
0.0
 20
0.0
 30
0.0
  9
$EXTMIN
 10
1.00000000000000E+20
 20
1.00000000000000E+20
 30
1.00000000000000E+20
  9
$EXTMAX
 10
-1.00000000000000E+20
 20
-1.00000000000000E+20
 30
-1.00000000000000E+20
  9
$LIMMIN
 10
0.0
 20
0.0
  9
$LIMMAX
 10
0.0
 20
0.0
  9
$ORTHOMODE
 70
             0
  9
$REGENMODE
 70
             1
  9
$FILLMODE
 70
             1
  9
$QTEXTMODE
 70
             0
  9
$MIRRTEXT
 70
             1
  9
$DRAGMODE
 70
             2
  9
$LTSCALE
 40
1.0
  9
$OSMODE
 70
             0
  9
$ATTMODE
 70
             1
  9
$TEXTSIZE
 40
0.2
  9
$TRACEWID
 40
0.05
  9
$TEXTSTYLE
  7
STANDARD
  9
$CLAYER
  8
0
  9
$CELTYPE
  6
CONTINUOUS
  9
$CECOLOR
 62
           256
  9
$CELTSCALE
 40
1.0
  9
$DELOBJ
 70
             1
  9
$DISPSILH
 70
             0
  9
$DIMSCALE
 40
1.0
  9
$DIMASZ
 40
0.18
  9
$DIMEXO
 40
0.0625
  9
$DIMDLI
 40
0.38
  9
$DIMRND
 40
0.0
  9
$DIMDLE
 40
0.0
  9
$DIMEXE
 40
0.18
  9
$DIMTP
 40
0.0
  9
$DIMTM
 40
0.0
  9
$DIMTXT
 40
0.18
  9
$DIMCEN
 40
0.09
  9
$DIMTSZ
 40
0.0
  9
$DIMTOL
 70
             0
  9
$DIMLIM
 70
             0
  9
$DIMTIH
 70
             1
  9
$DIMTOH
 70
             1
  9
$DIMSE1
 70
             0
  9
$DIMSE2
 70
             0
  9
$DIMTAD
 70
             0
  9
$DIMZIN
 70
             0
  9
$DIMBLK
  1

  9
$DIMASO
 70
             1
  9
$DIMSHO
 70
             1
  9
$DIMPOST
  1

  9
$DIMAPOST
  1

  9
$DIMALT
 70
             0
  9
$DIMALTD
 70
             2
  9
$DIMALTF
 40
25.4
  9
$DIMLFAC
 40
1.0
  9
$DIMTOFL
 70
             0
  9
$DIMTVP
 40
0.0
  9
$DIMTIX
 70
             0
  9
$DIMSOXD
 70
             0
  9
$DIMSAH
 70
             0
  9
$DIMBLK1
  1

  9
$DIMBLK2
  1

  9
$DIMSTYLE
  2
STANDARD
  9
$DIMCLRD
 70
             0
  9
$DIMCLRE
 70
             0
  9
$DIMCLRT
 70
             0
  9
$DIMTFAC
 40
1.0
  9
$DIMGAP
 40
0.09
  9
$DIMJUST
 70
             0
  9
$DIMSD1
 70
             0
  9
$DIMSD2
 70
             0
  9
$DIMTOLJ
 70
             1
  9
$DIMTZIN
 70
             0
  9
$DIMALTZ
 70
             0
  9
$DIMALTTZ
 70
             0
  9
$DIMFIT
 70
             3
  9
$DIMUPT
 70
             0
  9
$DIMUNIT
 70
             2
  9
$DIMDEC
 70
             4
  9
$DIMTDEC
 70
             4
  9
$DIMALTU
 70
             2
  9
$DIMALTTD
 70
             2
  9
$DIMTXSTY
  7
STANDARD
  9
$DIMAUNIT
 70
             0
  9
$LUNITS
 70
             2
  9
$LUPREC
 70
             4
  9
$SKETCHINC
 40
0.1
  9
$FILLETRAD
 40
0.0
  9
$AUNITS
 70
             0
  9
$AUPREC
 70
             0
  9
$MENU
  1
acad
  9
$ELEVATION
 40
0.0
  9
$PELEVATION
 40
0.0
  9
$THICKNESS
 40
0.0
  9
$LIMCHECK
 70
             0
  9
$BLIPMODE
 70
             1
  9
$CHAMFERA
 40
0.0
  9
$CHAMFERB
 40
0.0
  9
$CHAMFERC
 40
0.0
  9
$CHAMFERD
 40
0.0
  9
$SKPOLY
 70
             0
  9
$TDCREATE
 40
0.000000000
  9
$TDUPDATE
 40
0.000000000
  9
$TDINDWG
 40
0.0000000000
  9
$TDUSRTIMER
 40
0.0000000000
  9
$USRTIMER
 70
             1
  9
$ANGBASE
 50
0.0
  9
$ANGDIR
 70
             0
  9
$PDMODE
 70
             0
  9
$PDSIZE
 40
0.0
  9
$PLINEWID
 40
0.0
  9
$COORDS
 70
             0
  9
$SPLFRAME
 70
             0
  9
$SPLINETYPE
 70
             6
  9
$SPLINESEGS
 70
             8
  9
$ATTDIA
 70
             0
  9
$ATTREQ
 70
             1
  9
$HANDLING
 70
             1
  9
$HANDSEED
  5
3F2
  9
$SURFTAB1
 70
             6
  9
$SURFTAB2
 70
             6
  9
$SURFTYPE
 70
             6
  9
$SURFU
 70
             6
  9
$SURFV
 70
             6
  9
$UCSNAME
  2

  9
$UCSORG
 10
0.0
 20
0.0
 30
0.0
  9
$UCSXDIR
 10
1.0
 20
0.0
 30
0.0
  9
$UCSYDIR
 10
0.0
 20
1.0
 30
0.0
  9
$PUCSNAME
  2

  9
$PUCSORG
 10
0.0
 20
0.0
 30
0.0
  9
$PUCSXDIR
 10
1.0
 20
0.0
 30
0.0
  9
$PUCSYDIR
 10
0.0
 20
1.0
 30
0.0
  9
$USERI1
 70
             0
  9
$USERI2
 70
             0
  9
$USERI3
 70
             0
  9
$USERI4
 70
             0
  9
$USERI5
 70
             0
  9
$USERR1
 40
11.6
  9
$USERR2
 40
0.0
  9
$USERR3
 40
0.0
  9
$USERR4
 40
0.0
  9
$USERR5
 40
0.0
  9
$WORLDVIEW
 70
             1
  9
$SHADEDGE
 70
             3
  9
$SHADEDIF
 70
            70
  9
$TILEMODE
 70
             1
  9
$MAXACTVP
 70
            16
  9
$PINSBASE
 10
0.0
 20
0.0
 30
0.0
  9
$PLIMCHECK
 70
             0
  9
$PEXTMIN
 10
1.00000000000000E+20
 20
1.00000000000000E+20
 30
1.00000000000000E+20
  9
$PEXTMAX
 10
-1.00000000000000E+20
 20
-1.00000000000000E+20
 30
-1.00000000000000E+20
  9
$PLIMMIN
 10
0.0
 20
0.0
  9
$PLIMMAX
 10
12.0
 20
9.0
  9
$UNITMODE
 70
             0
  9
$VISRETAIN
 70
             0
  9
$PLINEGEN
 70
             1
  9
$PSLTSCALE
 70
             0
  9
$TREEDEPTH
 70
          3020
  9
$PICKSTYLE
 70
             1
  9
$CMLSTYLE
  2
STANDARD
  9
$CMLJUST
 70
             0
  9
$CMLSCALE
 40
1.0
  9
$PROXYGRAPHICS
 70
             0
  9
$MEASUREMENT
 70
             1
  0
ENDSEC
  0
SECTION
  2
CLASSES
  0
CLASS
  1
LWPOLYLINE
  2
AcDbPolyline
  3
"AutoCAD"
 90
        0
280
             0
281
             1
  0
CLASS
  1
IMAGE
  2
AcDbRasterImage
  3
ISM
 90
      127
280
             0
281
             1
  0
CLASS
  1
OLE2FRAME
  2
AcDbOle2Frame
  3
""
 90
        0
280
             0
281
             1
  0
CLASS
  1
HATCH
  2
AcDbHatch
  3
"ACAD_SEDONA"
 90
        0
280
             0
281
             1
  0
CLASS
  1
DICTIONARYVAR
  2
AcDbDictionaryVar
  3
"AutoCAD"
 90
        0
280
             0
281
             0
  0
CLASS
  1
RASTERVARIABLES
  2
AcDbRasterVariables
  3
ISM
 90
        0
280
             0
281
             0
  0
CLASS
  1
IMAGEDEF
  2
AcDbRasterImageDef
  3
ISM
 90
        0
280
             0
281
             0
  0
CLASS
  1
IMAGEDEF_REACTOR
  2
AcDbRasterImageDefReactor
  3
ISM
 90
        1
280
             0
281
             0
  0
CLASS
  1
IDBUFFER
  2
AcDbIdBuffer
  3
"Acad"
 90
        0
280
             0
281
             0
  0
CLASS
  1
SPATIAL_FILTER
  2
AcDbSpatialFilter
  3
"Acad"
 90
        0
280
             0
281
             0
  0
CLASS
  1
XRECORD
  2
AcDbXrecord
  3
"<Built In>"
 90
        0
280
             0
281
             0
  0
CLASS
  1
SORTENTSTABLE
  2
AcDbSortentsTable
  3
"AutoCAD"
 90
        0
280
             0
281
             0
  0
CLASS
  1
LAYER_INDEX
  2
AcDbLayerIndex
  3
"Acad"
 90
        0
280
             0
281
             0
  0
CLASS
  1
SPATIAL_INDEX
  2
AcDbSpatialIndex
  3
"Acad"
 90
        0
280
             0
281
             0
  0
CLASS
  1
OBJECT_PTR
  2
CAseDLPNTableRecord
  3
"ASE-LPNTableRecord"
 90
        1
280
             0
281
             0
  0
CLASS
  1
LAYOUT
  2
AcDbLayout
  3
"AutoCAD 2000"
 90
        1
280
             0
281
             0
  0
CLASS
  1
PLOTSETTINGS
  2
AcDbPlotSettings
  3
"AutoCAD 2000"
 90
        1
280
             0
281
             0
  0
CLASS
  1
ACDBDICTIONARYWDFLT
  2
AcDbDictionaryWithDefault
  3
"AutoCAD 2000"
 90
        1
280
             0
281
             0
  0
CLASS
  1
ACDBPLACEHOLDER
  2
AcDbPlaceHolder
  3
"AutoCAD 2000"
 90
        1
280
             0
281
             0
  0
ENDSEC
  0
SECTION
  2
TABLES
  0
TABLE
  2
VPORT
  5
7
100
AcDbSymbolTable
 70
             1
  0
VPORT
  5
15
100
AcDbSymbolTableRecord
100
AcDbViewportTableRecord
  2
*ACTIVE
 70
             0
 10
0.0
 20
0.0
 11
1.0
 21
1.0
 12
62.00000000000006
 22
0.00000000000001
 13
0.0
 23
0.0
 14
1.0
 24
1.0
 15
0.0
 25
0.0
 16
0.0
 26
0.0
 36
1.0
 17
0.0
 27
0.0
 37
0.0
 40
134.52479108635112
 41
1.60267857142857
 42
50.0
 43
0.0
 44
0.0
 50
0.0
 51
0.0
 71
             0
 72
           100
 73
             1
 74
             1
 75
             0
 76
             0
 77
             0
 78
             0
  0
ENDTAB
  0
TABLE
  2
LTYPE
  5
4
100
AcDbSymbolTable
 70
            10
  0
LTYPE
  5
11
100
AcDbSymbolTableRecord
100
AcDbLinetypeTableRecord
  2
BYBLOCK
 70
            64
  3

 72
            65
 73
             0
 40
0.0
  0
LTYPE
  5
12
100
AcDbSymbolTableRecord
100
AcDbLinetypeTableRecord
  2
BYLAYER
 70
            64
  3

 72
            65
 73
             0
 40
0.0
  0
LTYPE
  5
13
100
AcDbSymbolTableRecord
100
AcDbLinetypeTableRecord
  2
CONTINUOUS
 70
            64
  3
Solid line
 72
            65
 73
             0
 40
0.0
  0
LTYPE
  5
1D
100
AcDbSymbolTableRecord
100
AcDbLinetypeTableRecord
  2
DASHED
 70
            64
  3
Dashed
 72
            65
 73
             2
 40
15.0
 49
12.0
 74
             0
 49
-3.0
 74
             0
  0
LTYPE
  5
1E
100
AcDbSymbolTableRecord
100
AcDbLinetypeTableRecord
  2
DOTTED
 70
            64
  3
Dotted
 72
            65
 73
             2
 40
3.5
 49
0.5
 74
             0
 49
-3.0
 74
             0
  0
LTYPE
  5
1F
100
AcDbSymbolTableRecord
100
AcDbLinetypeTableRecord
  2
DOT_CENTER
 70
            64
  3
Dot_Center
 72
            65
 73
             4
 40
2.0
 49
1.25
 74
             0
 49
-0.25
 74
             0
 49
0.25
 74
             0
 49
-0.25
 74
             0
  0
LTYPE
  5
20
100
AcDbSymbolTableRecord
100
AcDbLinetypeTableRecord
  2
LONG_DASHED
 70
            64
  3
Long_Dashed
 72
            65
 73
             2
 40
2.0
 49
1.5
 74
             0
 49
-0.5
 74
             0
  0
LTYPE
  5
21
100
AcDbSymbolTableRecord
100
AcDbLinetypeTableRecord
  2
DASH_CENTER
 70
            64
  3
Dash_Center
 72
            65
 73
             4
 40
36.0
 49
24.0
 74
             0
 49
-3.0
 74
             0
 49
6.0
 74
             0
 49
-3.0
 74
             0
  0
LTYPE
  5
22
100
AcDbSymbolTableRecord
100
AcDbLinetypeTableRecord
  2
PHANTOM
 70
            64
  3
Phantom
 72
            65
 73
             6
 40
2.5
 49
1.25
 74
             0
 49
-0.25
 74
             0
 49
0.25
 74
             0
 49
-0.25
 74
             0
 49
0.25
 74
             0
 49
-0.25
 74
             0
  0
LTYPE
  5
23
100
AcDbSymbolTableRecord
100
AcDbLinetypeTableRecord
  2
CENTER_DASH_DASH
 70
            64
  3
Center_Dash_Dash
 72
            65
 73
             6
 40
22.0
 49
12.0
 74
             0
 49
-3.0
 74
             0
 49
0.5
 74
             0
 49
-3.0
 74
             0
 49
0.5
 74
             0
 49
-3.0
 74
             0
  0
ENDTAB
  0
TABLE
  2
LAYER
  5
2
100
AcDbSymbolTable
 70
             2
  0
LAYER
  5
14
100
AcDbSymbolTableRecord
100
AcDbLayerTableRecord
  2
0
 70
             0
 62
             7
  6
CONTINUOUS
  0
LAYER
  5
24
100
AcDbSymbolTableRecord
100
AcDbLayerTableRecord
  2
1
 70
             0
 62
             7
  6
CONTINUOUS
  0
ENDTAB
  0
TABLE
  2
STYLE
  5
3
100
AcDbSymbolTable
 70
             1
  0
STYLE
  5
17
100
AcDbSymbolTableRecord
100
AcDbTextStyleTableRecord
  2
STANDARD
 70
             0
 40
0.0
 41
1.0
 50
0.0
 71
             0
 42
0.0
  3
txt
  4

  0
ENDTAB
  0
TABLE
  2
VIEW
  5
5
100
AcDbSymbolTable
 70
             0
  0
ENDTAB
  0
TABLE
  2
UCS
  5
6
100
AcDbSymbolTable
 70
             0
  0
ENDTAB
  0
TABLE
  2
APPID
  5
8
100
AcDbSymbolTable
 70
             1
  0
APPID
  5
16
100
AcDbSymbolTableRecord
100
AcDbRegAppTableRecord
  2
ACAD
 70
             0
  0
ENDTAB
  0
TABLE
  2
DIMSTYLE
  5
9
100
AcDbSymbolTable
 70
             1
  0
DIMSTYLE
105
18
100
AcDbSymbolTableRecord
100
AcDbDimStyleTableRecord
  2
STANDARD
 70
             0
  3

  4

  5

  6

  7

 40
1.0
 41
0.18
 42
0.0625
 43
0.38
 44
0.18
 45
0.0
 46
0.0
 47
0.0
 48
0.0
 71
             0
 72
             0
 73
             1
 74
             1
 75
             0
 76
             0
 77
             0
 78
             0
140
0.18
141
0.09
142
0.0
143
25.4
144
1.0
145
0.0
146
1.0
147
0.09
170
             0
171
             2
172
             0
173
             0
174
             0
175
             0
176
             0
177
             0
178
             0
270
             2
271
             4
272
             4
273
             2
274
             2
275
             0
280
             0
281
             0
282
             0
283
             1
284
             0
285
             0
286
             0
287
             0
288
             0
340
17
  0
ENDTAB
  0
TABLE
  2
BLOCK_RECORD
  5
1
100
AcDbSymbolTable
 70
             0
  0
BLOCK_RECORD
  5
A
100
AcDbSymbolTableRecord
100
AcDbBlockTableRecord
  2
*MODEL_SPACE
  0
BLOCK_RECORD
  5
B
100
AcDbSymbolTableRecord
100
AcDbBlockTableRecord
  2
*PAPER_SPACE
  0
ENDTAB
  0
ENDSEC
  0
SECTION
  2
BLOCKS
  0
BLOCK
  5
D
100
AcDbEntity
  8
0
100
AcDbBlockBegin
  2
*MODEL_SPACE
 70
             0
 10
0.0
 20
0.0
 30
0.0
  3
*MODEL_SPACE
  1

  0
ENDBLK
  5
E
100
AcDbEntity
  8
0
100
AcDbBlockEnd
  0
BLOCK
  5
F
100
AcDbEntity
 67
             1
  8
0
100
AcDbBlockBegin
  2
*PAPER_SPACE
 70
             0
 10
0.0
 20
0.0
 30
0.0
  3
*PAPER_SPACE
  1

  0
ENDBLK
  5
10
100
AcDbEntity
 67
             1
  8
0
100
AcDbBlockEnd
  0
ENDSEC
  0
SECTION
  2
ENTITIES
  0
ARC
  5
3F0
100
AcDbEntity
  8
1
  6
CONTINUOUS
 62
             7
100
AcDbCircle
 10
154.0
 20
-35.24999999999998
 40
1.0
100
AcDbArc
 50
0.0
 51
90.0
  0
ARC
  5
3EF
100
AcDbEntity
  8
1
  6
CONTINUOUS
 62
             7
100
AcDbCircle
 10
154.0
 20
-38.74999999999998
 40
1.0
100
AcDbArc
 50
-90.0
 51
0.0
  0
ARC
  5
3EE
100
AcDbEntity
  8
1
  6
CONTINUOUS
 62
             7
100
AcDbCircle
 10
146.59999999999999
 20
-39.89999999999996
 40
1.20000000000001
100
AcDbArc
 50
-90.0
 51
0.0
  0
ARC
  5
3ED
100
AcDbEntity
  8
1
  6
CONTINUOUS
 62
             7
100
AcDbCircle
 10
123.0
 20
-39.89999999999996
 40
1.1999999999999
100
AcDbArc
 50
180.0
 51
-90.0
  0
ARC
  5
3EC
100
AcDbEntity
  8
1
  6
CONTINUOUS
 62
             7
100
AcDbCircle
 10
154.0
 20
35.24999999999999
 40
1.0
100
AcDbArc
 50
-90.0
 51
0.0
  0
ARC
  5
3EB
100
AcDbEntity
  8
1
  6
CONTINUOUS
 62
             7
100
AcDbCircle
 10
154.0
 20
38.74999999999999
 40
1.0
100
AcDbArc
 50
0.0
 51
90.0
  0
ARC
  5
3EA
100
AcDbEntity
  8
1
  6
CONTINUOUS
 62
             7
100
AcDbCircle
 10
146.59999999999999
 20
39.89999999999999
 40
1.2000000000001
100
AcDbArc
 50
0.0
 51
90.0
  0
ARC
  5
3E9
100
AcDbEntity
  8
1
  6
CONTINUOUS
 62
             7
100
AcDbCircle
 10
123.0
 20
39.89999999999999
 40
1.2
100
AcDbArc
 50
90.0
 51
180.0
  0
ARC
  5
3E8
100
AcDbEntity
  8
1
  6
CONTINUOUS
 62
             7
100
AcDbCircle
 10
35.00000000000001
 20
35.0
 40
1.0
100
AcDbArc
 50
0.0
 51
90.0
  0
ARC
  5
3E7
100
AcDbEntity
  8
1
  6
CONTINUOUS
 62
             7
100
AcDbCircle
 10
-35.0
 20
35.0
 40
1.0
100
AcDbArc
 50
90.0
 51
180.0
  0
ARC
  5
3E6
100
AcDbEntity
  8
1
  6
CONTINUOUS
 62
             7
100
AcDbCircle
 10
-35.0
 20
-35.0
 40
1.0
100
AcDbArc
 50
180.0
 51
-90.0
  0
ARC
  5
3E5
100
AcDbEntity
  8
1
  6
CONTINUOUS
 62
             7
100
AcDbCircle
 10
35.00000000000001
 20
-35.0
 40
1.0
100
AcDbArc
 50
-90.0
 51
0.0
  0
ARC
  5
3E4
100
AcDbEntity
  8
1
  6
CONTINUOUS
 62
             7
100
AcDbCircle
 10
51.5
 20
-34.04181287524541
 40
1.5
100
AcDbArc
 50
180.0
 51
-93.99999999999979
  0
ARC
  5
3E3
100
AcDbEntity
  8
1
  6
CONTINUOUS
 62
             7
100
AcDbCircle
 10
51.5
 20
34.04181287524541
 40
1.5
100
AcDbArc
 50
93.99999999999976
 51
180.0
  0
ARC
  5
3E2
100
AcDbEntity
  8
1
  6
CONTINUOUS
 62
             7
100
AcDbCircle
 10
-26.5
 20
-11.0
 40
2.0
100
AcDbArc
 50
90.0
 51
180.0
  0
ARC
  5
3E1
100
AcDbEntity
  8
1
  6
CONTINUOUS
 62
             7
100
AcDbCircle
 10
26.5
 20
-11.0
 40
2.0
100
AcDbArc
 50
0.0
 51
90.0
  0
ARC
  5
3E0
100
AcDbEntity
  8
1
  6
CONTINUOUS
 62
             7
100
AcDbCircle
 10
26.5
 20
-14.0
 40
2.0
100
AcDbArc
 50
-90.0
 51
0.0
  0
ARC
  5
3DF
100
AcDbEntity
  8
1
  6
CONTINUOUS
 62
             7
100
AcDbCircle
 10
-26.5
 20
-14.0
 40
2.0
100
AcDbArc
 50
180.0
 51
-90.0
  0
ARC
  5
3DE
100
AcDbEntity
  8
1
  6
CONTINUOUS
 62
             7
100
AcDbCircle
 10
29.0
 20
-3.0
 40
2.0
100
AcDbArc
 50
-90.0
 51
0.0
  0
ARC
  5
3DD
100
AcDbEntity
  8
1
  6
CONTINUOUS
 62
             7
100
AcDbCircle
 10
29.0
 20
-9.0
 40
2.0
100
AcDbArc
 50
0.0
 51
90.0
  0
ARC
  5
3DC
100
AcDbEntity
  8
1
  6
CONTINUOUS
 62
             7
100
AcDbCircle
 10
29.0
 20
-26.00000000000001
 40
2.0
100
AcDbArc
 50
-90.0
 51
0.0
  0
ARC
  5
3DB
100
AcDbEntity
  8
1
  6
CONTINUOUS
 62
             7
100
AcDbCircle
 10
-29.0
 20
-26.00000000000001
 40
2.0
100
AcDbArc
 50
180.0
 51
-90.0
  0
ARC
  5
3DA
100
AcDbEntity
  8
1
  6
CONTINUOUS
 62
             7
100
AcDbCircle
 10
-29.0
 20
-9.0
 40
2.0
100
AcDbArc
 50
90.0
 51
180.0
  0
ARC
  5
3D9
100
AcDbEntity
  8
1
  6
CONTINUOUS
 62
             7
100
AcDbCircle
 10
-28.99999999999999
 20
-3.0
 40
2.0
100
AcDbArc
 50
180.0
 51
-90.0
  0
ARC
  5
3D8
100
AcDbEntity
  8
1
  6
CONTINUOUS
 62
             7
100
AcDbCircle
 10
-28.99999999999999
 20
29.0
 40
2.0
100
AcDbArc
 50
90.0
 51
180.0
  0
ARC
  5
3D7
100
AcDbEntity
  8
1
  6
CONTINUOUS
 62
             7
100
AcDbCircle
 10
29.0
 20
29.0
 40
2.0
100
AcDbArc
 50
0.0
 51
90.0
  0
ARC
  5
3D6
100
AcDbEntity
  8
1
  6
CONTINUOUS
 62
             7
100
AcDbCircle
 10
-14.5
 20
26.5
 40
0.5
100
AcDbArc
 50
90.0
 51
180.0
  0
ARC
  5
3D5
100
AcDbEntity
  8
1
  6
CONTINUOUS
 62
             7
100
AcDbCircle
 10
-14.5
 20
15.5
 40
0.5
100
AcDbArc
 50
180.0
 51
-90.0
  0
ARC
  5
3D4
100
AcDbEntity
  8
1
  6
CONTINUOUS
 62
             7
100
AcDbCircle
 10
24.5
 20
15.5
 40
0.5
100
AcDbArc
 50
-90.0
 51
0.0
  0
ARC
  5
3D3
100
AcDbEntity
  8
1
  6
CONTINUOUS
 62
             7
100
AcDbCircle
 10
24.5
 20
26.5
 40
0.5
100
AcDbArc
 50
0.0
 51
90.0
  0
ARC
  5
3D2
100
AcDbEntity
  8
1
  6
CONTINUOUS
 62
             7
100
AcDbCircle
 10
-5.0
 20
12.5
 40
0.5
100
AcDbArc
 50
89.9999999999998
 51
180.0
  0
ARC
  5
3D1
100
AcDbEntity
  8
1
  6
CONTINUOUS
 62
             7
100
AcDbCircle
 10
-5.0
 20
3.5
 40
0.5
100
AcDbArc
 50
180.0
 51
-90.0
  0
ARC
  5
3D0
100
AcDbEntity
  8
1
  6
CONTINUOUS
 62
             7
100
AcDbCircle
 10
24.5
 20
3.5
 40
0.5
100
AcDbArc
 50
-90.0
 51
0.0
  0
ARC
  5
3CF
100
AcDbEntity
  8
1
  6
CONTINUOUS
 62
             7
100
AcDbCircle
 10
24.5
 20
12.5
 40
0.5
100
AcDbArc
 50
0.0
 51
90.0
  0
ARC
  5
3CE
100
AcDbEntity
  8
1
  6
CONTINUOUS
 62
             7
100
AcDbCircle
 10
-18.0
 20
11.49999999999999
 40
0.5
100
AcDbArc
 50
90.0
 51
180.0
  0
ARC
  5
3CD
100
AcDbEntity
  8
1
  6
CONTINUOUS
 62
             7
100
AcDbCircle
 10
-18.0
 20
10.49999999999999
 40
0.5
100
AcDbArc
 50
180.0
 51
-90.0
  0
ARC
  5
3CC
100
AcDbEntity
  8
1
  6
CONTINUOUS
 62
             7
100
AcDbCircle
 10
-14.0
 20
10.49999999999999
 40
0.5
100
AcDbArc
 50
-90.0
 51
0.0
  0
ARC
  5
3CB
100
AcDbEntity
  8
1
  6
CONTINUOUS
 62
             7
100
AcDbCircle
 10
-14.0
 20
11.49999999999999
 40
0.5
100
AcDbArc
 50
0.0
 51
90.0
  0
ARC
  5
3CA
100
AcDbEntity
  8
1
  6
CONTINUOUS
 62
             7
100
AcDbCircle
 10
-14.0
 20
5.49999999999999
 40
0.5
100
AcDbArc
 50
0.0
 51
90.0
  0
ARC
  5
3C9
100
AcDbEntity
  8
1
  6
CONTINUOUS
 62
             7
100
AcDbCircle
 10
-14.0
 20
4.49999999999999
 40
0.5
100
AcDbArc
 50
-90.0
 51
0.0
  0
ARC
  5
3C8
100
AcDbEntity
  8
1
  6
CONTINUOUS
 62
             7
100
AcDbCircle
 10
-18.0
 20
4.49999999999999
 40
0.5
100
AcDbArc
 50
180.0
 51
-90.0
  0
ARC
  5
3C7
100
AcDbEntity
  8
1
  6
CONTINUOUS
 62
             7
100
AcDbCircle
 10
-18.0
 20
5.49999999999999
 40
0.5
100
AcDbArc
 50
90.0
 51
180.0
  0
ARC
  5
3C6
100
AcDbEntity
  8
1
  6
CONTINUOUS
 62
             7
100
AcDbCircle
 10
-22.0
 20
-1.50000000000001
 40
0.5
100
AcDbArc
 50
0.0
 51
90.0
  0
ARC
  5
3C5
100
AcDbEntity
  8
1
  6
CONTINUOUS
 62
             7
100
AcDbCircle
 10
-22.0
 20
-2.50000000000001
 40
0.5
100
AcDbArc
 50
-90.0
 51
0.0
  0
ARC
  5
3C4
100
AcDbEntity
  8
1
  6
CONTINUOUS
 62
             7
100
AcDbCircle
 10
-26.0
 20
-2.50000000000001
 40
0.5
100
AcDbArc
 50
180.0
 51
-90.0
  0
ARC
  5
3C3
100
AcDbEntity
  8
1
  6
CONTINUOUS
 62
             7
100
AcDbCircle
 10
-26.0
 20
-1.50000000000001
 40
0.5
100
AcDbArc
 50
90.0
 51
180.0
  0
ARC
  5
3C2
100
AcDbEntity
  8
1
  6
CONTINUOUS
 62
             7
100
AcDbCircle
 10
-14.0
 20
-1.50000000000001
 40
0.5
100
AcDbArc
 50
0.0
 51
90.0
  0
ARC
  5
3C1
100
AcDbEntity
  8
1
  6
CONTINUOUS
 62
             7
100
AcDbCircle
 10
-14.0
 20
-2.50000000000001
 40
0.5
100
AcDbArc
 50
-90.0
 51
0.0
  0
ARC
  5
3C0
100
AcDbEntity
  8
1
  6
CONTINUOUS
 62
             7
100
AcDbCircle
 10
-18.0
 20
-2.50000000000001
 40
0.5
100
AcDbArc
 50
180.0
 51
-90.0
  0
ARC
  5
3BF
100
AcDbEntity
  8
1
  6
CONTINUOUS
 62
             7
100
AcDbCircle
 10
-18.0
 20
-1.50000000000001
 40
0.5
100
AcDbArc
 50
90.0
 51
180.0
  0
ARC
  5
3BE
100
AcDbEntity
  8
1
  6
CONTINUOUS
 62
             7
100
AcDbCircle
 10
-6.0
 20
-1.50000000000001
 40
0.5
100
AcDbArc
 50
0.0
 51
90.0
  0
ARC
  5
3BD
100
AcDbEntity
  8
1
  6
CONTINUOUS
 62
             7
100
AcDbCircle
 10
-6.0
 20
-2.50000000000001
 40
0.5
100
AcDbArc
 50
-90.0
 51
0.0
  0
ARC
  5
3BC
100
AcDbEntity
  8
1
  6
CONTINUOUS
 62
             7
100
AcDbCircle
 10
-10.0
 20
-2.50000000000001
 40
0.5
100
AcDbArc
 50
180.0
 51
-90.0
  0
ARC
  5
3BB
100
AcDbEntity
  8
1
  6
CONTINUOUS
 62
             7
100
AcDbCircle
 10
-10.0
 20
-1.50000000000001
 40
0.5
100
AcDbArc
 50
90.0
 51
180.0
  0
ARC
  5
3BA
100
AcDbEntity
  8
1
  6
CONTINUOUS
 62
             7
100
AcDbCircle
 10
2.0
 20
-1.50000000000001
 40
0.5
100
AcDbArc
 50
0.0
 51
90.0
  0
ARC
  5
3B9
100
AcDbEntity
  8
1
  6
CONTINUOUS
 62
             7
100
AcDbCircle
 10
2.0
 20
-2.50000000000001
 40
0.5
100
AcDbArc
 50
-90.0
 51
0.0
  0
ARC
  5
3B8
100
AcDbEntity
  8
1
  6
CONTINUOUS
 62
             7
100
AcDbCircle
 10
-2.0
 20
-2.50000000000001
 40
0.5
100
AcDbArc
 50
180.0
 51
-90.0
  0
ARC
  5
3B7
100
AcDbEntity
  8
1
  6
CONTINUOUS
 62
             7
100
AcDbCircle
 10
-2.0
 20
-1.50000000000001
 40
0.5
100
AcDbArc
 50
90.0
 51
180.0
  0
ARC
  5
3B6
100
AcDbEntity
  8
1
  6
CONTINUOUS
 62
             7
100
AcDbCircle
 10
10.0
 20
-1.50000000000001
 40
0.5
100
AcDbArc
 50
0.0
 51
90.0
  0
ARC
  5
3B5
100
AcDbEntity
  8
1
  6
CONTINUOUS
 62
             7
100
AcDbCircle
 10
10.0
 20
-2.50000000000001
 40
0.5
100
AcDbArc
 50
-90.0
 51
0.0
  0
ARC
  5
3B4
100
AcDbEntity
  8
1
  6
CONTINUOUS
 62
             7
100
AcDbCircle
 10
6.0
 20
-2.50000000000001
 40
0.5
100
AcDbArc
 50
180.0
 51
-90.0
  0
ARC
  5
3B3
100
AcDbEntity
  8
1
  6
CONTINUOUS
 62
             7
100
AcDbCircle
 10
6.0
 20
-1.50000000000001
 40
0.5
100
AcDbArc
 50
90.0
 51
180.0
  0
ARC
  5
3B2
100
AcDbEntity
  8
1
  6
CONTINUOUS
 62
             7
100
AcDbCircle
 10
18.0
 20
-1.50000000000001
 40
0.5
100
AcDbArc
 50
0.0
 51
90.0
  0
ARC
  5
3B1
100
AcDbEntity
  8
1
  6
CONTINUOUS
 62
             7
100
AcDbCircle
 10
18.0
 20
-2.50000000000001
 40
0.5
100
AcDbArc
 50
-90.0
 51
0.0
  0
ARC
  5
3B0
100
AcDbEntity
  8
1
  6
CONTINUOUS
 62
             7
100
AcDbCircle
 10
14.0
 20
-2.50000000000001
 40
0.5
100
AcDbArc
 50
180.0
 51
-90.0
  0
ARC
  5
3AF
100
AcDbEntity
  8
1
  6
CONTINUOUS
 62
             7
100
AcDbCircle
 10
14.0
 20
-1.50000000000001
 40
0.5
100
AcDbArc
 50
90.0
 51
180.0
  0
ARC
  5
3AE
100
AcDbEntity
  8
1
  6
CONTINUOUS
 62
             7
100
AcDbCircle
 10
26.0
 20
-1.50000000000001
 40
0.5
100
AcDbArc
 50
0.0
 51
90.0
  0
ARC
  5
3AD
100
AcDbEntity
  8
1
  6
CONTINUOUS
 62
             7
100
AcDbCircle
 10
26.0
 20
-2.50000000000001
 40
0.5
100
AcDbArc
 50
-90.0
 51
0.0
  0
ARC
  5
3AC
100
AcDbEntity
  8
1
  6
CONTINUOUS
 62
             7
100
AcDbCircle
 10
22.0
 20
-2.50000000000001
 40
0.5
100
AcDbArc
 50
180.0
 51
-90.0
  0
ARC
  5
3AB
100
AcDbEntity
  8
1
  6
CONTINUOUS
 62
             7
100
AcDbCircle
 10
22.0
 20
-1.50000000000001
 40
0.5
100
AcDbArc
 50
90.0
 51
180.0
  0
ARC
  5
3AA
100
AcDbEntity
  8
1
  6
CONTINUOUS
 62
             7
100
AcDbCircle
 10
-26.5
 20
-24.0
 40
2.0
100
AcDbArc
 50
180.0
 51
-90.0
  0
ARC
  5
3A9
100
AcDbEntity
  8
1
  6
CONTINUOUS
 62
             7
100
AcDbCircle
 10
26.5
 20
-24.0
 40
2.00000000000001
100
AcDbArc
 50
-90.0
 51
0.0
  0
ARC
  5
3A8
100
AcDbEntity
  8
1
  6
CONTINUOUS
 62
             7
100
AcDbCircle
 10
26.5
 20
-21.0
 40
2.0
100
AcDbArc
 50
0.0
 51
90.0
  0
ARC
  5
3A7
100
AcDbEntity
  8
1
  6
CONTINUOUS
 62
             7
100
AcDbCircle
 10
-26.5
 20
-21.0
 40
2.0
100
AcDbArc
 50
90.0
 51
180.0
  0
ARC
  5
3A6
100
AcDbEntity
  8
0
  6
CONTINUOUS
 62
             7
100
AcDbCircle
 10
155.2000000000001
 20
9.888600093633
 40
0.19999999999998
100
AcDbArc
 50
-69.44395478043559
 51
0.0
  0
ARC
  5
3A5
100
AcDbEntity
  8
0
  6
CONTINUOUS
 62
             7
100
AcDbCircle
 10
155.2000000000001
 20
8.11139990636713
 40
0.19999999999999
100
AcDbArc
 50
0.0
 51
69.44395478043559
  0
ARC
  5
3A4
100
AcDbEntity
  8
0
  6
CONTINUOUS
 62
             7
100
AcDbCircle
 10
156.2000000000001
 20
9.888600093633
 40
0.19999999999998
100
AcDbArc
 50
-69.44395478043559
 51
0.0
  0
ARC
  5
3A3
100
AcDbEntity
  8
0
  6
CONTINUOUS
 62
             7
100
AcDbCircle
 10
156.2000000000001
 20
8.11139990636713
 40
0.19999999999999
100
AcDbArc
 50
0.0
 51
69.44395478043559
  0
ARC
  5
3A2
100
AcDbEntity
  8
0
  6
CONTINUOUS
 62
             7
100
AcDbCircle
 10
155.2000000000001
 20
18.88860009363302
 40
0.19999999999999
100
AcDbArc
 50
-69.4439547804363
 51
0.0
  0
ARC
  5
3A1
100
AcDbEntity
  8
0
  6
CONTINUOUS
 62
             7
100
AcDbCircle
 10
155.2000000000001
 20
17.11139990636714
 40
0.19999999999999
100
AcDbArc
 50
0.0
 51
69.44395478043523
  0
ARC
  5
3A0
100
AcDbEntity
  8
0
  6
CONTINUOUS
 62
             7
100
AcDbCircle
 10
156.2000000000001
 20
18.88860009363302
 40
0.19999999999999
100
AcDbArc
 50
-69.4439547804363
 51
0.0
  0
ARC
  5
39F
100
AcDbEntity
  8
0
  6
CONTINUOUS
 62
             7
100
AcDbCircle
 10
156.2000000000001
 20
17.11139990636714
 40
0.19999999999999
100
AcDbArc
 50
0.0
 51
69.44395478043523
  0
ARC
  5
39E
100
AcDbEntity
  8
0
  6
CONTINUOUS
 62
             7
100
AcDbCircle
 10
155.2000000000001
 20
27.88860009363303
 40
0.19999999999998
100
AcDbArc
 50
-69.44395478043523
 51
0.0
  0
ARC
  5
39D
100
AcDbEntity
  8
0
  6
CONTINUOUS
 62
             7
100
AcDbCircle
 10
155.2000000000001
 20
26.11139990636715
 40
0.19999999999999
100
AcDbArc
 50
0.0
 51
69.4439547804363
  0
ARC
  5
39C
100
AcDbEntity
  8
0
  6
CONTINUOUS
 62
             7
100
AcDbCircle
 10
156.2000000000001
 20
27.88860009363303
 40
0.19999999999998
100
AcDbArc
 50
-69.44395478043523
 51
0.0
  0
ARC
  5
39B
100
AcDbEntity
  8
0
  6
CONTINUOUS
 62
             7
100
AcDbCircle
 10
156.2000000000001
 20
26.11139990636715
 40
0.19999999999999
100
AcDbArc
 50
0.0
 51
69.4439547804363
  0
ARC
  5
39A
100
AcDbEntity
  8
0
  6
CONTINUOUS
 62
             7
100
AcDbCircle
 10
155.2000000000001
 20
0.888600093633
 40
0.19999999999998
100
AcDbArc
 50
-69.44395478043559
 51
0.0
  0
ARC
  5
399
100
AcDbEntity
  8
0
  6
CONTINUOUS
 62
             7
100
AcDbCircle
 10
155.2000000000001
 20
-0.88860009363287
 40
0.19999999999999
100
AcDbArc
 50
0.0
 51
69.44395478043559
  0
ARC
  5
398
100
AcDbEntity
  8
0
  6
CONTINUOUS
 62
             7
100
AcDbCircle
 10
156.2000000000001
 20
0.888600093633
 40
0.19999999999998
100
AcDbArc
 50
-69.44395478043559
 51
0.0
  0
ARC
  5
397
100
AcDbEntity
  8
0
  6
CONTINUOUS
 62
             7
100
AcDbCircle
 10
156.2000000000001
 20
-0.88860009363287
 40
0.19999999999999
100
AcDbArc
 50
0.0
 51
69.44395478043559
  0
ARC
  5
396
100
AcDbEntity
  8
0
  6
CONTINUOUS
 62
             7
100
AcDbCircle
 10
155.2000000000001
 20
-8.111399906367
 40
0.19999999999998
100
AcDbArc
 50
-69.44395478043559
 51
0.0
  0
ARC
  5
395
100
AcDbEntity
  8
0
  6
CONTINUOUS
 62
             7
100
AcDbCircle
 10
155.2000000000001
 20
-9.88860009363287
 40
0.19999999999999
100
AcDbArc
 50
0.0
 51
69.44395478043559
  0
ARC
  5
394
100
AcDbEntity
  8
0
  6
CONTINUOUS
 62
             7
100
AcDbCircle
 10
156.2000000000001
 20
-8.111399906367
 40
0.19999999999998
100
AcDbArc
 50
-69.44395478043559
 51
0.0
  0
ARC
  5
393
100
AcDbEntity
  8
0
  6
CONTINUOUS
 62
             7
100
AcDbCircle
 10
156.2000000000001
 20
-9.88860009363287
 40
0.19999999999999
100
AcDbArc
 50
0.0
 51
69.44395478043559
  0
ARC
  5
392
100
AcDbEntity
  8
0
  6
CONTINUOUS
 62
             7
100
AcDbCircle
 10
155.2000000000001
 20
-17.111399906367
 40
0.19999999999998
100
AcDbArc
 50
-69.44395478043523
 51
0.0
  0
ARC
  5
391
100
AcDbEntity
  8
0
  6
CONTINUOUS
 62
             7
100
AcDbCircle
 10
155.2000000000001
 20
-18.88860009363287
 40
0.19999999999999
100
AcDbArc
 50
0.0
 51
69.44395478043523
  0
ARC
  5
390
100
AcDbEntity
  8
0
  6
CONTINUOUS
 62
             7
100
AcDbCircle
 10
156.2000000000001
 20
-17.111399906367
 40
0.19999999999998
100
AcDbArc
 50
-69.44395478043523
 51
0.0
  0
ARC
  5
38F
100
AcDbEntity
  8
0
  6
CONTINUOUS
 62
             7
100
AcDbCircle
 10
156.2000000000001
 20
-18.88860009363287
 40
0.19999999999999
100
AcDbArc
 50
0.0
 51
69.44395478043523
  0
ARC
  5
38E
100
AcDbEntity
  8
0
  6
CONTINUOUS
 62
             7
100
AcDbCircle
 10
155.2000000000001
 20
-26.111399906367
 40
0.19999999999998
100
AcDbArc
 50
-69.44395478043523
 51
0.0
  0
ARC
  5
38D
100
AcDbEntity
  8
0
  6
CONTINUOUS
 62
             7
100
AcDbCircle
 10
155.2000000000001
 20
-27.88860009363287
 40
0.19999999999999
100
AcDbArc
 50
0.0
 51
69.44395478043523
  0
ARC
  5
38C
100
AcDbEntity
  8
0
  6
CONTINUOUS
 62
             7
100
AcDbCircle
 10
156.2000000000001
 20
-26.111399906367
 40
0.19999999999998
100
AcDbArc
 50
-69.44395478043523
 51
0.0
  0
ARC
  5
38B
100
AcDbEntity
  8
0
  6
CONTINUOUS
 62
             7
100
AcDbCircle
 10
156.2000000000001
 20
-27.88860009363287
 40
0.19999999999999
100
AcDbArc
 50
0.0
 51
69.44395478043523
  0
CIRCLE
  5
38A
100
AcDbEntity
  8
1
  6
CONTINUOUS
 62
             7
100
AcDbCircle
 10
22.5
 20
-22.5
 40
2.0
  0
CIRCLE
  5
389
100
AcDbEntity
  8
1
  6
CONTINUOUS
 62
             7
100
AcDbCircle
 10
22.5
 20
-22.5
 40
2.5
  0
CIRCLE
  5
388
100
AcDbEntity
  8
1
  6
CONTINUOUS
 62
             7
100
AcDbCircle
 10
-6.13500000000001
 20
16.82000000000001
 40
0.45
  0
CIRCLE
  5
387
100
AcDbEntity
  8
1
  6
CONTINUOUS
 62
             7
100
AcDbCircle
 10
3.865
 20
16.82000000000001
 40
0.45
  0
CIRCLE
  5
386
100
AcDbEntity
  8
1
  6
CONTINUOUS
 62
             7
100
AcDbCircle
 10
13.865
 20
16.82000000000001
 40
0.45
  0
CIRCLE
  5
385
100
AcDbEntity
  8
1
  6
CONTINUOUS
 62
             7
100
AcDbCircle
 10
23.865
 20
16.82000000000001
 40
0.45
  0
CIRCLE
  5
384
100
AcDbEntity
  8
0
  6
CONTINUOUS
 62
             7
100
AcDbCircle
 10
23.5
 20
4.40000000000001
 40
0.55
  0
CIRCLE
  5
383
100
AcDbEntity
  8
0
  6
CONTINUOUS
 62
             7
100
AcDbCircle
 10
16.0
 20
4.40000000000001
 40
0.55
  0
CIRCLE
  5
382
100
AcDbEntity
  8
0
  6
CONTINUOUS
 62
             7
100
AcDbCircle
 10
8.5
 20
4.40000000000001
 40
0.55
  0
CIRCLE
  5
381
100
AcDbEntity
  8
0
  6
CONTINUOUS
 62
             7
100
AcDbCircle
 10
1.0
 20
4.40000000000001
 40
0.55
  0
ARC
  5
380
100
AcDbEntity
  8
1
  6
CONTINUOUS
 62
             7
100
AcDbCircle
 10
152.40000000000001
 20
-34.09999999999997
 40
0.59999999999999
100
AcDbArc
 50
0.00000000000136
 51
90.0
  0
ARC
  5
37F
100
AcDbEntity
  8
1
  6
CONTINUOUS
 62
             7
100
AcDbCircle
 10
152.40000000000001
 20
34.09999999999997
 40
0.59999999999998
100
AcDbArc
 50
-90.0
 51
0.0
  0
ARC
  5
37E
100
AcDbEntity
  8
1
  6
CONTINUOUS
 62
             7
100
AcDbCircle
 10
-13.8
 20
-12.5
 40
0.3
100
AcDbArc
 50
-90.0
 51
90.0
  0
ARC
  5
37D
100
AcDbEntity
  8
1
  6
CONTINUOUS
 62
             7
100
AcDbCircle
 10
-16.2
 20
-12.5
 40
0.3
100
AcDbArc
 50
90.0
 51
-90.0
  0
ARC
  5
37C
100
AcDbEntity
  8
1
  6
CONTINUOUS
 62
             7
100
AcDbCircle
 10
-16.2
 20
-11.3
 40
0.3
100
AcDbArc
 50
90.0
 51
-90.0
  0
ARC
  5
37B
100
AcDbEntity
  8
1
  6
CONTINUOUS
 62
             7
100
AcDbCircle
 10
-13.8
 20
-11.3
 40
0.29999999999999
100
AcDbArc
 50
-90.0
 51
90.0
  0
ARC
  5
37A
100
AcDbEntity
  8
1
  6
CONTINUOUS
 62
             7
100
AcDbCircle
 10
-16.2
 20
-13.7
 40
0.29999999999999
100
AcDbArc
 50
90.0
 51
-90.0
  0
ARC
  5
379
100
AcDbEntity
  8
1
  6
CONTINUOUS
 62
             7
100
AcDbCircle
 10
-13.8
 20
-13.7
 40
0.3
100
AcDbArc
 50
-90.0
 51
90.0
  0
ARC
  5
378
100
AcDbEntity
  8
1
  6
CONTINUOUS
 62
             7
100
AcDbCircle
 10
26.2
 20
-13.7
 40
0.3
100
AcDbArc
 50
-90.0
 51
90.0
  0
ARC
  5
377
100
AcDbEntity
  8
1
  6
CONTINUOUS
 62
             7
100
AcDbCircle
 10
-1.2
 20
-13.7
 40
0.29999999999999
100
AcDbArc
 50
90.0
 51
-90.0
  0
ARC
  5
376
100
AcDbEntity
  8
1
  6
CONTINUOUS
 62
             7
100
AcDbCircle
 10
26.2
 20
-11.3
 40
0.29999999999999
100
AcDbArc
 50
-90.0
 51
90.0
  0
ARC
  5
375
100
AcDbEntity
  8
1
  6
CONTINUOUS
 62
             7
100
AcDbCircle
 10
-1.2
 20
-11.3
 40
0.3
100
AcDbArc
 50
90.0
 51
-90.0
  0
ARC
  5
374
100
AcDbEntity
  8
1
  6
CONTINUOUS
 62
             7
100
AcDbCircle
 10
-1.2
 20
-12.5
 40
0.3
100
AcDbArc
 50
90.0
 51
-90.0
  0
ARC
  5
373
100
AcDbEntity
  8
1
  6
CONTINUOUS
 62
             7
100
AcDbCircle
 10
26.2
 20
-12.5
 40
0.30000000000001
100
AcDbArc
 50
-90.0
 51
90.0
  0
ARC
  5
372
100
AcDbEntity
  8
1
  6
CONTINUOUS
 62
             7
100
AcDbCircle
 10
6.49999999999999
 20
-22.5
 40
1.0
100
AcDbArc
 50
90.0
 51
-90.0
  0
ARC
  5
371
100
AcDbEntity
  8
1
  6
CONTINUOUS
 62
             7
100
AcDbCircle
 10
8.49999999999999
 20
-22.5
 40
1.0
100
AcDbArc
 50
-90.0
 51
90.0
  0
ARC
  5
370
100
AcDbEntity
  8
1
  6
CONTINUOUS
 62
             7
100
AcDbCircle
 10
8.99999999999999
 20
-22.5
 40
1.5
100
AcDbArc
 50
-90.0
 51
90.0
  0
ARC
  5
36F
100
AcDbEntity
  8
1
  6
CONTINUOUS
 62
             7
100
AcDbCircle
 10
5.99999999999999
 20
-22.5
 40
1.5
100
AcDbArc
 50
90.0
 51
-90.0
  0
ARC
  5
36E
100
AcDbEntity
  8
1
  6
CONTINUOUS
 62
             7
100
AcDbCircle
 10
16.2
 20
-23.7
 40
0.3
100
AcDbArc
 50
-90.0
 51
90.0
  0
ARC
  5
36D
100
AcDbEntity
  8
1
  6
CONTINUOUS
 62
             7
100
AcDbCircle
 10
13.8
 20
-23.7
 40
0.30000000000001
100
AcDbArc
 50
90.0
 51
-90.0
  0
ARC
  5
36C
100
AcDbEntity
  8
1
  6
CONTINUOUS
 62
             7
100
AcDbCircle
 10
16.2
 20
-21.3
 40
0.30000000000001
100
AcDbArc
 50
-90.0
 51
90.0
  0
ARC
  5
36B
100
AcDbEntity
  8
1
  6
CONTINUOUS
 62
             7
100
AcDbCircle
 10
13.8
 20
-21.3
 40
0.3
100
AcDbArc
 50
90.0
 51
-90.0
  0
ARC
  5
36A
100
AcDbEntity
  8
1
  6
CONTINUOUS
 62
             7
100
AcDbCircle
 10
13.8
 20
-22.5
 40
0.3
100
AcDbArc
 50
90.0
 51
-90.0
  0
ARC
  5
369
100
AcDbEntity
  8
1
  6
CONTINUOUS
 62
             7
100
AcDbCircle
 10
16.2
 20
-22.5
 40
0.3
100
AcDbArc
 50
-90.0
 51
90.0
  0
ARC
  5
368
100
AcDbEntity
  8
1
  6
CONTINUOUS
 62
             7
100
AcDbCircle
 10
-26.2
 20
-22.5
 40
0.30000000000001
100
AcDbArc
 50
90.0
 51
-90.0
  0
ARC
  5
367
100
AcDbEntity
  8
1
  6
CONTINUOUS
 62
             7
100
AcDbCircle
 10
1.2
 20
-22.5
 40
0.3
100
AcDbArc
 50
-90.0
 51
90.0
  0
ARC
  5
366
100
AcDbEntity
  8
1
  6
CONTINUOUS
 62
             7
100
AcDbCircle
 10
1.2
 20
-23.7
 40
0.3
100
AcDbArc
 50
-90.0
 51
90.0
  0
ARC
  5
365
100
AcDbEntity
  8
1
  6
CONTINUOUS
 62
             7
100
AcDbCircle
 10
-26.2
 20
-23.7
 40
0.29999999999999
100
AcDbArc
 50
90.0
 51
-90.0
  0
ARC
  5
364
100
AcDbEntity
  8
1
  6
CONTINUOUS
 62
             7
100
AcDbCircle
 10
1.2
 20
-21.3
 40
0.30000000000001
100
AcDbArc
 50
-90.0
 51
90.0
  0
ARC
  5
363
100
AcDbEntity
  8
1
  6
CONTINUOUS
 62
             7
100
AcDbCircle
 10
-26.2
 20
-21.3
 40
0.3
100
AcDbArc
 50
90.0
 51
-90.0
  0
ARC
  5
362
100
AcDbEntity
  8
0
  6
CONTINUOUS
 62
             7
100
AcDbCircle
 10
157.1391201416246
 20
10.75000000000007
 40
0.99999999999991
100
AcDbArc
 50
16.95776330000545
 51
90.0
  0
ARC
  5
361
100
AcDbEntity
  8
0
  6
CONTINUOUS
 62
             7
100
AcDbCircle
 10
151.40000000000009
 20
9.00000000000007
 40
6.99999999999992
100
AcDbArc
 50
-16.95776330000438
 51
16.95776330000429
  0
ARC
  5
360
100
AcDbEntity
  8
0
  6
CONTINUOUS
 62
             7
100
AcDbCircle
 10
157.1391201416246
 20
7.25000000000007
 40
1.0
100
AcDbArc
 50
-90.0
 51
-16.95776330000603
  0
ARC
  5
35F
100
AcDbEntity
  8
0
  6
CONTINUOUS
 62
             7
100
AcDbCircle
 10
157.1391201416246
 20
19.75000000000009
 40
0.9999999999999
100
AcDbArc
 50
16.95776330000486
 51
90.0
  0
ARC
  5
35E
100
AcDbEntity
  8
0
  6
CONTINUOUS
 62
             7
100
AcDbCircle
 10
151.40000000000009
 20
18.00000000000009
 40
6.99999999999992
100
AcDbArc
 50
-16.95776330000444
 51
16.95776330000422
  0
ARC
  5
35D
100
AcDbEntity
  8
0
  6
CONTINUOUS
 62
             7
100
AcDbCircle
 10
157.1391201416246
 20
16.25000000000009
 40
1.0
100
AcDbArc
 50
-90.0
 51
-16.95776330000642
  0
ARC
  5
35C
100
AcDbEntity
  8
0
  6
CONTINUOUS
 62
             7
100
AcDbCircle
 10
157.1391201416246
 20
28.7500000000001
 40
0.99999999999991
100
AcDbArc
 50
16.95776330000545
 51
90.0
  0
ARC
  5
35B
100
AcDbEntity
  8
0
  6
CONTINUOUS
 62
             7
100
AcDbCircle
 10
151.40000000000009
 20
27.0000000000001
 40
6.99999999999992
100
AcDbArc
 50
-16.95776330000436
 51
16.9577633000043
  0
ARC
  5
35A
100
AcDbEntity
  8
0
  6
CONTINUOUS
 62
             7
100
AcDbCircle
 10
157.1391201416246
 20
25.2500000000001
 40
1.0
100
AcDbArc
 50
-90.0
 51
-16.95776330000584
  0
ARC
  5
359
100
AcDbEntity
  8
0
  6
CONTINUOUS
 62
             7
100
AcDbCircle
 10
157.1391201416246
 20
1.75000000000007
 40
0.9999999999999
100
AcDbArc
 50
16.95776330000523
 51
90.0
  0
ARC
  5
358
100
AcDbEntity
  8
0
  6
CONTINUOUS
 62
             7
100
AcDbCircle
 10
151.40000000000009
 20
0.00000000000007
 40
6.99999999999992
100
AcDbArc
 50
-16.95776330000438
 51
16.95776330000427
  0
ARC
  5
357
100
AcDbEntity
  8
0
  6
CONTINUOUS
 62
             7
100
AcDbCircle
 10
157.1391201416246
 20
-1.74999999999993
 40
1.0
100
AcDbArc
 50
-90.0
 51
-16.95776330000601
  0
ARC
  5
356
100
AcDbEntity
  8
0
  6
CONTINUOUS
 62
             7
100
AcDbCircle
 10
157.1391201416246
 20
-7.24999999999993
 40
0.9999999999999
100
AcDbArc
 50
16.95776330000525
 51
90.0
  0
ARC
  5
355
100
AcDbEntity
  8
0
  6
CONTINUOUS
 62
             7
100
AcDbCircle
 10
151.40000000000009
 20
-8.99999999999993
 40
6.99999999999992
100
AcDbArc
 50
-16.95776330000438
 51
16.95776330000427
  0
ARC
  5
354
100
AcDbEntity
  8
0
  6
CONTINUOUS
 62
             7
100
AcDbCircle
 10
157.1391201416246
 20
-10.74999999999993
 40
1.0
100
AcDbArc
 50
-90.0
 51
-16.95776330000594
  0
ARC
  5
353
100
AcDbEntity
  8
0
  6
CONTINUOUS
 62
             7
100
AcDbCircle
 10
157.1391201416246
 20
-16.24999999999993
 40
0.9999999999999
100
AcDbArc
 50
16.95776330000535
 51
90.0
  0
ARC
  5
352
100
AcDbEntity
  8
0
  6
CONTINUOUS
 62
             7
100
AcDbCircle
 10
151.40000000000009
 20
-17.99999999999993
 40
6.99999999999992
100
AcDbArc
 50
-16.95776330000438
 51
16.95776330000429
  0
ARC
  5
351
100
AcDbEntity
  8
0
  6
CONTINUOUS
 62
             7
100
AcDbCircle
 10
157.1391201416246
 20
-19.74999999999993
 40
1.0
100
AcDbArc
 50
-90.0
 51
-16.95776330000603
  0
ARC
  5
350
100
AcDbEntity
  8
0
  6
CONTINUOUS
 62
             7
100
AcDbCircle
 10
157.1391201416246
 20
-25.24999999999993
 40
0.9999999999999
100
AcDbArc
 50
16.95776330000525
 51
90.0
  0
ARC
  5
34F
100
AcDbEntity
  8
0
  6
CONTINUOUS
 62
             7
100
AcDbCircle
 10
151.40000000000009
 20
-26.99999999999993
 40
6.99999999999992
100
AcDbArc
 50
-16.95776330000438
 51
16.95776330000427
  0
ARC
  5
34E
100
AcDbEntity
  8
0
  6
CONTINUOUS
 62
             7
100
AcDbCircle
 10
157.1391201416246
 20
-28.74999999999993
 40
1.0
100
AcDbArc
 50
-90.0
 51
-16.95776330000603
  0
LINE
  5
34D
100
AcDbEntity
  8
1
  6
CONTINUOUS
 62
             7
100
AcDbLine
 10
61.00000000000001
 20
-33.49999999999999
 11
61.00000000000001
 21
-36.49999999999998
  0
LINE
  5
34C
100
AcDbEntity
  8
1
  6
CONTINUOUS
 62
             7
100
AcDbLine
 10
151.90000000000001
 20
-34.09999999999996
 11
151.90000000000001
 21
-33.49999999999999
  0
LINE
  5
34B
100
AcDbEntity
  8
1
  6
CONTINUOUS
 62
             7
100
AcDbLine
 10
152.40000000000001
 20
-35.49999999999998
 11
152.40000000000001
 21
-35.99999999999998
  0
LINE
  5
34A
100
AcDbEntity
  8
1
  6
CONTINUOUS
 62
             7
100
AcDbLine
 10
151.90000000000001
 20
-36.49999999999998
 11
151.90000000000001
 21
-35.99999999999998
  0
LINE
  5
349
100
AcDbEntity
  8
1
  6
CONTINUOUS
 62
             7
100
AcDbLine
 10
152.40000000000001
 20
-35.99999999999998
 11
151.90000000000001
 21
-35.99999999999998
  0
LINE
  5
348
100
AcDbEntity
  8
1
  6
CONTINUOUS
 62
             7
100
AcDbLine
 10
152.40000000000001
 20
-35.99999999999998
 11
152.40000000000001
 21
-37.99999999999998
  0
LINE
  5
347
100
AcDbEntity
  8
1
  6
CONTINUOUS
 62
             7
100
AcDbLine
 10
147.8000000000001
 20
-36.49999999999998
 11
147.8000000000001
 21
-37.99999999999998
  0
LINE
  5
346
100
AcDbEntity
  8
1
  6
CONTINUOUS
 62
             7
100
AcDbLine
 10
147.8000000000001
 20
-36.49999999999998
 11
147.8000000000001
 21
-37.99999999999998
  0
LINE
  5
345
100
AcDbEntity
  8
1
  6
CONTINUOUS
 62
             7
100
AcDbLine
 10
152.40000000000001
 20
-37.99999999999998
 11
147.8000000000001
 21
-37.99999999999998
  0
LINE
  5
344
100
AcDbEntity
  8
1
  6
CONTINUOUS
 62
             7
100
AcDbLine
 10
146.59999999999999
 20
-36.49999999999998
 11
146.59999999999999
 21
-37.99999999999998
  0
LINE
  5
343
100
AcDbEntity
  8
1
  6
CONTINUOUS
 62
             7
100
AcDbLine
 10
133.0
 20
-36.49999999999998
 11
133.0
 21
-37.99999999999998
  0
LINE
  5
342
100
AcDbEntity
  8
1
  6
CONTINUOUS
 62
             7
100
AcDbLine
 10
146.59999999999999
 20
-37.99999999999998
 11
133.0
 21
-37.99999999999998
  0
LINE
  5
341
100
AcDbEntity
  8
1
  6
CONTINUOUS
 62
             7
100
AcDbLine
 10
151.90000000000001
 20
-35.99999999999998
 11
151.90000000000001
 21
-35.49999999999998
  0
LINE
  5
340
100
AcDbEntity
  8
1
  6
CONTINUOUS
 62
             7
100
AcDbLine
 10
152.40000000000001
 20
-34.09999999999997
 11
152.40000000000001
 21
-35.49999999999998
  0
LINE
  5
33F
100
AcDbEntity
  8
1
  6
CONTINUOUS
 62
             7
100
AcDbLine
 10
151.90000000000001
 20
-35.49999999999998
 11
152.40000000000001
 21
-35.49999999999998
  0
LINE
  5
33E
100
AcDbEntity
  8
1
  6
CONTINUOUS
 62
             7
100
AcDbLine
 10
124.2000000000001
 20
-36.49999999999998
 11
133.0
 21
-36.49999999999998
  0
LINE
  5
33D
100
AcDbEntity
  8
1
  6
CONTINUOUS
 62
             7
100
AcDbLine
 10
133.0
 20
-37.99999999999998
 11
133.0
 21
-38.49999999999998
  0
LINE
  5
33C
100
AcDbEntity
  8
1
  6
CONTINUOUS
 62
             7
100
AcDbLine
 10
146.59999999999999
 20
-37.99999999999998
 11
146.59999999999999
 21
-38.49999999999998
  0
LINE
  5
33B
100
AcDbEntity
  8
1
  6
CONTINUOUS
 62
             7
100
AcDbLine
 10
133.0
 20
-38.49999999999998
 11
146.59999999999999
 21
-38.49999999999998
  0
LINE
  5
33A
100
AcDbEntity
  8
1
  6
CONTINUOUS
 62
             7
100
AcDbLine
 10
147.8000000000001
 20
-37.99999999999998
 11
147.8000000000001
 21
-38.49999999999998
  0
LINE
  5
339
100
AcDbEntity
  8
1
  6
CONTINUOUS
 62
             7
100
AcDbLine
 10
147.8000000000001
 20
-37.99999999999998
 11
147.8000000000001
 21
-38.49999999999998
  0
LINE
  5
338
100
AcDbEntity
  8
1
  6
CONTINUOUS
 62
             7
100
AcDbLine
 10
152.40000000000001
 20
-37.99999999999998
 11
152.40000000000001
 21
-38.49999999999998
  0
LINE
  5
337
100
AcDbEntity
  8
1
  6
CONTINUOUS
 62
             7
100
AcDbLine
 10
147.8000000000001
 20
-38.49999999999998
 11
152.40000000000001
 21
-38.49999999999998
  0
LINE
  5
336
100
AcDbEntity
  8
1
  6
CONTINUOUS
 62
             7
100
AcDbLine
 10
153.0
 20
-40.49999999999998
 11
153.0
 21
-39.74999999999998
  0
LINE
  5
335
100
AcDbEntity
  8
1
  6
CONTINUOUS
 62
             7
100
AcDbLine
 10
153.0
 20
-39.74999999999998
 11
154.0
 21
-39.74999999999998
  0
LINE
  5
334
100
AcDbEntity
  8
1
  6
CONTINUOUS
 62
             7
100
AcDbLine
 10
155.0
 20
-38.74999999999998
 11
155.0
 21
-35.24999999999998
  0
LINE
  5
333
100
AcDbEntity
  8
1
  6
CONTINUOUS
 62
             7
100
AcDbLine
 10
153.0
 20
-39.74999999999998
 11
153.0
 21
-34.24999999999999
  0
LINE
  5
332
100
AcDbEntity
  8
1
  6
CONTINUOUS
 62
             7
100
AcDbLine
 10
154.0
 20
-34.24999999999999
 11
153.0
 21
-34.24999999999999
  0
LINE
  5
331
100
AcDbEntity
  8
1
  6
CONTINUOUS
 62
             7
100
AcDbLine
 10
133.0
 20
-36.49999999999998
 11
146.59999999999999
 21
-36.49999999999998
  0
LINE
  5
330
100
AcDbEntity
  8
1
  6
CONTINUOUS
 62
             7
100
AcDbLine
 10
146.59999999999999
 20
-38.49999999999998
 11
146.59999999999999
 21
-39.89999999999996
  0
LINE
  5
32F
100
AcDbEntity
  8
1
  6
CONTINUOUS
 62
             7
100
AcDbLine
 10
146.59999999999999
 20
-36.49999999999998
 11
147.8000000000001
 21
-36.49999999999998
  0
LINE
  5
32E
100
AcDbEntity
  8
1
  6
CONTINUOUS
 62
             7
100
AcDbLine
 10
147.8000000000001
 20
-38.49999999999998
 11
147.8000000000001
 21
-39.89999999999996
  0
LINE
  5
32D
100
AcDbEntity
  8
1
  6
CONTINUOUS
 62
             7
100
AcDbLine
 10
146.59999999999999
 20
-39.89999999999996
 11
123.0
 21
-39.89999999999996
  0
LINE
  5
32C
100
AcDbEntity
  8
1
  6
CONTINUOUS
 62
             7
100
AcDbLine
 10
123.0
 20
-36.49999999999998
 11
124.2000000000001
 21
-36.49999999999998
  0
LINE
  5
32B
100
AcDbEntity
  8
1
  6
CONTINUOUS
 62
             7
100
AcDbLine
 10
123.0
 20
-39.89999999999996
 11
123.0
 21
-36.49999999999998
  0
LINE
  5
32A
100
AcDbEntity
  8
1
  6
CONTINUOUS
 62
             7
100
AcDbLine
 10
147.8000000000001
 20
-36.49999999999998
 11
149.0
 21
-36.49999999999998
  0
LINE
  5
329
100
AcDbEntity
  8
1
  6
CONTINUOUS
 62
             7
100
AcDbLine
 10
147.8000000000001
 20
-38.49999999999998
 11
147.8000000000001
 21
-39.89999999999996
  0
LINE
  5
328
100
AcDbEntity
  8
1
  6
CONTINUOUS
 62
             7
100
AcDbLine
 10
146.59999999999999
 20
-41.09999999999997
 11
123.0
 21
-41.09999999999997
  0
LINE
  5
327
100
AcDbEntity
  8
1
  6
CONTINUOUS
 62
             7
100
AcDbLine
 10
61.00000000000001
 20
-36.49999999999998
 11
123.0
 21
-36.49999999999998
  0
LINE
  5
326
100
AcDbEntity
  8
1
  6
CONTINUOUS
 62
             7
100
AcDbLine
 10
121.8000000000001
 20
-39.89999999999996
 11
121.8000000000001
 21
-36.49999999999998
  0
LINE
  5
325
100
AcDbEntity
  8
1
  6
CONTINUOUS
 62
             7
100
AcDbLine
 10
149.0
 20
-36.49999999999998
 11
151.90000000000001
 21
-36.49999999999998
  0
LINE
  5
324
100
AcDbEntity
  8
1
  6
CONTINUOUS
 62
             7
100
AcDbLine
 10
151.90000000000001
 20
-35.49999999999998
 11
151.90000000000001
 21
-34.09999999999996
  0
LINE
  5
323
100
AcDbEntity
  8
1
  6
CONTINUOUS
 62
             7
100
AcDbLine
 10
151.90000000000001
 20
-34.09999999999996
 11
152.40000000000001
 21
-34.09999999999997
  0
LINE
  5
322
100
AcDbEntity
  8
1
  6
CONTINUOUS
 62
             7
100
AcDbLine
 10
152.40000000000001
 20
-38.49999999999998
 11
152.40000000000001
 21
-40.49999999999998
  0
LINE
  5
321
100
AcDbEntity
  8
1
  6
CONTINUOUS
 62
             7
100
AcDbLine
 10
152.40000000000001
 20
-40.49999999999998
 11
153.0
 21
-40.49999999999998
  0
LINE
  5
320
100
AcDbEntity
  8
1
  6
CONTINUOUS
 62
             7
100
AcDbLine
 10
153.0
 20
-34.24999999999999
 11
153.0
 21
-34.09999999999996
  0
LINE
  5
31F
100
AcDbEntity
  8
1
  6
CONTINUOUS
 62
             7
100
AcDbLine
 10
152.40000000000001
 20
35.99999999999998
 11
152.40000000000001
 21
35.49999999999998
  0
LINE
  5
31E
100
AcDbEntity
  8
1
  6
CONTINUOUS
 62
             7
100
AcDbLine
 10
151.90000000000001
 20
35.99999999999998
 11
151.90000000000001
 21
36.49999999999999
  0
LINE
  5
31D
100
AcDbEntity
  8
1
  6
CONTINUOUS
 62
             7
100
AcDbLine
 10
151.90000000000001
 20
35.99999999999998
 11
152.40000000000001
 21
35.99999999999998
  0
LINE
  5
31C
100
AcDbEntity
  8
1
  6
CONTINUOUS
 62
             7
100
AcDbLine
 10
152.40000000000001
 20
37.99999999999998
 11
152.40000000000001
 21
35.99999999999998
  0
LINE
  5
31B
100
AcDbEntity
  8
1
  6
CONTINUOUS
 62
             7
100
AcDbLine
 10
147.8000000000001
 20
37.99999999999998
 11
147.8000000000001
 21
36.49999999999999
  0
LINE
  5
31A
100
AcDbEntity
  8
1
  6
CONTINUOUS
 62
             7
100
AcDbLine
 10
147.8000000000001
 20
37.99999999999998
 11
147.8000000000001
 21
36.49999999999999
  0
LINE
  5
319
100
AcDbEntity
  8
1
  6
CONTINUOUS
 62
             7
100
AcDbLine
 10
147.8000000000001
 20
37.99999999999998
 11
152.40000000000001
 21
37.99999999999998
  0
LINE
  5
318
100
AcDbEntity
  8
1
  6
CONTINUOUS
 62
             7
100
AcDbLine
 10
146.59999999999999
 20
37.99999999999998
 11
146.59999999999999
 21
36.49999999999999
  0
LINE
  5
317
100
AcDbEntity
  8
1
  6
CONTINUOUS
 62
             7
100
AcDbLine
 10
133.0
 20
37.99999999999999
 11
133.0
 21
36.49999999999999
  0
LINE
  5
316
100
AcDbEntity
  8
1
  6
CONTINUOUS
 62
             7
100
AcDbLine
 10
133.0
 20
37.99999999999999
 11
146.59999999999999
 21
37.99999999999998
  0
LINE
  5
315
100
AcDbEntity
  8
1
  6
CONTINUOUS
 62
             7
100
AcDbLine
 10
151.90000000000001
 20
35.49999999999998
 11
151.90000000000001
 21
35.99999999999998
  0
LINE
  5
314
100
AcDbEntity
  8
1
  6
CONTINUOUS
 62
             7
100
AcDbLine
 10
152.40000000000001
 20
35.49999999999998
 11
152.40000000000001
 21
34.09999999999997
  0
LINE
  5
313
100
AcDbEntity
  8
1
  6
CONTINUOUS
 62
             7
100
AcDbLine
 10
152.40000000000001
 20
35.49999999999998
 11
151.90000000000001
 21
35.49999999999998
  0
LINE
  5
312
100
AcDbEntity
  8
1
  6
CONTINUOUS
 62
             7
100
AcDbLine
 10
133.0
 20
36.49999999999999
 11
124.2000000000001
 21
36.49999999999999
  0
LINE
  5
311
100
AcDbEntity
  8
1
  6
CONTINUOUS
 62
             7
100
AcDbLine
 10
133.0
 20
38.49999999999999
 11
133.0
 21
37.99999999999999
  0
LINE
  5
310
100
AcDbEntity
  8
1
  6
CONTINUOUS
 62
             7
100
AcDbLine
 10
146.59999999999999
 20
38.49999999999998
 11
146.59999999999999
 21
37.99999999999998
  0
LINE
  5
30F
100
AcDbEntity
  8
1
  6
CONTINUOUS
 62
             7
100
AcDbLine
 10
146.59999999999999
 20
38.49999999999998
 11
133.0
 21
38.49999999999999
  0
LINE
  5
30E
100
AcDbEntity
  8
1
  6
CONTINUOUS
 62
             7
100
AcDbLine
 10
147.8000000000001
 20
38.49999999999998
 11
147.8000000000001
 21
37.99999999999998
  0
LINE
  5
30D
100
AcDbEntity
  8
1
  6
CONTINUOUS
 62
             7
100
AcDbLine
 10
147.8000000000001
 20
38.49999999999998
 11
147.8000000000001
 21
37.99999999999998
  0
LINE
  5
30C
100
AcDbEntity
  8
1
  6
CONTINUOUS
 62
             7
100
AcDbLine
 10
152.40000000000001
 20
38.49999999999998
 11
152.40000000000001
 21
37.99999999999998
  0
LINE
  5
30B
100
AcDbEntity
  8
1
  6
CONTINUOUS
 62
             7
100
AcDbLine
 10
152.40000000000001
 20
38.49999999999998
 11
147.8000000000001
 21
38.49999999999998
  0
LINE
  5
30A
100
AcDbEntity
  8
1
  6
CONTINUOUS
 62
             7
100
AcDbLine
 10
153.0
 20
39.74999999999998
 11
153.0
 21
40.49999999999999
  0
LINE
  5
309
100
AcDbEntity
  8
1
  6
CONTINUOUS
 62
             7
100
AcDbLine
 10
154.0
 20
39.74999999999999
 11
153.0
 21
39.74999999999998
  0
LINE
  5
308
100
AcDbEntity
  8
1
  6
CONTINUOUS
 62
             7
100
AcDbLine
 10
155.0
 20
35.24999999999999
 11
155.0
 21
38.74999999999999
  0
LINE
  5
307
100
AcDbEntity
  8
1
  6
CONTINUOUS
 62
             7
100
AcDbLine
 10
153.0
 20
34.24999999999999
 11
153.0
 21
39.74999999999998
  0
LINE
  5
306
100
AcDbEntity
  8
1
  6
CONTINUOUS
 62
             7
100
AcDbLine
 10
153.0
 20
34.24999999999999
 11
154.0
 21
34.24999999999999
  0
LINE
  5
305
100
AcDbEntity
  8
1
  6
CONTINUOUS
 62
             7
100
AcDbLine
 10
146.59999999999999
 20
36.49999999999999
 11
133.0
 21
36.49999999999999
  0
LINE
  5
304
100
AcDbEntity
  8
1
  6
CONTINUOUS
 62
             7
100
AcDbLine
 10
146.59999999999999
 20
39.89999999999999
 11
146.59999999999999
 21
38.49999999999998
  0
LINE
  5
303
100
AcDbEntity
  8
1
  6
CONTINUOUS
 62
             7
100
AcDbLine
 10
147.8000000000001
 20
36.49999999999999
 11
146.59999999999999
 21
36.49999999999999
  0
LINE
  5
302
100
AcDbEntity
  8
1
  6
CONTINUOUS
 62
             7
100
AcDbLine
 10
147.8000000000001
 20
39.89999999999999
 11
147.8000000000001
 21
38.49999999999998
  0
LINE
  5
301
100
AcDbEntity
  8
1
  6
CONTINUOUS
 62
             7
100
AcDbLine
 10
123.0
 20
39.89999999999999
 11
146.59999999999999
 21
39.89999999999999
  0
LINE
  5
300
100
AcDbEntity
  8
1
  6
CONTINUOUS
 62
             7
100
AcDbLine
 10
124.2000000000001
 20
36.49999999999999
 11
123.0
 21
36.49999999999999
  0
LINE
  5
2FF
100
AcDbEntity
  8
1
  6
CONTINUOUS
 62
             7
100
AcDbLine
 10
123.0
 20
36.49999999999999
 11
123.0
 21
39.89999999999999
  0
LINE
  5
2FE
100
AcDbEntity
  8
1
  6
CONTINUOUS
 62
             7
100
AcDbLine
 10
149.0
 20
36.49999999999999
 11
147.8000000000001
 21
36.49999999999999
  0
LINE
  5
2FD
100
AcDbEntity
  8
1
  6
CONTINUOUS
 62
             7
100
AcDbLine
 10
147.8000000000001
 20
39.89999999999999
 11
147.8000000000001
 21
38.49999999999998
  0
LINE
  5
2FC
100
AcDbEntity
  8
1
  6
CONTINUOUS
 62
             7
100
AcDbLine
 10
123.0
 20
41.09999999999999
 11
146.59999999999999
 21
41.09999999999999
  0
LINE
  5
2FB
100
AcDbEntity
  8
1
  6
CONTINUOUS
 62
             7
100
AcDbLine
 10
123.0
 20
36.49999999999999
 11
61.00000000000001
 21
36.49999999999999
  0
LINE
  5
2FA
100
AcDbEntity
  8
1
  6
CONTINUOUS
 62
             7
100
AcDbLine
 10
121.8000000000001
 20
36.49999999999999
 11
121.8000000000001
 21
39.89999999999999
  0
LINE
  5
2F9
100
AcDbEntity
  8
1
  6
CONTINUOUS
 62
             7
100
AcDbLine
 10
61.00000000000001
 20
36.49999999999999
 11
61.00000000000001
 21
33.49999999999999
  0
LINE
  5
2F8
100
AcDbEntity
  8
1
  6
CONTINUOUS
 62
             7
100
AcDbLine
 10
151.90000000000001
 20
36.49999999999999
 11
149.0
 21
36.49999999999999
  0
LINE
  5
2F7
100
AcDbEntity
  8
1
  6
CONTINUOUS
 62
             7
100
AcDbLine
 10
151.90000000000001
 20
34.09999999999997
 11
151.90000000000001
 21
35.49999999999998
  0
LINE
  5
2F6
100
AcDbEntity
  8
1
  6
CONTINUOUS
 62
             7
100
AcDbLine
 10
151.90000000000001
 20
33.49999999999999
 11
151.90000000000001
 21
34.09999999999997
  0
LINE
  5
2F5
100
AcDbEntity
  8
1
  6
CONTINUOUS
 62
             7
100
AcDbLine
 10
152.40000000000001
 20
34.09999999999997
 11
151.90000000000001
 21
34.09999999999997
  0
LINE
  5
2F4
100
AcDbEntity
  8
1
  6
CONTINUOUS
 62
             7
100
AcDbLine
 10
152.40000000000001
 20
40.49999999999999
 11
152.40000000000001
 21
38.49999999999998
  0
LINE
  5
2F3
100
AcDbEntity
  8
1
  6
CONTINUOUS
 62
             7
100
AcDbLine
 10
153.0
 20
40.49999999999999
 11
152.40000000000001
 21
40.49999999999999
  0
LINE
  5
2F2
100
AcDbEntity
  8
1
  6
CONTINUOUS
 62
             7
100
AcDbLine
 10
153.0
 20
34.09999999999997
 11
153.0
 21
34.24999999999999
  0
LINE
  5
2F1
100
AcDbEntity
  8
1
  6
CONTINUOUS
 62
             7
100
AcDbLine
 10
152.40000000000001
 20
33.49999999999999
 11
151.90000000000001
 21
33.49999999999999
  0
LINE
  5
2F0
100
AcDbEntity
  8
1
  6
CONTINUOUS
 62
             7
100
AcDbLine
 10
-34.0
 20
34.0
 11
-34.0
 21
-33.0
  0
LINE
  5
2EF
100
AcDbEntity
  8
1
  6
CONTINUOUS
 62
             7
100
AcDbLine
 10
34.00000000000001
 20
34.0
 11
-34.0
 21
34.0
  0
LINE
  5
2EE
100
AcDbEntity
  8
1
  6
CONTINUOUS
 62
             7
100
AcDbLine
 10
34.00000000000001
 20
-33.0
 11
34.00000000000001
 21
34.0
  0
LINE
  5
2ED
100
AcDbEntity
  8
1
  6
CONTINUOUS
 62
             7
100
AcDbLine
 10
-34.0
 20
-33.0
 11
34.00000000000001
 21
-33.0
  0
LINE
  5
2EC
100
AcDbEntity
  8
1
  6
CONTINUOUS
 62
             7
100
AcDbLine
 10
-36.0
 20
35.0
 11
-36.0
 21
-35.0
  0
LINE
  5
2EB
100
AcDbEntity
  8
1
  6
CONTINUOUS
 62
             7
100
AcDbLine
 10
35.00000000000001
 20
36.0
 11
-35.0
 21
36.0
  0
LINE
  5
2EA
100
AcDbEntity
  8
1
  6
CONTINUOUS
 62
             7
100
AcDbLine
 10
36.00000000000001
 20
-35.0
 11
36.00000000000001
 21
35.0
  0
LINE
  5
2E9
100
AcDbEntity
  8
1
  6
CONTINUOUS
 62
             7
100
AcDbLine
 10
-35.0
 20
-36.0
 11
35.00000000000001
 21
-36.0
  0
LINE
  5
2E8
100
AcDbEntity
  8
1
  6
CONTINUOUS
 62
             7
100
AcDbLine
 10
154.00000000000011
 20
-33.5
 11
154.00000000000011
 21
33.49999999999999
  0
LINE
  5
2E7
100
AcDbEntity
  8
1
  6
CONTINUOUS
 62
             7
100
AcDbLine
 10
154.00000000000011
 20
-33.5
 11
60.0
 21
-33.49999999999999
  0
LINE
  5
2E6
100
AcDbEntity
  8
1
  6
CONTINUOUS
 62
             7
100
AcDbLine
 10
154.00000000000011
 20
33.49999999999999
 11
60.0
 21
33.49999999999999
  0
LINE
  5
2E5
100
AcDbEntity
  8
1
  6
CONTINUOUS
 62
             7
100
AcDbLine
 10
51.39536528938382
 20
-35.53815895063514
 11
58.0
 21
-35.99999999999999
  0
LINE
  5
2E4
100
AcDbEntity
  8
1
  6
CONTINUOUS
 62
             7
100
AcDbLine
 10
50.0
 20
34.04181287524541
 11
50.0
 21
-34.04181287524541
  0
LINE
  5
2E3
100
AcDbEntity
  8
1
  6
CONTINUOUS
 62
             7
100
AcDbLine
 10
58.0
 20
35.99999999999999
 11
51.39536528938382
 21
35.53815895063515
  0
LINE
  5
2E2
100
AcDbEntity
  8
1
  6
CONTINUOUS
 62
             7
100
AcDbLine
 10
92.00000000000006
 20
24.49999999999999
 11
92.00000000000006
 21
26.49999999999999
  0
LINE
  5
2E1
100
AcDbEntity
  8
1
  6
CONTINUOUS
 62
             7
100
AcDbLine
 10
78.00000000000006
 20
24.49999999999999
 11
92.00000000000006
 21
24.49999999999999
  0
LINE
  5
2E0
100
AcDbEntity
  8
1
  6
CONTINUOUS
 62
             7
100
AcDbLine
 10
78.00000000000006
 20
26.49999999999999
 11
78.00000000000006
 21
24.49999999999999
  0
LINE
  5
2DF
100
AcDbEntity
  8
1
  6
CONTINUOUS
 62
             7
100
AcDbLine
 10
92.00000000000006
 20
26.49999999999999
 11
78.00000000000006
 21
26.49999999999999
  0
LINE
  5
2DE
100
AcDbEntity
  8
1
  6
CONTINUOUS
 62
             7
100
AcDbLine
 10
111.0000000000001
 20
24.49999999999999
 11
111.0000000000001
 21
26.49999999999999
  0
LINE
  5
2DD
100
AcDbEntity
  8
1
  6
CONTINUOUS
 62
             7
100
AcDbLine
 10
97.00000000000006
 20
24.49999999999999
 11
111.0000000000001
 21
24.49999999999999
  0
LINE
  5
2DC
100
AcDbEntity
  8
1
  6
CONTINUOUS
 62
             7
100
AcDbLine
 10
97.00000000000006
 20
26.49999999999999
 11
97.00000000000006
 21
24.49999999999999
  0
LINE
  5
2DB
100
AcDbEntity
  8
1
  6
CONTINUOUS
 62
             7
100
AcDbLine
 10
111.0000000000001
 20
26.49999999999999
 11
97.00000000000006
 21
26.49999999999999
  0
LINE
  5
2DA
100
AcDbEntity
  8
1
  6
CONTINUOUS
 62
             7
100
AcDbLine
 10
92.00000000000006
 20
24.49999999999999
 11
92.00000000000006
 21
26.49999999999999
  0
LINE
  5
2D9
100
AcDbEntity
  8
1
  6
CONTINUOUS
 62
             7
100
AcDbLine
 10
78.00000000000006
 20
24.49999999999999
 11
92.00000000000006
 21
24.49999999999999
  0
LINE
  5
2D8
100
AcDbEntity
  8
1
  6
CONTINUOUS
 62
             7
100
AcDbLine
 10
78.00000000000006
 20
26.49999999999999
 11
78.00000000000006
 21
24.49999999999999
  0
LINE
  5
2D7
100
AcDbEntity
  8
1
  6
CONTINUOUS
 62
             7
100
AcDbLine
 10
92.00000000000006
 20
26.49999999999999
 11
78.00000000000006
 21
26.49999999999999
  0
LINE
  5
2D6
100
AcDbEntity
  8
1
  6
CONTINUOUS
 62
             7
100
AcDbLine
 10
130.00000000000011
 20
24.49999999999999
 11
130.00000000000011
 21
26.49999999999999
  0
LINE
  5
2D5
100
AcDbEntity
  8
1
  6
CONTINUOUS
 62
             7
100
AcDbLine
 10
116.0000000000001
 20
24.49999999999999
 11
130.00000000000011
 21
24.49999999999999
  0
LINE
  5
2D4
100
AcDbEntity
  8
1
  6
CONTINUOUS
 62
             7
100
AcDbLine
 10
116.0000000000001
 20
26.49999999999999
 11
116.0000000000001
 21
24.49999999999999
  0
LINE
  5
2D3
100
AcDbEntity
  8
1
  6
CONTINUOUS
 62
             7
100
AcDbLine
 10
130.00000000000011
 20
26.49999999999999
 11
116.0000000000001
 21
26.49999999999999
  0
LINE
  5
2D2
100
AcDbEntity
  8
1
  6
CONTINUOUS
 62
             7
100
AcDbLine
 10
115.33362074210309
 20
-23.5
 11
142.0
 21
-23.5
  0
LINE
  5
2D1
100
AcDbEntity
  8
1
  6
CONTINUOUS
 62
             7
100
AcDbLine
 10
115.33362074210309
 20
-23.5
 11
109.33362074210309
 21
-23.5
  0
LINE
  5
2D0
100
AcDbEntity
  8
1
  6
CONTINUOUS
 62
             7
100
AcDbLine
 10
109.33362074210309
 20
-23.5
 11
115.33362074210309
 21
-23.5
  0
LINE
  5
2CF
100
AcDbEntity
  8
1
  6
CONTINUOUS
 62
             7
100
AcDbLine
 10
130.0
 20
-24.5
 11
116.0
 21
-24.5
  0
LINE
  5
2CE
100
AcDbEntity
  8
1
  6
CONTINUOUS
 62
             7
100
AcDbLine
 10
116.0
 20
-24.5
 11
116.0
 21
-26.5
  0
LINE
  5
2CD
100
AcDbEntity
  8
1
  6
CONTINUOUS
 62
             7
100
AcDbLine
 10
130.0
 20
-26.5
 11
130.0
 21
-24.5
  0
LINE
  5
2CC
100
AcDbEntity
  8
1
  6
CONTINUOUS
 62
             7
100
AcDbLine
 10
116.0
 20
-26.5
 11
130.0
 21
-26.5
  0
LINE
  5
2CB
100
AcDbEntity
  8
1
  6
CONTINUOUS
 62
             7
100
AcDbLine
 10
160.00000000000011
 20
32.99999999999999
 11
160.00000000000011
 21
30.45000000000009
  0
LINE
  5
2CA
100
AcDbEntity
  8
1
  6
CONTINUOUS
 62
             7
100
AcDbLine
 10
160.00000000000011
 20
32.99999999999999
 11
159.50000000000011
 21
33.49999999999999
  0
LINE
  5
2C9
100
AcDbEntity
  8
1
  6
CONTINUOUS
 62
             7
100
AcDbLine
 10
159.50000000000011
 20
-33.5
 11
160.00000000000011
 21
-33.0
  0
LINE
  5
2C8
100
AcDbEntity
  8
1
  6
CONTINUOUS
 62
             7
100
AcDbLine
 10
160.00000000000011
 20
-12.55185906487543
 11
160.00000000000011
 21
-14.59999999999991
  0
LINE
  5
2C7
100
AcDbEntity
  8
1
  6
CONTINUOUS
 62
             7
100
AcDbLine
 10
160.00000000000011
 20
-21.39999999999986
 11
160.00000000000011
 21
-23.54999999999996
  0
LINE
  5
2C6
100
AcDbEntity
  8
1
  6
CONTINUOUS
 62
             7
100
AcDbLine
 10
159.50000000000011
 20
33.49999999999999
 11
154.00000000000011
 21
33.49999999999999
  0
LINE
  5
2C5
100
AcDbEntity
  8
1
  6
CONTINUOUS
 62
             7
100
AcDbLine
 10
60.0
 20
35.99999999999999
 11
60.0
 21
-33.49999999999999
  0
LINE
  5
2C4
100
AcDbEntity
  8
1
  6
CONTINUOUS
 62
             7
100
AcDbLine
 10
58.0
 20
35.99999999999999
 11
60.0
 21
35.99999999999999
  0
LINE
  5
2C3
100
AcDbEntity
  8
1
  6
CONTINUOUS
 62
             7
100
AcDbLine
 10
58.0
 20
-35.99999999999999
 11
58.0
 21
35.99999999999999
  0
LINE
  5
2C2
100
AcDbEntity
  8
1
  6
CONTINUOUS
 62
             7
100
AcDbLine
 10
159.50000000000011
 20
-33.5
 11
154.00000000000011
 21
-33.5
  0
LINE
  5
2C1
100
AcDbEntity
  8
1
  6
CONTINUOUS
 62
             7
100
AcDbLine
 10
160.00000000000011
 20
32.99999999999999
 11
160.00000000000011
 21
30.45000000000009
  0
LINE
  5
2C0
100
AcDbEntity
  8
1
  6
CONTINUOUS
 62
             7
100
AcDbLine
 10
160.00000000000011
 20
23.55000000000008
 11
154.00000000000011
 21
23.55000000000008
  0
LINE
  5
2BF
100
AcDbEntity
  8
1
  6
CONTINUOUS
 62
             7
100
AcDbLine
 10
160.00000000000011
 20
23.55000000000008
 11
160.00000000000011
 21
21.45000000000009
  0
LINE
  5
2BE
100
AcDbEntity
  8
1
  6
CONTINUOUS
 62
             7
100
AcDbLine
 10
154.00000000000011
 20
30.45000000000009
 11
160.00000000000011
 21
30.45000000000009
  0
LINE
  5
2BD
100
AcDbEntity
  8
1
  6
CONTINUOUS
 62
             7
100
AcDbLine
 10
160.00000000000011
 20
14.55000000000007
 11
154.00000000000011
 21
14.55000000000007
  0
LINE
  5
2BC
100
AcDbEntity
  8
1
  6
CONTINUOUS
 62
             7
100
AcDbLine
 10
160.00000000000011
 20
5.55000000000007
 11
154.00000000000011
 21
5.55000000000007
  0
LINE
  5
2BB
100
AcDbEntity
  8
1
  6
CONTINUOUS
 62
             7
100
AcDbLine
 10
154.00000000000011
 20
12.45000000000005
 11
160.00000000000011
 21
12.45000000000005
  0
LINE
  5
2BA
100
AcDbEntity
  8
1
  6
CONTINUOUS
 62
             7
100
AcDbLine
 10
160.00000000000011
 20
-3.44999999999993
 11
154.00000000000011
 21
-3.44999999999993
  0
LINE
  5
2B9
100
AcDbEntity
  8
1
  6
CONTINUOUS
 62
             7
100
AcDbLine
 10
154.00000000000011
 20
3.45000000000005
 11
160.00000000000011
 21
3.45000000000005
  0
LINE
  5
2B8
100
AcDbEntity
  8
1
  6
CONTINUOUS
 62
             7
100
AcDbLine
 10
160.00000000000011
 20
-12.44999999999993
 11
154.00000000000011
 21
-12.44999999999993
  0
LINE
  5
2B7
100
AcDbEntity
  8
1
  6
CONTINUOUS
 62
             7
100
AcDbLine
 10
154.00000000000011
 20
-5.54999999999996
 11
160.00000000000011
 21
-5.54999999999996
  0
LINE
  5
2B6
100
AcDbEntity
  8
1
  6
CONTINUOUS
 62
             7
100
AcDbLine
 10
160.00000000000011
 20
-21.44999999999993
 11
154.00000000000011
 21
-21.44999999999993
  0
LINE
  5
2B5
100
AcDbEntity
  8
1
  6
CONTINUOUS
 62
             7
100
AcDbLine
 10
154.00000000000011
 20
-14.54999999999996
 11
160.00000000000011
 21
-14.54999999999996
  0
LINE
  5
2B4
100
AcDbEntity
  8
1
  6
CONTINUOUS
 62
             7
100
AcDbLine
 10
160.00000000000011
 20
-30.44999999999993
 11
154.00000000000011
 21
-30.44999999999993
  0
LINE
  5
2B3
100
AcDbEntity
  8
1
  6
CONTINUOUS
 62
             7
100
AcDbLine
 10
154.00000000000011
 20
-23.54999999999996
 11
160.00000000000011
 21
-23.54999999999996
  0
LINE
  5
2B2
100
AcDbEntity
  8
1
  6
CONTINUOUS
 62
             7
100
AcDbLine
 10
74.0
 20
23.49999999999999
 11
148.0
 21
23.49999999999999
  0
LINE
  5
2B1
100
AcDbEntity
  8
1
  6
CONTINUOUS
 62
             7
100
AcDbLine
 10
148.0
 20
23.49999999999999
 11
148.0
 21
-23.5
  0
LINE
  5
2B0
100
AcDbEntity
  8
1
  6
CONTINUOUS
 62
             7
100
AcDbLine
 10
160.00000000000011
 20
14.55000000000007
 11
160.00000000000011
 21
12.45000000000005
  0
LINE
  5
2AF
100
AcDbEntity
  8
1
  6
CONTINUOUS
 62
             7
100
AcDbLine
 10
160.00000000000011
 20
5.55000000000007
 11
160.00000000000011
 21
3.45000000000005
  0
LINE
  5
2AE
100
AcDbEntity
  8
1
  6
CONTINUOUS
 62
             7
100
AcDbLine
 10
160.00000000000011
 20
-3.44999999999993
 11
160.00000000000011
 21
-5.54999999999996
  0
LINE
  5
2AD
100
AcDbEntity
  8
1
  6
CONTINUOUS
 62
             7
100
AcDbLine
 10
160.00000000000011
 20
-12.44999999999993
 11
160.00000000000011
 21
-14.59999999999991
  0
LINE
  5
2AC
100
AcDbEntity
  8
1
  6
CONTINUOUS
 62
             7
100
AcDbLine
 10
160.00000000000011
 20
-21.39999999999986
 11
160.00000000000011
 21
-23.54999999999996
  0
LINE
  5
2AB
100
AcDbEntity
  8
1
  6
CONTINUOUS
 62
             7
100
AcDbLine
 10
160.00000000000011
 20
-30.44999999999993
 11
160.00000000000011
 21
-33.0
  0
LINE
  5
2AA
100
AcDbEntity
  8
1
  6
CONTINUOUS
 62
             7
100
AcDbLine
 10
160.00000000000011
 20
-30.44999999999993
 11
160.00000000000011
 21
-33.0
  0
LINE
  5
2A9
100
AcDbEntity
  8
1
  6
CONTINUOUS
 62
             7
100
AcDbLine
 10
160.00000000000011
 20
-30.44999999999993
 11
160.00000000000011
 21
-33.0
  0
LINE
  5
2A8
100
AcDbEntity
  8
1
  6
CONTINUOUS
 62
             7
100
AcDbLine
 10
160.00000000000011
 20
-30.44999999999993
 11
160.00000000000011
 21
-33.0
  0
LINE
  5
2A7
100
AcDbEntity
  8
1
  6
CONTINUOUS
 62
             7
100
AcDbLine
 10
160.00000000000011
 20
-30.44999999999993
 11
160.00000000000011
 21
-33.0
  0
LINE
  5
2A6
100
AcDbEntity
  8
1
  6
CONTINUOUS
 62
             7
100
AcDbLine
 10
154.00000000000011
 20
21.45000000000009
 11
160.00000000000011
 21
21.45000000000009
  0
LINE
  5
2A5
100
AcDbEntity
  8
1
  6
CONTINUOUS
 62
             7
100
AcDbLine
 10
154.00000000000011
 20
-33.5
 11
159.50000000000011
 21
-33.5
  0
LINE
  5
2A4
100
AcDbEntity
  8
1
  6
CONTINUOUS
 62
             7
100
AcDbLine
 10
60.0
 20
-33.49999999999999
 11
60.0
 21
-35.99999999999999
  0
LINE
  5
2A3
100
AcDbEntity
  8
1
  6
CONTINUOUS
 62
             7
100
AcDbLine
 10
60.0
 20
-35.99999999999999
 11
58.0
 21
-35.99999999999999
  0
LINE
  5
2A2
100
AcDbEntity
  8
1
  6
CONTINUOUS
 62
             7
100
AcDbLine
 10
92.00000000000006
 20
-26.49999999999999
 11
92.00000000000006
 21
-24.49999999999999
  0
LINE
  5
2A1
100
AcDbEntity
  8
1
  6
CONTINUOUS
 62
             7
100
AcDbLine
 10
92.00000000000006
 20
-24.49999999999999
 11
78.00000000000006
 21
-24.49999999999999
  0
LINE
  5
2A0
100
AcDbEntity
  8
1
  6
CONTINUOUS
 62
             7
100
AcDbLine
 10
78.00000000000006
 20
-24.49999999999999
 11
78.00000000000006
 21
-26.49999999999999
  0
LINE
  5
29F
100
AcDbEntity
  8
1
  6
CONTINUOUS
 62
             7
100
AcDbLine
 10
78.00000000000006
 20
-26.49999999999999
 11
92.00000000000006
 21
-26.49999999999999
  0
LINE
  5
29E
100
AcDbEntity
  8
1
  6
CONTINUOUS
 62
             7
100
AcDbLine
 10
111.0000000000001
 20
-26.49999999999999
 11
111.0000000000001
 21
-24.49999999999999
  0
LINE
  5
29D
100
AcDbEntity
  8
1
  6
CONTINUOUS
 62
             7
100
AcDbLine
 10
111.0000000000001
 20
-24.49999999999999
 11
97.00000000000006
 21
-24.49999999999999
  0
LINE
  5
29C
100
AcDbEntity
  8
1
  6
CONTINUOUS
 62
             7
100
AcDbLine
 10
97.00000000000006
 20
-24.49999999999999
 11
97.00000000000006
 21
-26.49999999999999
  0
LINE
  5
29B
100
AcDbEntity
  8
1
  6
CONTINUOUS
 62
             7
100
AcDbLine
 10
97.00000000000006
 20
-26.49999999999999
 11
111.0000000000001
 21
-26.49999999999999
  0
LINE
  5
29A
100
AcDbEntity
  8
1
  6
CONTINUOUS
 62
             7
100
AcDbLine
 10
92.00000000000006
 20
-26.49999999999999
 11
92.00000000000006
 21
-24.49999999999999
  0
LINE
  5
299
100
AcDbEntity
  8
1
  6
CONTINUOUS
 62
             7
100
AcDbLine
 10
92.00000000000006
 20
-24.49999999999999
 11
78.00000000000006
 21
-24.49999999999999
  0
LINE
  5
298
100
AcDbEntity
  8
1
  6
CONTINUOUS
 62
             7
100
AcDbLine
 10
78.00000000000006
 20
-24.49999999999999
 11
78.00000000000006
 21
-26.49999999999999
  0
LINE
  5
297
100
AcDbEntity
  8
1
  6
CONTINUOUS
 62
             7
100
AcDbLine
 10
78.00000000000006
 20
-26.49999999999999
 11
92.00000000000006
 21
-26.49999999999999
  0
LINE
  5
296
100
AcDbEntity
  8
1
  6
CONTINUOUS
 62
             7
100
AcDbLine
 10
148.0
 20
-23.5
 11
74.0
 21
-23.5
  0
LINE
  5
295
100
AcDbEntity
  8
1
  6
CONTINUOUS
 62
             7
100
AcDbLine
 10
74.0
 20
23.49999999999999
 11
74.0
 21
-23.5
  0
LINE
  5
294
100
AcDbEntity
  8
1
  6
CONTINUOUS
 62
             7
100
AcDbLine
 10
158.00000000000011
 20
33.49999999999999
 11
158.00000000000011
 21
30.45000000000009
  0
LINE
  5
293
100
AcDbEntity
  8
1
  6
CONTINUOUS
 62
             7
100
AcDbLine
 10
158.00000000000011
 20
23.55000000000008
 11
158.00000000000011
 21
21.45000000000009
  0
LINE
  5
292
100
AcDbEntity
  8
1
  6
CONTINUOUS
 62
             7
100
AcDbLine
 10
158.00000000000011
 20
14.55000000000007
 11
158.00000000000011
 21
12.45000000000005
  0
LINE
  5
291
100
AcDbEntity
  8
1
  6
CONTINUOUS
 62
             7
100
AcDbLine
 10
158.00000000000011
 20
5.55000000000007
 11
158.00000000000011
 21
3.45000000000005
  0
LINE
  5
290
100
AcDbEntity
  8
1
  6
CONTINUOUS
 62
             7
100
AcDbLine
 10
158.00000000000011
 20
-3.44999999999993
 11
158.00000000000011
 21
-5.54999999999996
  0
LINE
  5
28F
100
AcDbEntity
  8
1
  6
CONTINUOUS
 62
             7
100
AcDbLine
 10
158.00000000000011
 20
-12.44999999999993
 11
158.00000000000011
 21
-14.54999999999996
  0
LINE
  5
28E
100
AcDbEntity
  8
1
  6
CONTINUOUS
 62
             7
100
AcDbLine
 10
158.00000000000011
 20
-21.44999999999993
 11
158.00000000000011
 21
-23.54999999999996
  0
LINE
  5
28D
100
AcDbEntity
  8
1
  6
CONTINUOUS
 62
             7
100
AcDbLine
 10
158.00000000000011
 20
-30.44999999999993
 11
158.00000000000011
 21
-33.5
  0
LINE
  5
28C
100
AcDbEntity
  8
1
  6
CONTINUOUS
 62
             7
100
AcDbLine
 10
-26.5
 20
-16.0
 11
26.5
 21
-16.0
  0
LINE
  5
28B
100
AcDbEntity
  8
1
  6
CONTINUOUS
 62
             7
100
AcDbLine
 10
28.5
 20
-14.0
 11
28.5
 21
-11.0
  0
LINE
  5
28A
100
AcDbEntity
  8
1
  6
CONTINUOUS
 62
             7
100
AcDbLine
 10
26.5
 20
-9.0
 11
-26.5
 21
-9.0
  0
LINE
  5
289
100
AcDbEntity
  8
1
  6
CONTINUOUS
 62
             7
100
AcDbLine
 10
-28.5
 20
-11.0
 11
-28.5
 21
-14.0
  0
LINE
  5
288
100
AcDbEntity
  8
1
  6
CONTINUOUS
 62
             7
100
AcDbLine
 10
-22.5
 20
-11.11649281481158
 11
-20.5
 21
-13.5
  0
LINE
  5
287
100
AcDbEntity
  8
1
  6
CONTINUOUS
 62
             7
100
AcDbLine
 10
-20.5
 20
-13.5
 11
-24.5
 21
-13.5
  0
LINE
  5
286
100
AcDbEntity
  8
1
  6
CONTINUOUS
 62
             7
100
AcDbLine
 10
-24.5
 20
-13.5
 11
-22.5
 21
-11.11649281481158
  0
LINE
  5
285
100
AcDbEntity
  8
1
  6
CONTINUOUS
 62
             7
100
AcDbLine
 10
-7.5
 20
-13.88350718518842
 11
-9.5
 21
-11.5
  0
LINE
  5
284
100
AcDbEntity
  8
1
  6
CONTINUOUS
 62
             7
100
AcDbLine
 10
-9.5
 20
-11.5
 11
-5.5
 21
-11.5
  0
LINE
  5
283
100
AcDbEntity
  8
1
  6
CONTINUOUS
 62
             7
100
AcDbLine
 10
-5.5
 20
-11.5
 11
-7.5
 21
-13.88350718518842
  0
LINE
  5
282
100
AcDbEntity
  8
1
  6
CONTINUOUS
 62
             7
100
AcDbLine
 10
-28.99999999999999
 20
-5.0
 11
29.0
 21
-5.0
  0
LINE
  5
281
100
AcDbEntity
  8
1
  6
CONTINUOUS
 62
             7
100
AcDbLine
 10
31.0
 20
-3.0
 11
31.0
 21
29.0
  0
LINE
  5
280
100
AcDbEntity
  8
1
  6
CONTINUOUS
 62
             7
100
AcDbLine
 10
29.0
 20
31.0
 11
-28.99999999999999
 21
31.0
  0
LINE
  5
27F
100
AcDbEntity
  8
1
  6
CONTINUOUS
 62
             7
100
AcDbLine
 10
-30.99999999999999
 20
29.0
 11
-30.99999999999999
 21
-3.0
  0
LINE
  5
27E
100
AcDbEntity
  8
1
  6
CONTINUOUS
 62
             7
100
AcDbLine
 10
-29.0
 20
-28.00000000000001
 11
29.0
 21
-28.00000000000001
  0
LINE
  5
27D
100
AcDbEntity
  8
1
  6
CONTINUOUS
 62
             7
100
AcDbLine
 10
31.0
 20
-26.00000000000001
 11
31.0
 21
-9.0
  0
LINE
  5
27C
100
AcDbEntity
  8
1
  6
CONTINUOUS
 62
             7
100
AcDbLine
 10
29.0
 20
-7.0
 11
-29.0
 21
-7.0
  0
LINE
  5
27B
100
AcDbEntity
  8
1
  6
CONTINUOUS
 62
             7
100
AcDbLine
 10
-31.0
 20
-9.0
 11
-31.0
 21
-26.00000000000001
  0
LINE
  5
27A
100
AcDbEntity
  8
1
  6
CONTINUOUS
 62
             7
100
AcDbLine
 10
-14.5
 20
15.0
 11
24.5
 21
15.0
  0
LINE
  5
279
100
AcDbEntity
  8
1
  6
CONTINUOUS
 62
             7
100
AcDbLine
 10
25.0
 20
15.5
 11
25.0
 21
26.5
  0
LINE
  5
278
100
AcDbEntity
  8
1
  6
CONTINUOUS
 62
             7
100
AcDbLine
 10
24.5
 20
27.0
 11
-14.5
 21
27.0
  0
LINE
  5
277
100
AcDbEntity
  8
1
  6
CONTINUOUS
 62
             7
100
AcDbLine
 10
-15.0
 20
26.5
 11
-15.0
 21
15.5
  0
LINE
  5
276
100
AcDbEntity
  8
1
  6
CONTINUOUS
 62
             7
100
AcDbLine
 10
-5.0
 20
3.0
 11
24.5
 21
3.0
  0
LINE
  5
275
100
AcDbEntity
  8
1
  6
CONTINUOUS
 62
             7
100
AcDbLine
 10
25.0
 20
3.5
 11
25.0
 21
12.5
  0
LINE
  5
274
100
AcDbEntity
  8
1
  6
CONTINUOUS
 62
             7
100
AcDbLine
 10
24.5
 20
13.0
 11
-5.0
 21
13.0
  0
LINE
  5
273
100
AcDbEntity
  8
1
  6
CONTINUOUS
 62
             7
100
AcDbLine
 10
-5.5
 20
12.5
 11
-5.5
 21
3.5
  0
LINE
  5
272
100
AcDbEntity
  8
1
  6
CONTINUOUS
 62
             7
100
AcDbLine
 10
-18.0
 20
9.99999999999999
 11
-14.0
 21
9.99999999999999
  0
LINE
  5
271
100
AcDbEntity
  8
1
  6
CONTINUOUS
 62
             7
100
AcDbLine
 10
-13.5
 20
10.49999999999999
 11
-13.5
 21
11.49999999999999
  0
LINE
  5
270
100
AcDbEntity
  8
1
  6
CONTINUOUS
 62
             7
100
AcDbLine
 10
-14.0
 20
11.99999999999999
 11
-18.0
 21
11.99999999999999
  0
LINE
  5
26F
100
AcDbEntity
  8
1
  6
CONTINUOUS
 62
             7
100
AcDbLine
 10
-18.5
 20
11.49999999999999
 11
-18.5
 21
10.49999999999999
  0
LINE
  5
26E
100
AcDbEntity
  8
1
  6
CONTINUOUS
 62
             7
100
AcDbLine
 10
-18.5
 20
5.49999999999999
 11
-18.5
 21
4.49999999999999
  0
LINE
  5
26D
100
AcDbEntity
  8
1
  6
CONTINUOUS
 62
             7
100
AcDbLine
 10
-14.0
 20
5.99999999999999
 11
-18.0
 21
5.99999999999999
  0
LINE
  5
26C
100
AcDbEntity
  8
1
  6
CONTINUOUS
 62
             7
100
AcDbLine
 10
-13.5
 20
4.49999999999999
 11
-13.5
 21
5.49999999999999
  0
LINE
  5
26B
100
AcDbEntity
  8
1
  6
CONTINUOUS
 62
             7
100
AcDbLine
 10
-18.0
 20
3.99999999999999
 11
-14.0
 21
3.99999999999999
  0
LINE
  5
26A
100
AcDbEntity
  8
1
  6
CONTINUOUS
 62
             7
100
AcDbLine
 10
-26.5
 20
-1.50000000000001
 11
-26.5
 21
-2.50000000000001
  0
LINE
  5
269
100
AcDbEntity
  8
1
  6
CONTINUOUS
 62
             7
100
AcDbLine
 10
-22.0
 20
-1.00000000000001
 11
-26.0
 21
-1.00000000000001
  0
LINE
  5
268
100
AcDbEntity
  8
1
  6
CONTINUOUS
 62
             7
100
AcDbLine
 10
-21.5
 20
-2.50000000000001
 11
-21.5
 21
-1.50000000000001
  0
LINE
  5
267
100
AcDbEntity
  8
1
  6
CONTINUOUS
 62
             7
100
AcDbLine
 10
-26.0
 20
-3.00000000000001
 11
-22.0
 21
-3.00000000000001
  0
LINE
  5
266
100
AcDbEntity
  8
1
  6
CONTINUOUS
 62
             7
100
AcDbLine
 10
-18.5
 20
-1.50000000000001
 11
-18.5
 21
-2.50000000000001
  0
LINE
  5
265
100
AcDbEntity
  8
1
  6
CONTINUOUS
 62
             7
100
AcDbLine
 10
-14.0
 20
-1.00000000000001
 11
-18.0
 21
-1.00000000000001
  0
LINE
  5
264
100
AcDbEntity
  8
1
  6
CONTINUOUS
 62
             7
100
AcDbLine
 10
-13.5
 20
-2.50000000000001
 11
-13.5
 21
-1.50000000000001
  0
LINE
  5
263
100
AcDbEntity
  8
1
  6
CONTINUOUS
 62
             7
100
AcDbLine
 10
-18.0
 20
-3.00000000000001
 11
-14.0
 21
-3.00000000000001
  0
LINE
  5
262
100
AcDbEntity
  8
1
  6
CONTINUOUS
 62
             7
100
AcDbLine
 10
-10.5
 20
-1.50000000000001
 11
-10.5
 21
-2.50000000000001
  0
LINE
  5
261
100
AcDbEntity
  8
1
  6
CONTINUOUS
 62
             7
100
AcDbLine
 10
-6.0
 20
-1.00000000000001
 11
-10.0
 21
-1.00000000000001
  0
LINE
  5
260
100
AcDbEntity
  8
1
  6
CONTINUOUS
 62
             7
100
AcDbLine
 10
-5.5
 20
-2.50000000000001
 11
-5.5
 21
-1.50000000000001
  0
LINE
  5
25F
100
AcDbEntity
  8
1
  6
CONTINUOUS
 62
             7
100
AcDbLine
 10
-10.0
 20
-3.00000000000001
 11
-6.0
 21
-3.00000000000001
  0
LINE
  5
25E
100
AcDbEntity
  8
1
  6
CONTINUOUS
 62
             7
100
AcDbLine
 10
-2.5
 20
-1.50000000000001
 11
-2.5
 21
-2.50000000000001
  0
LINE
  5
25D
100
AcDbEntity
  8
1
  6
CONTINUOUS
 62
             7
100
AcDbLine
 10
2.0
 20
-1.00000000000001
 11
-2.0
 21
-1.00000000000001
  0
LINE
  5
25C
100
AcDbEntity
  8
1
  6
CONTINUOUS
 62
             7
100
AcDbLine
 10
2.5
 20
-2.50000000000001
 11
2.5
 21
-1.50000000000001
  0
LINE
  5
25B
100
AcDbEntity
  8
1
  6
CONTINUOUS
 62
             7
100
AcDbLine
 10
-2.0
 20
-3.00000000000001
 11
2.0
 21
-3.00000000000001
  0
LINE
  5
25A
100
AcDbEntity
  8
1
  6
CONTINUOUS
 62
             7
100
AcDbLine
 10
5.5
 20
-1.50000000000001
 11
5.5
 21
-2.50000000000001
  0
LINE
  5
259
100
AcDbEntity
  8
1
  6
CONTINUOUS
 62
             7
100
AcDbLine
 10
10.0
 20
-1.00000000000001
 11
6.0
 21
-1.00000000000001
  0
LINE
  5
258
100
AcDbEntity
  8
1
  6
CONTINUOUS
 62
             7
100
AcDbLine
 10
10.5
 20
-2.50000000000001
 11
10.5
 21
-1.50000000000001
  0
LINE
  5
257
100
AcDbEntity
  8
1
  6
CONTINUOUS
 62
             7
100
AcDbLine
 10
6.0
 20
-3.00000000000001
 11
10.0
 21
-3.00000000000001
  0
LINE
  5
256
100
AcDbEntity
  8
1
  6
CONTINUOUS
 62
             7
100
AcDbLine
 10
13.5
 20
-1.50000000000001
 11
13.5
 21
-2.50000000000001
  0
LINE
  5
255
100
AcDbEntity
  8
1
  6
CONTINUOUS
 62
             7
100
AcDbLine
 10
18.0
 20
-1.00000000000001
 11
14.0
 21
-1.00000000000001
  0
LINE
  5
254
100
AcDbEntity
  8
1
  6
CONTINUOUS
 62
             7
100
AcDbLine
 10
18.5
 20
-2.50000000000001
 11
18.5
 21
-1.50000000000001
  0
LINE
  5
253
100
AcDbEntity
  8
1
  6
CONTINUOUS
 62
             7
100
AcDbLine
 10
14.0
 20
-3.00000000000001
 11
18.0
 21
-3.00000000000001
  0
LINE
  5
252
100
AcDbEntity
  8
1
  6
CONTINUOUS
 62
             7
100
AcDbLine
 10
21.5
 20
-1.50000000000001
 11
21.5
 21
-2.50000000000001
  0
LINE
  5
251
100
AcDbEntity
  8
1
  6
CONTINUOUS
 62
             7
100
AcDbLine
 10
26.0
 20
-1.00000000000001
 11
22.0
 21
-1.00000000000001
  0
LINE
  5
250
100
AcDbEntity
  8
1
  6
CONTINUOUS
 62
             7
100
AcDbLine
 10
26.5
 20
-2.50000000000001
 11
26.5
 21
-1.50000000000001
  0
LINE
  5
24F
100
AcDbEntity
  8
1
  6
CONTINUOUS
 62
             7
100
AcDbLine
 10
22.0
 20
-3.00000000000001
 11
26.0
 21
-3.00000000000001
  0
LINE
  5
24E
100
AcDbEntity
  8
1
  6
CONTINUOUS
 62
             7
100
AcDbLine
 10
-28.5
 20
-21.0
 11
-28.5
 21
-24.0
  0
LINE
  5
24D
100
AcDbEntity
  8
1
  6
CONTINUOUS
 62
             7
100
AcDbLine
 10
26.5
 20
-19.0
 11
-26.5
 21
-19.0
  0
LINE
  5
24C
100
AcDbEntity
  8
1
  6
CONTINUOUS
 62
             7
100
AcDbLine
 10
28.5
 20
-24.0
 11
28.5
 21
-21.0
  0
LINE
  5
24B
100
AcDbEntity
  8
1
  6
CONTINUOUS
 62
             7
100
AcDbLine
 10
-26.5
 20
-26.00000000000001
 11
26.5
 21
-26.00000000000001
  0
LINE
  5
24A
100
AcDbEntity
  8
1
  6
CONTINUOUS
 62
             7
100
AcDbLine
 10
-16.2
 20
-12.2
 11
-13.8
 21
-12.2
  0
LINE
  5
249
100
AcDbEntity
  8
1
  6
CONTINUOUS
 62
             7
100
AcDbLine
 10
-13.8
 20
-12.8
 11
-16.2
 21
-12.8
  0
LINE
  5
248
100
AcDbEntity
  8
1
  6
CONTINUOUS
 62
             7
100
AcDbLine
 10
-13.8
 20
-11.59999999999999
 11
-16.2
 21
-11.59999999999999
  0
LINE
  5
247
100
AcDbEntity
  8
1
  6
CONTINUOUS
 62
             7
100
AcDbLine
 10
-16.2
 20
-11.0
 11
-13.8
 21
-11.0
  0
LINE
  5
246
100
AcDbEntity
  8
1
  6
CONTINUOUS
 62
             7
100
AcDbLine
 10
-13.8
 20
-14.0
 11
-16.2
 21
-14.0
  0
LINE
  5
245
100
AcDbEntity
  8
1
  6
CONTINUOUS
 62
             7
100
AcDbLine
 10
-16.2
 20
-13.40000000000001
 11
-13.8
 21
-13.40000000000001
  0
LINE
  5
244
100
AcDbEntity
  8
1
  6
CONTINUOUS
 62
             7
100
AcDbLine
 10
-1.2
 20
-13.40000000000001
 11
26.2
 21
-13.40000000000001
  0
LINE
  5
243
100
AcDbEntity
  8
1
  6
CONTINUOUS
 62
             7
100
AcDbLine
 10
26.2
 20
-14.0
 11
-1.2
 21
-14.0
  0
LINE
  5
242
100
AcDbEntity
  8
1
  6
CONTINUOUS
 62
             7
100
AcDbLine
 10
-1.2
 20
-11.0
 11
26.2
 21
-11.0
  0
LINE
  5
241
100
AcDbEntity
  8
1
  6
CONTINUOUS
 62
             7
100
AcDbLine
 10
26.2
 20
-11.59999999999999
 11
-1.2
 21
-11.59999999999999
  0
LINE
  5
240
100
AcDbEntity
  8
1
  6
CONTINUOUS
 62
             7
100
AcDbLine
 10
26.2
 20
-12.80000000000001
 11
-1.2
 21
-12.8
  0
LINE
  5
23F
100
AcDbEntity
  8
1
  6
CONTINUOUS
 62
             7
100
AcDbLine
 10
-1.2
 20
-12.2
 11
26.2
 21
-12.2
  0
LINE
  5
23E
100
AcDbEntity
  8
1
  6
CONTINUOUS
 62
             7
100
AcDbLine
 10
6.49999999999999
 20
-23.5
 11
6.99999999999999
 21
-23.5
  0
LINE
  5
23D
100
AcDbEntity
  8
1
  6
CONTINUOUS
 62
             7
100
AcDbLine
 10
8.49999999999999
 20
-21.5
 11
6.49999999999999
 21
-21.5
  0
LINE
  5
23C
100
AcDbEntity
  8
1
  6
CONTINUOUS
 62
             7
100
AcDbLine
 10
8.49999999999999
 20
-23.0
 11
8.49999999999999
 21
-23.5
  0
LINE
  5
23B
100
AcDbEntity
  8
1
  6
CONTINUOUS
 62
             7
100
AcDbLine
 10
7.49999999999999
 20
-24.0
 11
8.49999999999999
 21
-23.0
  0
LINE
  5
23A
100
AcDbEntity
  8
1
  6
CONTINUOUS
 62
             7
100
AcDbLine
 10
8.99999999999999
 20
-24.0
 11
7.49999999999999
 21
-24.0
  0
LINE
  5
239
100
AcDbEntity
  8
1
  6
CONTINUOUS
 62
             7
100
AcDbLine
 10
5.99999999999999
 20
-21.0
 11
8.99999999999999
 21
-21.0
  0
LINE
  5
238
100
AcDbEntity
  8
1
  6
CONTINUOUS
 62
             7
100
AcDbLine
 10
6.49999999999999
 20
-24.0
 11
5.99999999999999
 21
-24.0
  0
LINE
  5
237
100
AcDbEntity
  8
1
  6
CONTINUOUS
 62
             7
100
AcDbLine
 10
6.99999999999999
 20
-23.5
 11
6.49999999999999
 21
-24.0
  0
LINE
  5
236
100
AcDbEntity
  8
1
  6
CONTINUOUS
 62
             7
100
AcDbLine
 10
22.25
 20
-23.5
 11
22.75
 21
-23.5
  0
LINE
  5
235
100
AcDbEntity
  8
1
  6
CONTINUOUS
 62
             7
100
AcDbLine
 10
22.75
 20
-23.5
 11
22.75
 21
-21.5
  0
LINE
  5
234
100
AcDbEntity
  8
1
  6
CONTINUOUS
 62
             7
100
AcDbLine
 10
22.75
 20
-21.5
 11
22.25
 21
-21.5
  0
LINE
  5
233
100
AcDbEntity
  8
1
  6
CONTINUOUS
 62
             7
100
AcDbLine
 10
22.25
 20
-21.5
 11
22.25
 21
-23.5
  0
LINE
  5
232
100
AcDbEntity
  8
1
  6
CONTINUOUS
 62
             7
100
AcDbLine
 10
13.8
 20
-23.39999999999999
 11
16.2
 21
-23.39999999999999
  0
LINE
  5
231
100
AcDbEntity
  8
1
  6
CONTINUOUS
 62
             7
100
AcDbLine
 10
16.2
 20
-24.0
 11
13.8
 21
-24.0
  0
LINE
  5
230
100
AcDbEntity
  8
1
  6
CONTINUOUS
 62
             7
100
AcDbLine
 10
13.8
 20
-21.0
 11
16.2
 21
-21.0
  0
LINE
  5
22F
100
AcDbEntity
  8
1
  6
CONTINUOUS
 62
             7
100
AcDbLine
 10
16.2
 20
-21.60000000000001
 11
13.8
 21
-21.60000000000001
  0
LINE
  5
22E
100
AcDbEntity
  8
1
  6
CONTINUOUS
 62
             7
100
AcDbLine
 10
16.2
 20
-22.8
 11
13.8
 21
-22.8
  0
LINE
  5
22D
100
AcDbEntity
  8
1
  6
CONTINUOUS
 62
             7
100
AcDbLine
 10
13.8
 20
-22.2
 11
16.2
 21
-22.2
  0
LINE
  5
22C
100
AcDbEntity
  8
1
  6
CONTINUOUS
 62
             7
100
AcDbLine
 10
1.2
 20
-22.8
 11
-26.2
 21
-22.8
  0
LINE
  5
22B
100
AcDbEntity
  8
1
  6
CONTINUOUS
 62
             7
100
AcDbLine
 10
-26.2
 20
-22.19999999999999
 11
1.2
 21
-22.2
  0
LINE
  5
22A
100
AcDbEntity
  8
1
  6
CONTINUOUS
 62
             7
100
AcDbLine
 10
-26.2
 20
-23.40000000000001
 11
1.2
 21
-23.39999999999999
  0
LINE
  5
229
100
AcDbEntity
  8
1
  6
CONTINUOUS
 62
             7
100
AcDbLine
 10
1.2
 20
-24.0
 11
-26.2
 21
-24.0
  0
LINE
  5
228
100
AcDbEntity
  8
1
  6
CONTINUOUS
 62
             7
100
AcDbLine
 10
-26.2
 20
-21.0
 11
1.2
 21
-21.0
  0
LINE
  5
227
100
AcDbEntity
  8
1
  6
CONTINUOUS
 62
             7
100
AcDbLine
 10
1.2
 20
-21.60000000000001
 11
-26.2
 21
-21.59999999999999
  0
LINE
  5
226
100
AcDbEntity
  8
1
  6
CONTINUOUS
 62
             7
100
AcDbLine
 10
-11.33345667627106
 20
25.61151147498514
 11
-10.77513379349543
 21
26.08
  0
LINE
  5
225
100
AcDbEntity
  8
1
  6
CONTINUOUS
 62
             7
100
AcDbLine
 10
-10.77513379349543
 20
26.08
 11
-7.35583660187736
 21
26.08
  0
LINE
  5
224
100
AcDbEntity
  8
1
  6
CONTINUOUS
 62
             7
100
AcDbLine
 10
-7.35583660187736
 20
26.08
 11
-6.99375548236856
 21
25.64848852501487
  0
LINE
  5
223
100
AcDbEntity
  8
1
  6
CONTINUOUS
 62
             7
100
AcDbLine
 10
-6.99375548236856
 20
25.64848852501487
 11
-7.5520783651442
 21
25.17999999999999
  0
LINE
  5
222
100
AcDbEntity
  8
1
  6
CONTINUOUS
 62
             7
100
AcDbLine
 10
-7.5520783651442
 20
25.17999999999999
 11
-10.97137555676227
 21
25.17999999999999
  0
LINE
  5
221
100
AcDbEntity
  8
1
  6
CONTINUOUS
 62
             7
100
AcDbLine
 10
-10.97137555676227
 20
25.17999999999999
 11
-11.33345667627106
 21
25.61151147498514
  0
LINE
  5
220
100
AcDbEntity
  8
1
  6
CONTINUOUS
 62
             7
100
AcDbLine
 10
-12.704767999366
 20
21.64283628290596
 11
-12.12159289198237
 21
24.95018666706432
  0
LINE
  5
21F
100
AcDbEntity
  8
1
  6
CONTINUOUS
 62
             7
100
AcDbLine
 10
-12.12159289198237
 20
24.95018666706432
 11
-11.56327000920675
 21
25.41867519207916
  0
LINE
  5
21E
100
AcDbEntity
  8
1
  6
CONTINUOUS
 62
             7
100
AcDbLine
 10
-11.56327000920675
 20
25.41867519207916
 11
-11.20118888969796
 21
24.98716371709405
  0
LINE
  5
21D
100
AcDbEntity
  8
1
  6
CONTINUOUS
 62
             7
100
AcDbLine
 10
-11.20118888969796
 20
24.98716371709405
 11
-11.78436399708158
 21
21.67981333293569
  0
LINE
  5
21C
100
AcDbEntity
  8
1
  6
CONTINUOUS
 62
             7
100
AcDbLine
 10
-11.78436399708158
 20
21.67981333293569
 11
-12.34268687985721
 21
21.21132480792083
  0
LINE
  5
21B
100
AcDbEntity
  8
1
  6
CONTINUOUS
 62
             7
100
AcDbLine
 10
-12.34268687985721
 20
21.21132480792083
 11
-12.704767999366
 21
21.64283628290596
  0
LINE
  5
21A
100
AcDbEntity
  8
1
  6
CONTINUOUS
 62
             7
100
AcDbLine
 10
-12.14985059695125
 20
20.98151147498513
 11
-11.59152771417563
 21
21.45
  0
LINE
  5
219
100
AcDbEntity
  8
1
  6
CONTINUOUS
 62
             7
100
AcDbLine
 10
-11.59152771417563
 20
21.45
 11
-8.17223052255755
 21
21.45
  0
LINE
  5
218
100
AcDbEntity
  8
1
  6
CONTINUOUS
 62
             7
100
AcDbLine
 10
-8.17223052255755
 20
21.45
 11
-7.81014940304876
 21
21.01848852501487
  0
LINE
  5
217
100
AcDbEntity
  8
1
  6
CONTINUOUS
 62
             7
100
AcDbLine
 10
-7.81014940304876
 20
21.01848852501487
 11
-8.36847228582439
 21
20.55
  0
LINE
  5
216
100
AcDbEntity
  8
1
  6
CONTINUOUS
 62
             7
100
AcDbLine
 10
-8.36847228582439
 20
20.55
 11
-11.78776947744246
 21
20.55
  0
LINE
  5
215
100
AcDbEntity
  8
1
  6
CONTINUOUS
 62
             7
100
AcDbLine
 10
-11.78776947744246
 20
20.55
 11
-12.14985059695125
 21
20.98151147498513
  0
LINE
  5
214
100
AcDbEntity
  8
1
  6
CONTINUOUS
 62
             7
100
AcDbLine
 10
-7.58033607011306
 20
21.21132480792083
 11
-7.94241718962186
 21
21.64283628290596
  0
LINE
  5
213
100
AcDbEntity
  8
1
  6
CONTINUOUS
 62
             7
100
AcDbLine
 10
-7.94241718962186
 20
21.64283628290596
 11
-7.35924208223823
 21
24.95018666706432
  0
LINE
  5
212
100
AcDbEntity
  8
1
  6
CONTINUOUS
 62
             7
100
AcDbLine
 10
-7.35924208223823
 20
24.95018666706432
 11
-6.80091919946261
 21
25.41867519207916
  0
LINE
  5
211
100
AcDbEntity
  8
1
  6
CONTINUOUS
 62
             7
100
AcDbLine
 10
-6.80091919946261
 20
25.41867519207916
 11
-6.43883807995382
 21
24.98716371709405
  0
LINE
  5
210
100
AcDbEntity
  8
1
  6
CONTINUOUS
 62
             7
100
AcDbLine
 10
-6.43883807995382
 20
24.98716371709405
 11
-7.02201318733744
 21
21.67981333293569
  0
LINE
  5
20F
100
AcDbEntity
  8
1
  6
CONTINUOUS
 62
             7
100
AcDbLine
 10
-7.02201318733744
 20
21.67981333293569
 11
-7.58033607011306
 21
21.21132480792083
  0
LINE
  5
20E
100
AcDbEntity
  8
1
  6
CONTINUOUS
 62
             7
100
AcDbLine
 10
-8.75881111030205
 20
17.01283628290595
 11
-8.17563600291842
 21
20.32018666706431
  0
LINE
  5
20D
100
AcDbEntity
  8
1
  6
CONTINUOUS
 62
             7
100
AcDbLine
 10
-8.17563600291842
 20
20.32018666706431
 11
-7.6173131201428
 21
20.78867519207917
  0
LINE
  5
20C
100
AcDbEntity
  8
1
  6
CONTINUOUS
 62
             7
100
AcDbLine
 10
-7.6173131201428
 20
20.78867519207917
 11
-7.25523200063401
 21
20.35716371709404
  0
LINE
  5
20B
100
AcDbEntity
  8
1
  6
CONTINUOUS
 62
             7
100
AcDbLine
 10
-7.25523200063401
 20
20.35716371709404
 11
-7.83840710801763
 21
17.0498133329357
  0
LINE
  5
20A
100
AcDbEntity
  8
1
  6
CONTINUOUS
 62
             7
100
AcDbLine
 10
-7.83840710801763
 20
17.0498133329357
 11
-8.39672999079326
 21
16.58132480792084
  0
LINE
  5
209
100
AcDbEntity
  8
1
  6
CONTINUOUS
 62
             7
100
AcDbLine
 10
-8.39672999079326
 20
16.58132480792084
 11
-8.75881111030205
 21
17.01283628290595
  0
LINE
  5
208
100
AcDbEntity
  8
1
  6
CONTINUOUS
 62
             7
100
AcDbLine
 10
-12.40792163485581
 20
16.82000000000001
 11
-8.98862444323774
 21
16.82000000000001
  0
LINE
  5
207
100
AcDbEntity
  8
1
  6
CONTINUOUS
 62
             7
100
AcDbLine
 10
-8.98862444323774
 20
16.82000000000001
 11
-8.62654332372895
 21
16.38848852501486
  0
LINE
  5
206
100
AcDbEntity
  8
1
  6
CONTINUOUS
 62
             7
100
AcDbLine
 10
-8.62654332372895
 20
16.38848852501486
 11
-9.18486620650458
 21
15.92
  0
LINE
  5
205
100
AcDbEntity
  8
1
  6
CONTINUOUS
 62
             7
100
AcDbLine
 10
-9.18486620650458
 20
15.92
 11
-12.40835230472282
 21
15.92
  0
LINE
  5
204
100
AcDbEntity
  8
1
  6
CONTINUOUS
 62
             7
100
AcDbLine
 10
-12.40835230472282
 20
15.92
 11
-12.85133785116359
 21
16.44792961643812
  0
LINE
  5
203
100
AcDbEntity
  8
1
  6
CONTINUOUS
 62
             7
100
AcDbLine
 10
-12.85133785116359
 20
16.44792961643812
 11
-12.40792163485581
 21
16.82000000000001
  0
LINE
  5
202
100
AcDbEntity
  8
1
  6
CONTINUOUS
 62
             7
100
AcDbLine
 10
-12.93798681266257
 20
20.32018666706431
 11
-12.37966392988695
 21
20.78867519207917
  0
LINE
  5
201
100
AcDbEntity
  8
1
  6
CONTINUOUS
 62
             7
100
AcDbLine
 10
-12.37966392988695
 20
20.78867519207917
 11
-12.01758281037816
 21
20.35716371709404
  0
LINE
  5
200
100
AcDbEntity
  8
1
  6
CONTINUOUS
 62
             7
100
AcDbLine
 10
-12.01758281037816
 20
20.35716371709404
 11
-12.60075791776178
 21
17.0498133329357
  0
LINE
  5
1FF
100
AcDbEntity
  8
1
  6
CONTINUOUS
 62
             7
100
AcDbLine
 10
-12.60075791776178
 20
17.0498133329357
 11
-13.1590808005374
 21
16.58132480792084
  0
LINE
  5
1FE
100
AcDbEntity
  8
1
  6
CONTINUOUS
 62
             7
100
AcDbLine
 10
-13.1590808005374
 20
16.58132480792084
 11
-13.52116192004619
 21
17.01283628290595
  0
LINE
  5
1FD
100
AcDbEntity
  8
1
  6
CONTINUOUS
 62
             7
100
AcDbLine
 10
-13.52116192004619
 20
17.01283628290595
 11
-12.93798681266257
 21
20.32018666706431
  0
LINE
  5
1FC
100
AcDbEntity
  8
1
  6
CONTINUOUS
 62
             7
100
AcDbLine
 10
-3.52116192004619
 20
17.01283628290595
 11
-2.93798681266257
 21
20.32018666706431
  0
LINE
  5
1FB
100
AcDbEntity
  8
1
  6
CONTINUOUS
 62
             7
100
AcDbLine
 10
-3.1590808005374
 20
16.58132480792084
 11
-3.52116192004619
 21
17.01283628290595
  0
LINE
  5
1FA
100
AcDbEntity
  8
1
  6
CONTINUOUS
 62
             7
100
AcDbLine
 10
-2.60075791776178
 20
17.0498133329357
 11
-3.1590808005374
 21
16.58132480792084
  0
LINE
  5
1F9
100
AcDbEntity
  8
1
  6
CONTINUOUS
 62
             7
100
AcDbLine
 10
-2.01758281037815
 20
20.35716371709404
 11
-2.60075791776178
 21
17.0498133329357
  0
LINE
  5
1F8
100
AcDbEntity
  8
1
  6
CONTINUOUS
 62
             7
100
AcDbLine
 10
-2.37966392988694
 20
20.78867519207917
 11
-2.01758281037815
 21
20.35716371709404
  0
LINE
  5
1F7
100
AcDbEntity
  8
1
  6
CONTINUOUS
 62
             7
100
AcDbLine
 10
-2.93798681266257
 20
20.32018666706431
 11
-2.37966392988694
 21
20.78867519207917
  0
LINE
  5
1F6
100
AcDbEntity
  8
1
  6
CONTINUOUS
 62
             7
100
AcDbLine
 10
-2.85133785116359
 20
16.44792961643812
 11
-2.40792163485581
 21
16.82000000000001
  0
LINE
  5
1F5
100
AcDbEntity
  8
1
  6
CONTINUOUS
 62
             7
100
AcDbLine
 10
-2.40835230472281
 20
15.92
 11
-2.85133785116359
 21
16.44792961643812
  0
LINE
  5
1F4
100
AcDbEntity
  8
1
  6
CONTINUOUS
 62
             7
100
AcDbLine
 10
0.81513379349542
 20
15.92
 11
-2.40835230472281
 21
15.92
  0
LINE
  5
1F3
100
AcDbEntity
  8
1
  6
CONTINUOUS
 62
             7
100
AcDbLine
 10
1.37345667627105
 20
16.38848852501486
 11
0.81513379349542
 21
15.92
  0
LINE
  5
1F2
100
AcDbEntity
  8
1
  6
CONTINUOUS
 62
             7
100
AcDbLine
 10
1.01137555676226
 20
16.82000000000001
 11
1.37345667627105
 21
16.38848852501486
  0
LINE
  5
1F1
100
AcDbEntity
  8
1
  6
CONTINUOUS
 62
             7
100
AcDbLine
 10
-2.40792163485581
 20
16.82000000000001
 11
1.01137555676226
 21
16.82000000000001
  0
LINE
  5
1F0
100
AcDbEntity
  8
1
  6
CONTINUOUS
 62
             7
100
AcDbLine
 10
1.60327000920674
 20
16.58132480792084
 11
1.24118888969795
 21
17.01283628290595
  0
LINE
  5
1EF
100
AcDbEntity
  8
1
  6
CONTINUOUS
 62
             7
100
AcDbLine
 10
2.16159289198237
 20
17.0498133329357
 11
1.60327000920674
 21
16.58132480792084
  0
LINE
  5
1EE
100
AcDbEntity
  8
1
  6
CONTINUOUS
 62
             7
100
AcDbLine
 10
2.74476799936599
 20
20.35716371709404
 11
2.16159289198237
 21
17.0498133329357
  0
LINE
  5
1ED
100
AcDbEntity
  8
1
  6
CONTINUOUS
 62
             7
100
AcDbLine
 10
2.38268687985721
 20
20.78867519207917
 11
2.74476799936599
 21
20.35716371709404
  0
LINE
  5
1EC
100
AcDbEntity
  8
1
  6
CONTINUOUS
 62
             7
100
AcDbLine
 10
1.82436399708158
 20
20.32018666706431
 11
2.38268687985721
 21
20.78867519207917
  0
LINE
  5
1EB
100
AcDbEntity
  8
1
  6
CONTINUOUS
 62
             7
100
AcDbLine
 10
1.24118888969795
 20
17.01283628290595
 11
1.82436399708158
 21
20.32018666706431
  0
LINE
  5
1EA
100
AcDbEntity
  8
1
  6
CONTINUOUS
 62
             7
100
AcDbLine
 10
2.97798681266256
 20
21.67981333293569
 11
2.41966392988694
 21
21.21132480792083
  0
LINE
  5
1E9
100
AcDbEntity
  8
1
  6
CONTINUOUS
 62
             7
100
AcDbLine
 10
3.56116192004618
 20
24.98716371709405
 11
2.97798681266256
 21
21.67981333293569
  0
LINE
  5
1E8
100
AcDbEntity
  8
1
  6
CONTINUOUS
 62
             7
100
AcDbLine
 10
3.1990808005374
 20
25.41867519207916
 11
3.56116192004618
 21
24.98716371709405
  0
LINE
  5
1E7
100
AcDbEntity
  8
1
  6
CONTINUOUS
 62
             7
100
AcDbLine
 10
2.64075791776177
 20
24.95018666706432
 11
3.1990808005374
 21
25.41867519207916
  0
LINE
  5
1E6
100
AcDbEntity
  8
1
  6
CONTINUOUS
 62
             7
100
AcDbLine
 10
2.05758281037814
 20
21.64283628290596
 11
2.64075791776177
 21
24.95018666706432
  0
LINE
  5
1E5
100
AcDbEntity
  8
1
  6
CONTINUOUS
 62
             7
100
AcDbLine
 10
2.41966392988694
 20
21.21132480792083
 11
2.05758281037814
 21
21.64283628290596
  0
LINE
  5
1E4
100
AcDbEntity
  8
1
  6
CONTINUOUS
 62
             7
100
AcDbLine
 10
-1.78776947744246
 20
20.55
 11
-2.14985059695125
 21
20.98151147498513
  0
LINE
  5
1E3
100
AcDbEntity
  8
1
  6
CONTINUOUS
 62
             7
100
AcDbLine
 10
1.63152771417561
 20
20.55
 11
-1.78776947744246
 21
20.55
  0
LINE
  5
1E2
100
AcDbEntity
  8
1
  6
CONTINUOUS
 62
             7
100
AcDbLine
 10
2.18985059695124
 20
21.01848852501487
 11
1.63152771417561
 21
20.55
  0
LINE
  5
1E1
100
AcDbEntity
  8
1
  6
CONTINUOUS
 62
             7
100
AcDbLine
 10
1.82776947744245
 20
21.45
 11
2.18985059695124
 21
21.01848852501487
  0
LINE
  5
1E0
100
AcDbEntity
  8
1
  6
CONTINUOUS
 62
             7
100
AcDbLine
 10
-1.59152771417563
 20
21.45
 11
1.82776947744245
 21
21.45
  0
LINE
  5
1DF
100
AcDbEntity
  8
1
  6
CONTINUOUS
 62
             7
100
AcDbLine
 10
-2.14985059695125
 20
20.98151147498513
 11
-1.59152771417563
 21
21.45
  0
LINE
  5
1DE
100
AcDbEntity
  8
1
  6
CONTINUOUS
 62
             7
100
AcDbLine
 10
-2.34268687985721
 20
21.21132480792083
 11
-2.704767999366
 21
21.64283628290596
  0
LINE
  5
1DD
100
AcDbEntity
  8
1
  6
CONTINUOUS
 62
             7
100
AcDbLine
 10
-1.78436399708158
 20
21.67981333293569
 11
-2.34268687985721
 21
21.21132480792083
  0
LINE
  5
1DC
100
AcDbEntity
  8
1
  6
CONTINUOUS
 62
             7
100
AcDbLine
 10
-1.20118888969796
 20
24.98716371709405
 11
-1.78436399708158
 21
21.67981333293569
  0
LINE
  5
1DB
100
AcDbEntity
  8
1
  6
CONTINUOUS
 62
             7
100
AcDbLine
 10
-1.56327000920675
 20
25.41867519207916
 11
-1.20118888969796
 21
24.98716371709405
  0
LINE
  5
1DA
100
AcDbEntity
  8
1
  6
CONTINUOUS
 62
             7
100
AcDbLine
 10
-2.12159289198237
 20
24.95018666706432
 11
-1.56327000920675
 21
25.41867519207916
  0
LINE
  5
1D9
100
AcDbEntity
  8
1
  6
CONTINUOUS
 62
             7
100
AcDbLine
 10
-2.704767999366
 20
21.64283628290596
 11
-2.12159289198237
 21
24.95018666706432
  0
LINE
  5
1D8
100
AcDbEntity
  8
1
  6
CONTINUOUS
 62
             7
100
AcDbLine
 10
-0.97137555676227
 20
25.17999999999999
 11
-1.33345667627105
 21
25.61151147498514
  0
LINE
  5
1D7
100
AcDbEntity
  8
1
  6
CONTINUOUS
 62
             7
100
AcDbLine
 10
2.4479216348558
 20
25.17999999999999
 11
-0.97137555676227
 21
25.17999999999999
  0
LINE
  5
1D6
100
AcDbEntity
  8
1
  6
CONTINUOUS
 62
             7
100
AcDbLine
 10
3.00624451763144
 20
25.64848852501487
 11
2.4479216348558
 21
25.17999999999999
  0
LINE
  5
1D5
100
AcDbEntity
  8
1
  6
CONTINUOUS
 62
             7
100
AcDbLine
 10
2.64416339812264
 20
26.08
 11
3.00624451763144
 21
25.64848852501487
  0
LINE
  5
1D4
100
AcDbEntity
  8
1
  6
CONTINUOUS
 62
             7
100
AcDbLine
 10
-0.77513379349543
 20
26.08
 11
2.64416339812264
 21
26.08
  0
LINE
  5
1D3
100
AcDbEntity
  8
1
  6
CONTINUOUS
 62
             7
100
AcDbLine
 10
-1.33345667627105
 20
25.61151147498514
 11
-0.77513379349543
 21
26.08
  0
LINE
  5
1D2
100
AcDbEntity
  8
1
  6
CONTINUOUS
 62
             7
100
AcDbLine
 10
6.47883807995381
 20
17.01283628290595
 11
7.06201318733743
 21
20.32018666706431
  0
LINE
  5
1D1
100
AcDbEntity
  8
1
  6
CONTINUOUS
 62
             7
100
AcDbLine
 10
6.8409191994626
 20
16.58132480792084
 11
6.47883807995381
 21
17.01283628290595
  0
LINE
  5
1D0
100
AcDbEntity
  8
1
  6
CONTINUOUS
 62
             7
100
AcDbLine
 10
7.39924208223823
 20
17.0498133329357
 11
6.8409191994626
 21
16.58132480792084
  0
LINE
  5
1CF
100
AcDbEntity
  8
1
  6
CONTINUOUS
 62
             7
100
AcDbLine
 10
7.98241718962185
 20
20.35716371709404
 11
7.39924208223823
 21
17.0498133329357
  0
LINE
  5
1CE
100
AcDbEntity
  8
1
  6
CONTINUOUS
 62
             7
100
AcDbLine
 10
7.62033607011306
 20
20.78867519207917
 11
7.98241718962185
 21
20.35716371709404
  0
LINE
  5
1CD
100
AcDbEntity
  8
1
  6
CONTINUOUS
 62
             7
100
AcDbLine
 10
7.06201318733743
 20
20.32018666706431
 11
7.62033607011306
 21
20.78867519207917
  0
LINE
  5
1CC
100
AcDbEntity
  8
1
  6
CONTINUOUS
 62
             7
100
AcDbLine
 10
7.14866214883641
 20
16.44792961643812
 11
7.59207836514419
 21
16.82000000000001
  0
LINE
  5
1CB
100
AcDbEntity
  8
1
  6
CONTINUOUS
 62
             7
100
AcDbLine
 10
7.59164769527719
 20
15.92
 11
7.14866214883641
 21
16.44792961643812
  0
LINE
  5
1CA
100
AcDbEntity
  8
1
  6
CONTINUOUS
 62
             7
100
AcDbLine
 10
10.81513379349542
 20
15.92
 11
7.59164769527719
 21
15.92
  0
LINE
  5
1C9
100
AcDbEntity
  8
1
  6
CONTINUOUS
 62
             7
100
AcDbLine
 10
11.37345667627105
 20
16.38848852501486
 11
10.81513379349542
 21
15.92
  0
LINE
  5
1C8
100
AcDbEntity
  8
1
  6
CONTINUOUS
 62
             7
100
AcDbLine
 10
11.01137555676226
 20
16.82000000000001
 11
11.37345667627105
 21
16.38848852501486
  0
LINE
  5
1C7
100
AcDbEntity
  8
1
  6
CONTINUOUS
 62
             7
100
AcDbLine
 10
7.59207836514419
 20
16.82000000000001
 11
11.01137555676226
 21
16.82000000000001
  0
LINE
  5
1C6
100
AcDbEntity
  8
1
  6
CONTINUOUS
 62
             7
100
AcDbLine
 10
11.60327000920674
 20
16.58132480792084
 11
11.24118888969795
 21
17.01283628290595
  0
LINE
  5
1C5
100
AcDbEntity
  8
1
  6
CONTINUOUS
 62
             7
100
AcDbLine
 10
12.16159289198237
 20
17.0498133329357
 11
11.60327000920674
 21
16.58132480792084
  0
LINE
  5
1C4
100
AcDbEntity
  8
1
  6
CONTINUOUS
 62
             7
100
AcDbLine
 10
12.74476799936599
 20
20.35716371709404
 11
12.16159289198237
 21
17.0498133329357
  0
LINE
  5
1C3
100
AcDbEntity
  8
1
  6
CONTINUOUS
 62
             7
100
AcDbLine
 10
12.3826868798572
 20
20.78867519207917
 11
12.74476799936599
 21
20.35716371709404
  0
LINE
  5
1C2
100
AcDbEntity
  8
1
  6
CONTINUOUS
 62
             7
100
AcDbLine
 10
11.82436399708158
 20
20.32018666706431
 11
12.3826868798572
 21
20.78867519207917
  0
LINE
  5
1C1
100
AcDbEntity
  8
1
  6
CONTINUOUS
 62
             7
100
AcDbLine
 10
11.24118888969795
 20
17.01283628290595
 11
11.82436399708158
 21
20.32018666706431
  0
LINE
  5
1C0
100
AcDbEntity
  8
1
  6
CONTINUOUS
 62
             7
100
AcDbLine
 10
12.97798681266256
 20
21.67981333293569
 11
12.41966392988694
 21
21.21132480792083
  0
LINE
  5
1BF
100
AcDbEntity
  8
1
  6
CONTINUOUS
 62
             7
100
AcDbLine
 10
13.56116192004618
 20
24.98716371709405
 11
12.97798681266256
 21
21.67981333293569
  0
LINE
  5
1BE
100
AcDbEntity
  8
1
  6
CONTINUOUS
 62
             7
100
AcDbLine
 10
13.1990808005374
 20
25.41867519207916
 11
13.56116192004618
 21
24.98716371709405
  0
LINE
  5
1BD
100
AcDbEntity
  8
1
  6
CONTINUOUS
 62
             7
100
AcDbLine
 10
12.64075791776177
 20
24.95018666706432
 11
13.1990808005374
 21
25.41867519207916
  0
LINE
  5
1BC
100
AcDbEntity
  8
1
  6
CONTINUOUS
 62
             7
100
AcDbLine
 10
12.05758281037814
 20
21.64283628290596
 11
12.64075791776177
 21
24.95018666706432
  0
LINE
  5
1BB
100
AcDbEntity
  8
1
  6
CONTINUOUS
 62
             7
100
AcDbLine
 10
12.41966392988694
 20
21.21132480792083
 11
12.05758281037814
 21
21.64283628290596
  0
LINE
  5
1BA
100
AcDbEntity
  8
1
  6
CONTINUOUS
 62
             7
100
AcDbLine
 10
8.21223052255754
 20
20.55
 11
7.85014940304876
 21
20.98151147498513
  0
LINE
  5
1B9
100
AcDbEntity
  8
1
  6
CONTINUOUS
 62
             7
100
AcDbLine
 10
11.63152771417561
 20
20.55
 11
8.21223052255754
 21
20.55
  0
LINE
  5
1B8
100
AcDbEntity
  8
1
  6
CONTINUOUS
 62
             7
100
AcDbLine
 10
12.18985059695124
 20
21.01848852501487
 11
11.63152771417561
 21
20.55
  0
LINE
  5
1B7
100
AcDbEntity
  8
1
  6
CONTINUOUS
 62
             7
100
AcDbLine
 10
11.82776947744245
 20
21.45
 11
12.18985059695124
 21
21.01848852501487
  0
LINE
  5
1B6
100
AcDbEntity
  8
1
  6
CONTINUOUS
 62
             7
100
AcDbLine
 10
8.40847228582438
 20
21.45
 11
11.82776947744245
 21
21.45
  0
LINE
  5
1B5
100
AcDbEntity
  8
1
  6
CONTINUOUS
 62
             7
100
AcDbLine
 10
7.85014940304876
 20
20.98151147498513
 11
8.40847228582438
 21
21.45
  0
LINE
  5
1B4
100
AcDbEntity
  8
1
  6
CONTINUOUS
 62
             7
100
AcDbLine
 10
7.65731312014279
 20
21.21132480792083
 11
7.295232000634
 21
21.64283628290596
  0
LINE
  5
1B3
100
AcDbEntity
  8
1
  6
CONTINUOUS
 62
             7
100
AcDbLine
 10
8.21563600291842
 20
21.67981333293569
 11
7.65731312014279
 21
21.21132480792083
  0
LINE
  5
1B2
100
AcDbEntity
  8
1
  6
CONTINUOUS
 62
             7
100
AcDbLine
 10
8.79881111030204
 20
24.98716371709405
 11
8.21563600291842
 21
21.67981333293569
  0
LINE
  5
1B1
100
AcDbEntity
  8
1
  6
CONTINUOUS
 62
             7
100
AcDbLine
 10
8.43672999079326
 20
25.41867519207916
 11
8.79881111030204
 21
24.98716371709405
  0
LINE
  5
1B0
100
AcDbEntity
  8
1
  6
CONTINUOUS
 62
             7
100
AcDbLine
 10
7.87840710801763
 20
24.95018666706432
 11
8.43672999079326
 21
25.41867519207916
  0
LINE
  5
1AF
100
AcDbEntity
  8
1
  6
CONTINUOUS
 62
             7
100
AcDbLine
 10
7.295232000634
 20
21.64283628290596
 11
7.87840710801763
 21
24.95018666706432
  0
LINE
  5
1AE
100
AcDbEntity
  8
1
  6
CONTINUOUS
 62
             7
100
AcDbLine
 10
9.02862444323773
 20
25.17999999999999
 11
8.66654332372895
 21
25.61151147498514
  0
LINE
  5
1AD
100
AcDbEntity
  8
1
  6
CONTINUOUS
 62
             7
100
AcDbLine
 10
12.4479216348558
 20
25.17999999999999
 11
9.02862444323773
 21
25.17999999999999
  0
LINE
  5
1AC
100
AcDbEntity
  8
1
  6
CONTINUOUS
 62
             7
100
AcDbLine
 10
13.00624451763144
 20
25.64848852501487
 11
12.4479216348558
 21
25.17999999999999
  0
LINE
  5
1AB
100
AcDbEntity
  8
1
  6
CONTINUOUS
 62
             7
100
AcDbLine
 10
12.64416339812264
 20
26.08
 11
13.00624451763144
 21
25.64848852501487
  0
LINE
  5
1AA
100
AcDbEntity
  8
1
  6
CONTINUOUS
 62
             7
100
AcDbLine
 10
9.22486620650457
 20
26.08
 11
12.64416339812264
 21
26.08
  0
LINE
  5
1A9
100
AcDbEntity
  8
1
  6
CONTINUOUS
 62
             7
100
AcDbLine
 10
8.66654332372895
 20
25.61151147498514
 11
9.22486620650457
 21
26.08
  0
LINE
  5
1A8
100
AcDbEntity
  8
1
  6
CONTINUOUS
 62
             7
100
AcDbLine
 10
16.47883807995381
 20
17.01283628290595
 11
17.06201318733743
 21
20.32018666706431
  0
LINE
  5
1A7
100
AcDbEntity
  8
1
  6
CONTINUOUS
 62
             7
100
AcDbLine
 10
16.8409191994626
 20
16.58132480792084
 11
16.47883807995381
 21
17.01283628290595
  0
LINE
  5
1A6
100
AcDbEntity
  8
1
  6
CONTINUOUS
 62
             7
100
AcDbLine
 10
17.39924208223822
 20
17.0498133329357
 11
16.8409191994626
 21
16.58132480792084
  0
LINE
  5
1A5
100
AcDbEntity
  8
1
  6
CONTINUOUS
 62
             7
100
AcDbLine
 10
17.98241718962185
 20
20.35716371709404
 11
17.39924208223822
 21
17.0498133329357
  0
LINE
  5
1A4
100
AcDbEntity
  8
1
  6
CONTINUOUS
 62
             7
100
AcDbLine
 10
17.62033607011306
 20
20.78867519207917
 11
17.98241718962185
 21
20.35716371709404
  0
LINE
  5
1A3
100
AcDbEntity
  8
1
  6
CONTINUOUS
 62
             7
100
AcDbLine
 10
17.06201318733743
 20
20.32018666706431
 11
17.62033607011306
 21
20.78867519207917
  0
LINE
  5
1A2
100
AcDbEntity
  8
1
  6
CONTINUOUS
 62
             7
100
AcDbLine
 10
17.14866214883641
 20
16.44792961643812
 11
17.59207836514419
 21
16.82000000000001
  0
LINE
  5
1A1
100
AcDbEntity
  8
1
  6
CONTINUOUS
 62
             7
100
AcDbLine
 10
17.59164769527719
 20
15.92
 11
17.14866214883641
 21
16.44792961643812
  0
LINE
  5
1A0
100
AcDbEntity
  8
1
  6
CONTINUOUS
 62
             7
100
AcDbLine
 10
20.81513379349542
 20
15.92
 11
17.59164769527719
 21
15.92
  0
LINE
  5
19F
100
AcDbEntity
  8
1
  6
CONTINUOUS
 62
             7
100
AcDbLine
 10
21.37345667627105
 20
16.38848852501486
 11
20.81513379349542
 21
15.92
  0
LINE
  5
19E
100
AcDbEntity
  8
1
  6
CONTINUOUS
 62
             7
100
AcDbLine
 10
21.01137555676226
 20
16.82000000000001
 11
21.37345667627105
 21
16.38848852501486
  0
LINE
  5
19D
100
AcDbEntity
  8
1
  6
CONTINUOUS
 62
             7
100
AcDbLine
 10
17.59207836514419
 20
16.82000000000001
 11
21.01137555676226
 21
16.82000000000001
  0
LINE
  5
19C
100
AcDbEntity
  8
1
  6
CONTINUOUS
 62
             7
100
AcDbLine
 10
21.60327000920674
 20
16.58132480792084
 11
21.24118888969796
 21
17.01283628290595
  0
LINE
  5
19B
100
AcDbEntity
  8
1
  6
CONTINUOUS
 62
             7
100
AcDbLine
 10
22.16159289198237
 20
17.0498133329357
 11
21.60327000920674
 21
16.58132480792084
  0
LINE
  5
19A
100
AcDbEntity
  8
1
  6
CONTINUOUS
 62
             7
100
AcDbLine
 10
22.74476799936599
 20
20.35716371709404
 11
22.16159289198237
 21
17.0498133329357
  0
LINE
  5
199
100
AcDbEntity
  8
1
  6
CONTINUOUS
 62
             7
100
AcDbLine
 10
22.3826868798572
 20
20.78867519207917
 11
22.74476799936599
 21
20.35716371709404
  0
LINE
  5
198
100
AcDbEntity
  8
1
  6
CONTINUOUS
 62
             7
100
AcDbLine
 10
21.82436399708158
 20
20.32018666706431
 11
22.3826868798572
 21
20.78867519207917
  0
LINE
  5
197
100
AcDbEntity
  8
1
  6
CONTINUOUS
 62
             7
100
AcDbLine
 10
21.24118888969796
 20
17.01283628290595
 11
21.82436399708158
 21
20.32018666706431
  0
LINE
  5
196
100
AcDbEntity
  8
1
  6
CONTINUOUS
 62
             7
100
AcDbLine
 10
22.97798681266256
 20
21.67981333293569
 11
22.41966392988694
 21
21.21132480792083
  0
LINE
  5
195
100
AcDbEntity
  8
1
  6
CONTINUOUS
 62
             7
100
AcDbLine
 10
23.56116192004619
 20
24.98716371709405
 11
22.97798681266256
 21
21.67981333293569
  0
LINE
  5
194
100
AcDbEntity
  8
1
  6
CONTINUOUS
 62
             7
100
AcDbLine
 10
23.19908080053741
 20
25.41867519207916
 11
23.56116192004619
 21
24.98716371709405
  0
LINE
  5
193
100
AcDbEntity
  8
1
  6
CONTINUOUS
 62
             7
100
AcDbLine
 10
22.64075791776178
 20
24.95018666706432
 11
23.19908080053741
 21
25.41867519207916
  0
LINE
  5
192
100
AcDbEntity
  8
1
  6
CONTINUOUS
 62
             7
100
AcDbLine
 10
22.05758281037815
 20
21.64283628290596
 11
22.64075791776178
 21
24.95018666706432
  0
LINE
  5
191
100
AcDbEntity
  8
1
  6
CONTINUOUS
 62
             7
100
AcDbLine
 10
22.41966392988694
 20
21.21132480792083
 11
22.05758281037815
 21
21.64283628290596
  0
LINE
  5
190
100
AcDbEntity
  8
1
  6
CONTINUOUS
 62
             7
100
AcDbLine
 10
18.21223052255754
 20
20.55
 11
17.85014940304875
 21
20.98151147498513
  0
LINE
  5
18F
100
AcDbEntity
  8
1
  6
CONTINUOUS
 62
             7
100
AcDbLine
 10
21.63152771417562
 20
20.55
 11
18.21223052255754
 21
20.55
  0
LINE
  5
18E
100
AcDbEntity
  8
1
  6
CONTINUOUS
 62
             7
100
AcDbLine
 10
22.18985059695125
 20
21.01848852501487
 11
21.63152771417562
 21
20.55
  0
LINE
  5
18D
100
AcDbEntity
  8
1
  6
CONTINUOUS
 62
             7
100
AcDbLine
 10
21.82776947744246
 20
21.45
 11
22.18985059695125
 21
21.01848852501487
  0
LINE
  5
18C
100
AcDbEntity
  8
1
  6
CONTINUOUS
 62
             7
100
AcDbLine
 10
18.40847228582438
 20
21.45
 11
21.82776947744246
 21
21.45
  0
LINE
  5
18B
100
AcDbEntity
  8
1
  6
CONTINUOUS
 62
             7
100
AcDbLine
 10
17.85014940304875
 20
20.98151147498513
 11
18.40847228582438
 21
21.45
  0
LINE
  5
18A
100
AcDbEntity
  8
1
  6
CONTINUOUS
 62
             7
100
AcDbLine
 10
17.65731312014279
 20
21.21132480792083
 11
17.295232000634
 21
21.64283628290596
  0
LINE
  5
189
100
AcDbEntity
  8
1
  6
CONTINUOUS
 62
             7
100
AcDbLine
 10
18.21563600291842
 20
21.67981333293569
 11
17.65731312014279
 21
21.21132480792083
  0
LINE
  5
188
100
AcDbEntity
  8
1
  6
CONTINUOUS
 62
             7
100
AcDbLine
 10
18.79881111030204
 20
24.98716371709405
 11
18.21563600291842
 21
21.67981333293569
  0
LINE
  5
187
100
AcDbEntity
  8
1
  6
CONTINUOUS
 62
             7
100
AcDbLine
 10
18.43672999079325
 20
25.41867519207916
 11
18.79881111030204
 21
24.98716371709405
  0
LINE
  5
186
100
AcDbEntity
  8
1
  6
CONTINUOUS
 62
             7
100
AcDbLine
 10
17.87840710801763
 20
24.95018666706432
 11
18.43672999079325
 21
25.41867519207916
  0
LINE
  5
185
100
AcDbEntity
  8
1
  6
CONTINUOUS
 62
             7
100
AcDbLine
 10
17.295232000634
 20
21.64283628290596
 11
17.87840710801763
 21
24.95018666706432
  0
LINE
  5
184
100
AcDbEntity
  8
1
  6
CONTINUOUS
 62
             7
100
AcDbLine
 10
19.02862444323774
 20
25.17999999999999
 11
18.66654332372895
 21
25.61151147498514
  0
LINE
  5
183
100
AcDbEntity
  8
1
  6
CONTINUOUS
 62
             7
100
AcDbLine
 10
22.44792163485581
 20
25.17999999999999
 11
19.02862444323774
 21
25.17999999999999
  0
LINE
  5
182
100
AcDbEntity
  8
1
  6
CONTINUOUS
 62
             7
100
AcDbLine
 10
23.00624451763143
 20
25.64848852501487
 11
22.44792163485581
 21
25.17999999999999
  0
LINE
  5
181
100
AcDbEntity
  8
1
  6
CONTINUOUS
 62
             7
100
AcDbLine
 10
22.64416339812265
 20
26.08
 11
23.00624451763143
 21
25.64848852501487
  0
LINE
  5
180
100
AcDbEntity
  8
1
  6
CONTINUOUS
 62
             7
100
AcDbLine
 10
19.22486620650458
 20
26.08
 11
22.64416339812265
 21
26.08
  0
LINE
  5
17F
100
AcDbEntity
  8
1
  6
CONTINUOUS
 62
             7
100
AcDbLine
 10
18.66654332372895
 20
25.61151147498514
 11
19.22486620650458
 21
26.08
  0
LINE
  5
17E
100
AcDbEntity
  8
0
  6
CONTINUOUS
 62
             7
100
AcDbLine
 10
21.51320401142904
 20
4.0
 11
19.07618014290324
 21
4.0
  0
LINE
  5
17D
100
AcDbEntity
  8
0
  6
CONTINUOUS
 62
             7
100
AcDbLine
 10
19.07618014290324
 20
4.0
 11
18.86909781236964
 21
4.2467911113762
  0
LINE
  5
17C
100
AcDbEntity
  8
0
  6
CONTINUOUS
 62
             7
100
AcDbLine
 10
18.40490043796142
 20
4.8
 11
18.89861598394512
 21
7.59999999999999
  0
LINE
  5
17B
100
AcDbEntity
  8
0
  6
CONTINUOUS
 62
             7
100
AcDbLine
 10
18.89861598394512
 20
7.59999999999999
 11
19.22210853235901
 21
7.87144247806269
  0
LINE
  5
17A
100
AcDbEntity
  8
0
  6
CONTINUOUS
 62
             7
100
AcDbLine
 10
22.96961550602441
 20
7.65270364466615
 11
22.48927802187148
 21
4.9285744035087
  0
LINE
  5
179
100
AcDbEntity
  8
0
  6
CONTINUOUS
 62
             7
100
AcDbLine
 10
22.48927802187148
 20
4.9285744035087
 11
22.12817783744879
 21
4.54635814904611
  0
LINE
  5
178
100
AcDbEntity
  8
0
  6
CONTINUOUS
 62
             7
100
AcDbLine
 10
23.10138401605488
 20
8.40000000000001
 11
23.59509956203858
 21
11.2
  0
LINE
  5
177
100
AcDbEntity
  8
0
  6
CONTINUOUS
 62
             7
100
AcDbLine
 10
23.59509956203858
 20
11.2
 11
23.38801723150498
 21
11.4467911113762
  0
LINE
  5
176
100
AcDbEntity
  8
0
  6
CONTINUOUS
 62
             7
100
AcDbLine
 10
22.92381985709675
 20
12.0
 11
20.48679598857097
 21
12.0
  0
LINE
  5
175
100
AcDbEntity
  8
0
  6
CONTINUOUS
 62
             7
100
AcDbLine
 10
20.48679598857097
 20
12.0
 11
20.16330344015708
 21
11.7285575219373
  0
LINE
  5
174
100
AcDbEntity
  8
0
  6
CONTINUOUS
 62
             7
100
AcDbLine
 10
19.5333931144956
 20
11.2
 11
19.0396775685119
 21
8.40000000000001
  0
LINE
  5
173
100
AcDbEntity
  8
0
  6
CONTINUOUS
 62
             7
100
AcDbLine
 10
19.0396775685119
 20
8.40000000000001
 11
19.2467598990455
 21
8.15320888862379
  0
LINE
  5
172
100
AcDbEntity
  8
0
  6
CONTINUOUS
 62
             7
100
AcDbLine
 10
21.69960191537694
 20
5.05711504387462
 11
22.12817783744879
 21
4.54635814904611
  0
LINE
  5
171
100
AcDbEntity
  8
0
  6
CONTINUOUS
 62
             7
100
AcDbLine
 10
21.69960191537694
 20
5.05711504387462
 11
22.09395142048204
 21
7.29358222275241
  0
LINE
  5
170
100
AcDbEntity
  8
0
  6
CONTINUOUS
 62
             7
100
AcDbLine
 10
21.83669655984292
 20
4.2714424780627
 11
21.39318413812935
 21
4.8
  0
LINE
  5
16F
100
AcDbEntity
  8
0
  6
CONTINUOUS
 62
             7
100
AcDbLine
 10
21.83669655984292
 20
4.2714424780627
 11
21.51320401142904
 21
4.0
  0
LINE
  5
16E
100
AcDbEntity
  8
0
  6
CONTINUOUS
 62
             7
100
AcDbLine
 10
18.61198276849503
 20
4.5532088886238
 11
19.27127144896749
 21
5.10641777724759
  0
LINE
  5
16D
100
AcDbEntity
  8
0
  6
CONTINUOUS
 62
             7
100
AcDbLine
 10
18.61198276849503
 20
4.5532088886238
 11
18.40490043796142
 21
4.8
  0
LINE
  5
16C
100
AcDbEntity
  8
0
  6
CONTINUOUS
 62
             7
100
AcDbLine
 10
18.86909781236964
 20
4.2467911113762
 11
19.5283864928421
 21
4.8
  0
LINE
  5
16B
100
AcDbEntity
  8
0
  6
CONTINUOUS
 62
             7
100
AcDbLine
 10
19.5283864928421
 20
4.8
 11
21.39318413812935
 21
4.8
  0
LINE
  5
16A
100
AcDbEntity
  8
0
  6
CONTINUOUS
 62
             7
100
AcDbLine
 10
19.2467598990455
 20
8.15320888862379
 11
19.90604857951796
 21
8.70641777724759
  0
LINE
  5
169
100
AcDbEntity
  8
0
  6
CONTINUOUS
 62
             7
100
AcDbLine
 10
19.90604857951796
 20
8.70641777724759
 11
20.30039808462306
 21
10.94288495612538
  0
LINE
  5
168
100
AcDbEntity
  8
0
  6
CONTINUOUS
 62
             7
100
AcDbLine
 10
19.68646218635489
 20
8.0
 11
20.16316362339257
 21
8.40000000000001
  0
LINE
  5
167
100
AcDbEntity
  8
0
  6
CONTINUOUS
 62
             7
100
AcDbLine
 10
19.68646218635489
 20
8.0
 11
19.97203873132018
 21
7.59999999999999
  0
LINE
  5
166
100
AcDbEntity
  8
0
  6
CONTINUOUS
 62
             7
100
AcDbLine
 10
19.22210853235901
 20
7.87144247806269
 11
19.66562095407258
 21
7.34288495612539
  0
LINE
  5
165
100
AcDbEntity
  8
0
  6
CONTINUOUS
 62
             7
100
AcDbLine
 10
19.66562095407258
 20
7.34288495612539
 11
19.27127144896749
 21
5.10641777724759
  0
LINE
  5
164
100
AcDbEntity
  8
0
  6
CONTINUOUS
 62
             7
100
AcDbLine
 10
21.83683637660743
 20
7.59999999999999
 11
22.31353781364511
 21
8.0
  0
LINE
  5
163
100
AcDbEntity
  8
0
  6
CONTINUOUS
 62
             7
100
AcDbLine
 10
21.83683637660743
 20
7.59999999999999
 11
19.97203873132018
 21
7.59999999999999
  0
LINE
  5
162
100
AcDbEntity
  8
0
  6
CONTINUOUS
 62
             7
100
AcDbLine
 10
22.31353781364511
 20
8.0
 11
22.02796126867983
 21
8.40000000000001
  0
LINE
  5
161
100
AcDbEntity
  8
0
  6
CONTINUOUS
 62
             7
100
AcDbLine
 10
22.02796126867983
 20
8.40000000000001
 11
20.16316362339257
 21
8.40000000000001
  0
LINE
  5
160
100
AcDbEntity
  8
0
  6
CONTINUOUS
 62
             7
100
AcDbLine
 10
22.33437904592742
 20
8.65711504387461
 11
22.77789146764099
 21
8.12855752193731
  0
LINE
  5
15F
100
AcDbEntity
  8
0
  6
CONTINUOUS
 62
             7
100
AcDbLine
 10
22.77789146764099
 20
8.12855752193731
 11
23.10138401605488
 21
8.40000000000001
  0
LINE
  5
15E
100
AcDbEntity
  8
0
  6
CONTINUOUS
 62
             7
100
AcDbLine
 10
22.96961550602441
 20
7.65270364466615
 11
22.76611720537214
 21
7.85759628494368
  0
LINE
  5
15D
100
AcDbEntity
  8
0
  6
CONTINUOUS
 62
             7
100
AcDbLine
 10
22.76611720537214
 20
7.85759628494368
 11
22.09395142048204
 21
7.29358222275241
  0
LINE
  5
15C
100
AcDbEntity
  8
0
  6
CONTINUOUS
 62
             7
100
AcDbLine
 10
19.85688566290949
 20
11.47144247806268
 11
20.30039808462306
 21
10.94288495612538
  0
LINE
  5
15B
100
AcDbEntity
  8
0
  6
CONTINUOUS
 62
             7
100
AcDbLine
 10
19.85688566290949
 20
11.47144247806268
 11
19.5333931144956
 21
11.2
  0
LINE
  5
15A
100
AcDbEntity
  8
0
  6
CONTINUOUS
 62
             7
100
AcDbLine
 10
20.60681586187065
 20
11.2
 11
20.16330344015708
 21
11.7285575219373
  0
LINE
  5
159
100
AcDbEntity
  8
0
  6
CONTINUOUS
 62
             7
100
AcDbLine
 10
20.60681586187065
 20
11.2
 11
22.4716135071579
 21
11.2
  0
LINE
  5
158
100
AcDbEntity
  8
0
  6
CONTINUOUS
 62
             7
100
AcDbLine
 10
22.4716135071579
 20
11.2
 11
23.13090218763036
 21
11.7532088886238
  0
LINE
  5
157
100
AcDbEntity
  8
0
  6
CONTINUOUS
 62
             7
100
AcDbLine
 10
23.13090218763036
 20
11.7532088886238
 11
22.92381985709675
 21
12.0
  0
LINE
  5
156
100
AcDbEntity
  8
0
  6
CONTINUOUS
 62
             7
100
AcDbLine
 10
23.38801723150498
 20
11.4467911113762
 11
22.72872855103251
 21
10.89358222275241
  0
LINE
  5
155
100
AcDbEntity
  8
0
  6
CONTINUOUS
 62
             7
100
AcDbLine
 10
22.72872855103251
 20
10.89358222275241
 11
22.33437904592742
 21
8.65711504387461
  0
LINE
  5
154
100
AcDbEntity
  8
0
  6
CONTINUOUS
 62
             7
100
AcDbLine
 10
14.01320401142903
 20
4.0
 11
11.57618014290325
 21
4.0
  0
LINE
  5
153
100
AcDbEntity
  8
0
  6
CONTINUOUS
 62
             7
100
AcDbLine
 10
11.57618014290325
 20
4.0
 11
11.36909781236964
 21
4.2467911113762
  0
LINE
  5
152
100
AcDbEntity
  8
0
  6
CONTINUOUS
 62
             7
100
AcDbLine
 10
10.90490043796142
 20
4.8
 11
11.39861598394512
 21
7.59999999999999
  0
LINE
  5
151
100
AcDbEntity
  8
0
  6
CONTINUOUS
 62
             7
100
AcDbLine
 10
11.39861598394512
 20
7.59999999999999
 11
11.72210853235901
 21
7.87144247806269
  0
LINE
  5
150
100
AcDbEntity
  8
0
  6
CONTINUOUS
 62
             7
100
AcDbLine
 10
15.46961550602442
 20
7.65270364466615
 11
14.98927802187148
 21
4.9285744035087
  0
LINE
  5
14F
100
AcDbEntity
  8
0
  6
CONTINUOUS
 62
             7
100
AcDbLine
 10
14.98927802187148
 20
4.9285744035087
 11
14.62817783744879
 21
4.54635814904611
  0
LINE
  5
14E
100
AcDbEntity
  8
0
  6
CONTINUOUS
 62
             7
100
AcDbLine
 10
15.60138401605488
 20
8.40000000000001
 11
16.09509956203858
 21
11.2
  0
LINE
  5
14D
100
AcDbEntity
  8
0
  6
CONTINUOUS
 62
             7
100
AcDbLine
 10
16.09509956203858
 20
11.2
 11
15.88801723150498
 21
11.4467911113762
  0
LINE
  5
14C
100
AcDbEntity
  8
0
  6
CONTINUOUS
 62
             7
100
AcDbLine
 10
15.42381985709675
 20
12.0
 11
12.98679598857097
 21
12.0
  0
LINE
  5
14B
100
AcDbEntity
  8
0
  6
CONTINUOUS
 62
             7
100
AcDbLine
 10
12.98679598857097
 20
12.0
 11
12.66330344015708
 21
11.7285575219373
  0
LINE
  5
14A
100
AcDbEntity
  8
0
  6
CONTINUOUS
 62
             7
100
AcDbLine
 10
12.0333931144956
 20
11.2
 11
11.5396775685119
 21
8.40000000000001
  0
LINE
  5
149
100
AcDbEntity
  8
0
  6
CONTINUOUS
 62
             7
100
AcDbLine
 10
11.5396775685119
 20
8.40000000000001
 11
11.7467598990455
 21
8.15320888862379
  0
LINE
  5
148
100
AcDbEntity
  8
0
  6
CONTINUOUS
 62
             7
100
AcDbLine
 10
14.19960191537694
 20
5.05711504387462
 11
14.62817783744879
 21
4.54635814904611
  0
LINE
  5
147
100
AcDbEntity
  8
0
  6
CONTINUOUS
 62
             7
100
AcDbLine
 10
14.19960191537694
 20
5.05711504387462
 11
14.59395142048204
 21
7.29358222275241
  0
LINE
  5
146
100
AcDbEntity
  8
0
  6
CONTINUOUS
 62
             7
100
AcDbLine
 10
14.33669655984292
 20
4.2714424780627
 11
13.89318413812935
 21
4.8
  0
LINE
  5
145
100
AcDbEntity
  8
0
  6
CONTINUOUS
 62
             7
100
AcDbLine
 10
14.33669655984292
 20
4.2714424780627
 11
14.01320401142903
 21
4.0
  0
LINE
  5
144
100
AcDbEntity
  8
0
  6
CONTINUOUS
 62
             7
100
AcDbLine
 10
11.11198276849503
 20
4.5532088886238
 11
11.77127144896749
 21
5.10641777724759
  0
LINE
  5
143
100
AcDbEntity
  8
0
  6
CONTINUOUS
 62
             7
100
AcDbLine
 10
11.11198276849503
 20
4.5532088886238
 11
10.90490043796142
 21
4.8
  0
LINE
  5
142
100
AcDbEntity
  8
0
  6
CONTINUOUS
 62
             7
100
AcDbLine
 10
11.36909781236964
 20
4.2467911113762
 11
12.0283864928421
 21
4.8
  0
LINE
  5
141
100
AcDbEntity
  8
0
  6
CONTINUOUS
 62
             7
100
AcDbLine
 10
12.0283864928421
 20
4.8
 11
13.89318413812935
 21
4.8
  0
LINE
  5
140
100
AcDbEntity
  8
0
  6
CONTINUOUS
 62
             7
100
AcDbLine
 10
11.7467598990455
 20
8.15320888862379
 11
12.40604857951796
 21
8.70641777724759
  0
LINE
  5
13F
100
AcDbEntity
  8
0
  6
CONTINUOUS
 62
             7
100
AcDbLine
 10
12.40604857951796
 20
8.70641777724759
 11
12.80039808462306
 21
10.94288495612538
  0
LINE
  5
13E
100
AcDbEntity
  8
0
  6
CONTINUOUS
 62
             7
100
AcDbLine
 10
12.18646218635489
 20
8.0
 11
12.66316362339257
 21
8.40000000000001
  0
LINE
  5
13D
100
AcDbEntity
  8
0
  6
CONTINUOUS
 62
             7
100
AcDbLine
 10
12.18646218635489
 20
8.0
 11
12.47203873132018
 21
7.59999999999999
  0
LINE
  5
13C
100
AcDbEntity
  8
0
  6
CONTINUOUS
 62
             7
100
AcDbLine
 10
11.72210853235901
 20
7.87144247806269
 11
12.16562095407258
 21
7.34288495612539
  0
LINE
  5
13B
100
AcDbEntity
  8
0
  6
CONTINUOUS
 62
             7
100
AcDbLine
 10
12.16562095407258
 20
7.34288495612539
 11
11.77127144896749
 21
5.10641777724759
  0
LINE
  5
13A
100
AcDbEntity
  8
0
  6
CONTINUOUS
 62
             7
100
AcDbLine
 10
14.33683637660743
 20
7.59999999999999
 11
14.81353781364511
 21
8.0
  0
LINE
  5
139
100
AcDbEntity
  8
0
  6
CONTINUOUS
 62
             7
100
AcDbLine
 10
14.33683637660743
 20
7.59999999999999
 11
12.47203873132018
 21
7.59999999999999
  0
LINE
  5
138
100
AcDbEntity
  8
0
  6
CONTINUOUS
 62
             7
100
AcDbLine
 10
14.81353781364511
 20
8.0
 11
14.52796126867983
 21
8.40000000000001
  0
LINE
  5
137
100
AcDbEntity
  8
0
  6
CONTINUOUS
 62
             7
100
AcDbLine
 10
14.52796126867983
 20
8.40000000000001
 11
12.66316362339257
 21
8.40000000000001
  0
LINE
  5
136
100
AcDbEntity
  8
0
  6
CONTINUOUS
 62
             7
100
AcDbLine
 10
14.83437904592742
 20
8.65711504387461
 11
15.27789146764099
 21
8.12855752193731
  0
LINE
  5
135
100
AcDbEntity
  8
0
  6
CONTINUOUS
 62
             7
100
AcDbLine
 10
15.27789146764099
 20
8.12855752193731
 11
15.60138401605488
 21
8.40000000000001
  0
LINE
  5
134
100
AcDbEntity
  8
0
  6
CONTINUOUS
 62
             7
100
AcDbLine
 10
15.46961550602442
 20
7.65270364466615
 11
15.26611720537214
 21
7.85759628494368
  0
LINE
  5
133
100
AcDbEntity
  8
0
  6
CONTINUOUS
 62
             7
100
AcDbLine
 10
15.26611720537214
 20
7.85759628494368
 11
14.59395142048204
 21
7.29358222275241
  0
LINE
  5
132
100
AcDbEntity
  8
0
  6
CONTINUOUS
 62
             7
100
AcDbLine
 10
12.35688566290949
 20
11.47144247806268
 11
12.80039808462306
 21
10.94288495612538
  0
LINE
  5
131
100
AcDbEntity
  8
0
  6
CONTINUOUS
 62
             7
100
AcDbLine
 10
12.35688566290949
 20
11.47144247806268
 11
12.0333931144956
 21
11.2
  0
LINE
  5
130
100
AcDbEntity
  8
0
  6
CONTINUOUS
 62
             7
100
AcDbLine
 10
13.10681586187065
 20
11.2
 11
12.66330344015708
 21
11.7285575219373
  0
LINE
  5
12F
100
AcDbEntity
  8
0
  6
CONTINUOUS
 62
             7
100
AcDbLine
 10
13.10681586187065
 20
11.2
 11
14.9716135071579
 21
11.2
  0
LINE
  5
12E
100
AcDbEntity
  8
0
  6
CONTINUOUS
 62
             7
100
AcDbLine
 10
14.9716135071579
 20
11.2
 11
15.63090218763036
 21
11.7532088886238
  0
LINE
  5
12D
100
AcDbEntity
  8
0
  6
CONTINUOUS
 62
             7
100
AcDbLine
 10
15.63090218763036
 20
11.7532088886238
 11
15.42381985709675
 21
12.0
  0
LINE
  5
12C
100
AcDbEntity
  8
0
  6
CONTINUOUS
 62
             7
100
AcDbLine
 10
15.88801723150498
 20
11.4467911113762
 11
15.22872855103251
 21
10.89358222275241
  0
LINE
  5
12B
100
AcDbEntity
  8
0
  6
CONTINUOUS
 62
             7
100
AcDbLine
 10
15.22872855103251
 20
10.89358222275241
 11
14.83437904592742
 21
8.65711504387461
  0
LINE
  5
12A
100
AcDbEntity
  8
0
  6
CONTINUOUS
 62
             7
100
AcDbLine
 10
6.51320401142903
 20
4.0
 11
4.07618014290325
 21
4.0
  0
LINE
  5
129
100
AcDbEntity
  8
0
  6
CONTINUOUS
 62
             7
100
AcDbLine
 10
4.07618014290325
 20
4.0
 11
3.86909781236964
 21
4.2467911113762
  0
LINE
  5
128
100
AcDbEntity
  8
0
  6
CONTINUOUS
 62
             7
100
AcDbLine
 10
3.40490043796142
 20
4.8
 11
3.89861598394512
 21
7.59999999999999
  0
LINE
  5
127
100
AcDbEntity
  8
0
  6
CONTINUOUS
 62
             7
100
AcDbLine
 10
3.89861598394512
 20
7.59999999999999
 11
4.22210853235901
 21
7.87144247806269
  0
LINE
  5
126
100
AcDbEntity
  8
0
  6
CONTINUOUS
 62
             7
100
AcDbLine
 10
7.96961550602442
 20
7.65270364466615
 11
7.48927802187148
 21
4.9285744035087
  0
LINE
  5
125
100
AcDbEntity
  8
0
  6
CONTINUOUS
 62
             7
100
AcDbLine
 10
7.48927802187148
 20
4.9285744035087
 11
7.12817783744878
 21
4.54635814904611
  0
LINE
  5
124
100
AcDbEntity
  8
0
  6
CONTINUOUS
 62
             7
100
AcDbLine
 10
8.10138401605487
 20
8.40000000000001
 11
8.59509956203858
 21
11.2
  0
LINE
  5
123
100
AcDbEntity
  8
0
  6
CONTINUOUS
 62
             7
100
AcDbLine
 10
8.59509956203858
 20
11.2
 11
8.38801723150498
 21
11.4467911113762
  0
LINE
  5
122
100
AcDbEntity
  8
0
  6
CONTINUOUS
 62
             7
100
AcDbLine
 10
7.92381985709675
 20
12.0
 11
5.48679598857097
 21
12.0
  0
LINE
  5
121
100
AcDbEntity
  8
0
  6
CONTINUOUS
 62
             7
100
AcDbLine
 10
5.48679598857097
 20
12.0
 11
5.16330344015708
 21
11.7285575219373
  0
LINE
  5
120
100
AcDbEntity
  8
0
  6
CONTINUOUS
 62
             7
100
AcDbLine
 10
4.5333931144956
 20
11.2
 11
4.0396775685119
 21
8.40000000000001
  0
LINE
  5
11F
100
AcDbEntity
  8
0
  6
CONTINUOUS
 62
             7
100
AcDbLine
 10
4.0396775685119
 20
8.40000000000001
 11
4.2467598990455
 21
8.15320888862379
  0
LINE
  5
11E
100
AcDbEntity
  8
0
  6
CONTINUOUS
 62
             7
100
AcDbLine
 10
6.69960191537694
 20
5.05711504387462
 11
7.12817783744878
 21
4.54635814904611
  0
LINE
  5
11D
100
AcDbEntity
  8
0
  6
CONTINUOUS
 62
             7
100
AcDbLine
 10
6.69960191537694
 20
5.05711504387462
 11
7.09395142048204
 21
7.29358222275241
  0
LINE
  5
11C
100
AcDbEntity
  8
0
  6
CONTINUOUS
 62
             7
100
AcDbLine
 10
6.83669655984292
 20
4.2714424780627
 11
6.39318413812935
 21
4.8
  0
LINE
  5
11B
100
AcDbEntity
  8
0
  6
CONTINUOUS
 62
             7
100
AcDbLine
 10
6.83669655984292
 20
4.2714424780627
 11
6.51320401142903
 21
4.0
  0
LINE
  5
11A
100
AcDbEntity
  8
0
  6
CONTINUOUS
 62
             7
100
AcDbLine
 10
3.61198276849503
 20
4.5532088886238
 11
4.27127144896748
 21
5.10641777724759
  0
LINE
  5
119
100
AcDbEntity
  8
0
  6
CONTINUOUS
 62
             7
100
AcDbLine
 10
3.61198276849503
 20
4.5532088886238
 11
3.40490043796142
 21
4.8
  0
LINE
  5
118
100
AcDbEntity
  8
0
  6
CONTINUOUS
 62
             7
100
AcDbLine
 10
3.86909781236964
 20
4.2467911113762
 11
4.5283864928421
 21
4.8
  0
LINE
  5
117
100
AcDbEntity
  8
0
  6
CONTINUOUS
 62
             7
100
AcDbLine
 10
4.5283864928421
 20
4.8
 11
6.39318413812935
 21
4.8
  0
LINE
  5
116
100
AcDbEntity
  8
0
  6
CONTINUOUS
 62
             7
100
AcDbLine
 10
4.2467598990455
 20
8.15320888862379
 11
4.90604857951796
 21
8.70641777724759
  0
LINE
  5
115
100
AcDbEntity
  8
0
  6
CONTINUOUS
 62
             7
100
AcDbLine
 10
4.90604857951796
 20
8.70641777724759
 11
5.30039808462306
 21
10.94288495612538
  0
LINE
  5
114
100
AcDbEntity
  8
0
  6
CONTINUOUS
 62
             7
100
AcDbLine
 10
4.68646218635489
 20
8.0
 11
5.16316362339257
 21
8.40000000000001
  0
LINE
  5
113
100
AcDbEntity
  8
0
  6
CONTINUOUS
 62
             7
100
AcDbLine
 10
4.68646218635489
 20
8.0
 11
4.97203873132018
 21
7.59999999999999
  0
LINE
  5
112
100
AcDbEntity
  8
0
  6
CONTINUOUS
 62
             7
100
AcDbLine
 10
4.22210853235901
 20
7.87144247806269
 11
4.66562095407259
 21
7.34288495612539
  0
LINE
  5
111
100
AcDbEntity
  8
0
  6
CONTINUOUS
 62
             7
100
AcDbLine
 10
4.66562095407259
 20
7.34288495612539
 11
4.27127144896748
 21
5.10641777724759
  0
LINE
  5
110
100
AcDbEntity
  8
0
  6
CONTINUOUS
 62
             7
100
AcDbLine
 10
6.83683637660742
 20
7.59999999999999
 11
7.31353781364511
 21
8.0
  0
LINE
  5
10F
100
AcDbEntity
  8
0
  6
CONTINUOUS
 62
             7
100
AcDbLine
 10
6.83683637660742
 20
7.59999999999999
 11
4.97203873132018
 21
7.59999999999999
  0
LINE
  5
10E
100
AcDbEntity
  8
0
  6
CONTINUOUS
 62
             7
100
AcDbLine
 10
7.31353781364511
 20
8.0
 11
7.02796126867983
 21
8.40000000000001
  0
LINE
  5
10D
100
AcDbEntity
  8
0
  6
CONTINUOUS
 62
             7
100
AcDbLine
 10
7.02796126867983
 20
8.40000000000001
 11
5.16316362339257
 21
8.40000000000001
  0
LINE
  5
10C
100
AcDbEntity
  8
0
  6
CONTINUOUS
 62
             7
100
AcDbLine
 10
7.33437904592742
 20
8.65711504387461
 11
7.77789146764099
 21
8.12855752193731
  0
LINE
  5
10B
100
AcDbEntity
  8
0
  6
CONTINUOUS
 62
             7
100
AcDbLine
 10
7.77789146764099
 20
8.12855752193731
 11
8.10138401605487
 21
8.40000000000001
  0
LINE
  5
10A
100
AcDbEntity
  8
0
  6
CONTINUOUS
 62
             7
100
AcDbLine
 10
7.96961550602442
 20
7.65270364466615
 11
7.76611720537214
 21
7.85759628494368
  0
LINE
  5
109
100
AcDbEntity
  8
0
  6
CONTINUOUS
 62
             7
100
AcDbLine
 10
7.76611720537214
 20
7.85759628494368
 11
7.09395142048204
 21
7.29358222275241
  0
LINE
  5
108
100
AcDbEntity
  8
0
  6
CONTINUOUS
 62
             7
100
AcDbLine
 10
4.85688566290949
 20
11.47144247806268
 11
5.30039808462306
 21
10.94288495612538
  0
LINE
  5
107
100
AcDbEntity
  8
0
  6
CONTINUOUS
 62
             7
100
AcDbLine
 10
4.85688566290949
 20
11.47144247806268
 11
4.5333931144956
 21
11.2
  0
LINE
  5
106
100
AcDbEntity
  8
0
  6
CONTINUOUS
 62
             7
100
AcDbLine
 10
5.60681586187065
 20
11.2
 11
5.16330344015708
 21
11.7285575219373
  0
LINE
  5
105
100
AcDbEntity
  8
0
  6
CONTINUOUS
 62
             7
100
AcDbLine
 10
5.60681586187065
 20
11.2
 11
7.4716135071579
 21
11.2
  0
LINE
  5
104
100
AcDbEntity
  8
0
  6
CONTINUOUS
 62
             7
100
AcDbLine
 10
7.4716135071579
 20
11.2
 11
8.13090218763036
 21
11.7532088886238
  0
LINE
  5
103
100
AcDbEntity
  8
0
  6
CONTINUOUS
 62
             7
100
AcDbLine
 10
8.13090218763036
 20
11.7532088886238
 11
7.92381985709675
 21
12.0
  0
LINE
  5
102
100
AcDbEntity
  8
0
  6
CONTINUOUS
 62
             7
100
AcDbLine
 10
8.38801723150498
 20
11.4467911113762
 11
7.72872855103251
 21
10.89358222275241
  0
LINE
  5
101
100
AcDbEntity
  8
0
  6
CONTINUOUS
 62
             7
100
AcDbLine
 10
7.72872855103251
 20
10.89358222275241
 11
7.33437904592742
 21
8.65711504387461
  0
LINE
  5
100
100
AcDbEntity
  8
0
  6
CONTINUOUS
 62
             7
100
AcDbLine
 10
0.22872855103252
 20
10.89358222275241
 11
-0.16562095407259
 21
8.65711504387461
  0
LINE
  5
FF
100
AcDbEntity
  8
0
  6
CONTINUOUS
 62
             7
100
AcDbLine
 10
0.88801723150497
 20
11.4467911113762
 11
0.22872855103252
 21
10.89358222275241
  0
LINE
  5
FE
100
AcDbEntity
  8
0
  6
CONTINUOUS
 62
             7
100
AcDbLine
 10
0.63090218763036
 20
11.7532088886238
 11
0.42381985709675
 21
12.0
  0
LINE
  5
FD
100
AcDbEntity
  8
0
  6
CONTINUOUS
 62
             7
100
AcDbLine
 10
-0.0283864928421
 20
11.2
 11
0.63090218763036
 21
11.7532088886238
  0
LINE
  5
FC
100
AcDbEntity
  8
0
  6
CONTINUOUS
 62
             7
100
AcDbLine
 10
-1.89318413812935
 20
11.2
 11
-0.0283864928421
 21
11.2
  0
LINE
  5
FB
100
AcDbEntity
  8
0
  6
CONTINUOUS
 62
             7
100
AcDbLine
 10
-1.89318413812935
 20
11.2
 11
-2.33669655984292
 21
11.7285575219373
  0
LINE
  5
FA
100
AcDbEntity
  8
0
  6
CONTINUOUS
 62
             7
100
AcDbLine
 10
-2.64311433709051
 20
11.47144247806268
 11
-2.9666068855044
 21
11.2
  0
LINE
  5
F9
100
AcDbEntity
  8
0
  6
CONTINUOUS
 62
             7
100
AcDbLine
 10
-2.64311433709051
 20
11.47144247806268
 11
-2.19960191537694
 21
10.94288495612538
  0
LINE
  5
F8
100
AcDbEntity
  8
0
  6
CONTINUOUS
 62
             7
100
AcDbLine
 10
0.26611720537214
 20
7.85759628494368
 11
-0.40604857951796
 21
7.29358222275241
  0
LINE
  5
F7
100
AcDbEntity
  8
0
  6
CONTINUOUS
 62
             7
100
AcDbLine
 10
0.46961550602442
 20
7.65270364466615
 11
0.26611720537214
 21
7.85759628494368
  0
LINE
  5
F6
100
AcDbEntity
  8
0
  6
CONTINUOUS
 62
             7
100
AcDbLine
 10
0.27789146764099
 20
8.12855752193731
 11
0.60138401605488
 21
8.40000000000001
  0
LINE
  5
F5
100
AcDbEntity
  8
0
  6
CONTINUOUS
 62
             7
100
AcDbLine
 10
-0.16562095407259
 20
8.65711504387461
 11
0.27789146764099
 21
8.12855752193731
  0
LINE
  5
F4
100
AcDbEntity
  8
0
  6
CONTINUOUS
 62
             7
100
AcDbLine
 10
-0.47203873132018
 20
8.40000000000001
 11
-2.33683637660743
 21
8.40000000000001
  0
LINE
  5
F3
100
AcDbEntity
  8
0
  6
CONTINUOUS
 62
             7
100
AcDbLine
 10
-0.18646218635489
 20
8.0
 11
-0.47203873132018
 21
8.40000000000001
  0
LINE
  5
F2
100
AcDbEntity
  8
0
  6
CONTINUOUS
 62
             7
100
AcDbLine
 10
-0.66316362339257
 20
7.59999999999999
 11
-2.52796126867983
 21
7.59999999999999
  0
LINE
  5
F1
100
AcDbEntity
  8
0
  6
CONTINUOUS
 62
             7
100
AcDbLine
 10
-0.66316362339257
 20
7.59999999999999
 11
-0.18646218635489
 21
8.0
  0
LINE
  5
F0
100
AcDbEntity
  8
0
  6
CONTINUOUS
 62
             7
100
AcDbLine
 10
-2.83437904592742
 20
7.34288495612539
 11
-3.22872855103252
 21
5.10641777724759
  0
LINE
  5
EF
100
AcDbEntity
  8
0
  6
CONTINUOUS
 62
             7
100
AcDbLine
 10
-3.27789146764099
 20
7.87144247806269
 11
-2.83437904592742
 21
7.34288495612539
  0
LINE
  5
EE
100
AcDbEntity
  8
0
  6
CONTINUOUS
 62
             7
100
AcDbLine
 10
-2.81353781364511
 20
8.0
 11
-2.52796126867983
 21
7.59999999999999
  0
LINE
  5
ED
100
AcDbEntity
  8
0
  6
CONTINUOUS
 62
             7
100
AcDbLine
 10
-2.81353781364511
 20
8.0
 11
-2.33683637660743
 21
8.40000000000001
  0
LINE
  5
EC
100
AcDbEntity
  8
0
  6
CONTINUOUS
 62
             7
100
AcDbLine
 10
-2.59395142048204
 20
8.70641777724759
 11
-2.19960191537694
 21
10.94288495612538
  0
LINE
  5
EB
100
AcDbEntity
  8
0
  6
CONTINUOUS
 62
             7
100
AcDbLine
 10
-3.2532401009545
 20
8.15320888862379
 11
-2.59395142048204
 21
8.70641777724759
  0
LINE
  5
EA
100
AcDbEntity
  8
0
  6
CONTINUOUS
 62
             7
100
AcDbLine
 10
-2.9716135071579
 20
4.8
 11
-1.10681586187065
 21
4.8
  0
LINE
  5
E9
100
AcDbEntity
  8
0
  6
CONTINUOUS
 62
             7
100
AcDbLine
 10
-3.63090218763036
 20
4.2467911113762
 11
-2.9716135071579
 21
4.8
  0
LINE
  5
E8
100
AcDbEntity
  8
0
  6
CONTINUOUS
 62
             7
100
AcDbLine
 10
-3.88801723150497
 20
4.5532088886238
 11
-4.09509956203858
 21
4.8
  0
LINE
  5
E7
100
AcDbEntity
  8
0
  6
CONTINUOUS
 62
             7
100
AcDbLine
 10
-3.88801723150497
 20
4.5532088886238
 11
-3.22872855103252
 21
5.10641777724759
  0
LINE
  5
E6
100
AcDbEntity
  8
0
  6
CONTINUOUS
 62
             7
100
AcDbLine
 10
-0.66330344015708
 20
4.2714424780627
 11
-0.98679598857097
 21
4.0
  0
LINE
  5
E5
100
AcDbEntity
  8
0
  6
CONTINUOUS
 62
             7
100
AcDbLine
 10
-0.66330344015708
 20
4.2714424780627
 11
-1.10681586187065
 21
4.8
  0
LINE
  5
E4
100
AcDbEntity
  8
0
  6
CONTINUOUS
 62
             7
100
AcDbLine
 10
-0.80039808462306
 20
5.05711504387462
 11
-0.40604857951796
 21
7.29358222275241
  0
LINE
  5
E3
100
AcDbEntity
  8
0
  6
CONTINUOUS
 62
             7
100
AcDbLine
 10
-0.80039808462306
 20
5.05711504387462
 11
-0.37182216255121
 21
4.54635814904611
  0
LINE
  5
E2
100
AcDbEntity
  8
0
  6
CONTINUOUS
 62
             7
100
AcDbLine
 10
-3.4603224314881
 20
8.40000000000001
 11
-3.2532401009545
 21
8.15320888862379
  0
LINE
  5
E1
100
AcDbEntity
  8
0
  6
CONTINUOUS
 62
             7
100
AcDbLine
 10
-2.9666068855044
 20
11.2
 11
-3.4603224314881
 21
8.40000000000001
  0
LINE
  5
E0
100
AcDbEntity
  8
0
  6
CONTINUOUS
 62
             7
100
AcDbLine
 10
-2.01320401142903
 20
12.0
 11
-2.33669655984292
 21
11.7285575219373
  0
LINE
  5
DF
100
AcDbEntity
  8
0
  6
CONTINUOUS
 62
             7
100
AcDbLine
 10
0.42381985709675
 20
12.0
 11
-2.01320401142903
 21
12.0
  0
LINE
  5
DE
100
AcDbEntity
  8
0
  6
CONTINUOUS
 62
             7
100
AcDbLine
 10
1.09509956203858
 20
11.2
 11
0.88801723150497
 21
11.4467911113762
  0
LINE
  5
DD
100
AcDbEntity
  8
0
  6
CONTINUOUS
 62
             7
100
AcDbLine
 10
0.60138401605488
 20
8.40000000000001
 11
1.09509956203858
 21
11.2
  0
LINE
  5
DC
100
AcDbEntity
  8
0
  6
CONTINUOUS
 62
             7
100
AcDbLine
 10
-0.01072197812852
 20
4.9285744035087
 11
-0.37182216255121
 21
4.54635814904611
  0
LINE
  5
DB
100
AcDbEntity
  8
0
  6
CONTINUOUS
 62
             7
100
AcDbLine
 10
0.46961550602442
 20
7.65270364466615
 11
-0.01072197812852
 21
4.9285744035087
  0
LINE
  5
DA
100
AcDbEntity
  8
0
  6
CONTINUOUS
 62
             7
100
AcDbLine
 10
-3.60138401605488
 20
7.59999999999999
 11
-3.27789146764099
 21
7.87144247806269
  0
LINE
  5
D9
100
AcDbEntity
  8
0
  6
CONTINUOUS
 62
             7
100
AcDbLine
 10
-4.09509956203858
 20
4.8
 11
-3.60138401605488
 21
7.59999999999999
  0
LINE
  5
D8
100
AcDbEntity
  8
0
  6
CONTINUOUS
 62
             7
100
AcDbLine
 10
-3.42381985709675
 20
4.0
 11
-3.63090218763036
 21
4.2467911113762
  0
LINE
  5
D7
100
AcDbEntity
  8
0
  6
CONTINUOUS
 62
             7
100
AcDbLine
 10
-0.98679598857097
 20
4.0
 11
-3.42381985709675
 21
4.0
  0
LINE
  5
D6
100
AcDbEntity
  8
0
  6
CONTINUOUS
 62
             7
100
AcDbLine
 10
156.40000000000009
 20
9.888600093633
 11
156.40000000000009
 21
8.11139990636713
  0
LINE
  5
D5
100
AcDbEntity
  8
0
  6
CONTINUOUS
 62
             7
100
AcDbLine
 10
156.40000000000009
 20
11.75000000000007
 11
157.1391201416246
 21
11.75000000000007
  0
LINE
  5
D4
100
AcDbEntity
  8
0
  6
CONTINUOUS
 62
             7
100
AcDbLine
 10
157.1391201416246
 20
6.25000000000007
 11
156.40000000000009
 21
6.25000000000007
  0
LINE
  5
D3
100
AcDbEntity
  8
0
  6
CONTINUOUS
 62
             7
100
AcDbLine
 10
156.00000000000011
 20
12.40000000000006
 11
155.00000000000011
 21
12.40000000000006
  0
LINE
  5
D2
100
AcDbEntity
  8
0
  6
CONTINUOUS
 62
             7
100
AcDbLine
 10
156.00000000000011
 20
5.60000000000007
 11
155.00000000000011
 21
5.60000000000007
  0
LINE
  5
D1
100
AcDbEntity
  8
0
  6
CONTINUOUS
 62
             7
100
AcDbLine
 10
156.00000000000011
 20
12.40000000000006
 11
156.40000000000009
 21
10.75000000000007
  0
LINE
  5
D0
100
AcDbEntity
  8
0
  6
CONTINUOUS
 62
             7
100
AcDbLine
 10
155.00000000000011
 20
12.40000000000006
 11
155.40000000000009
 21
10.75000000000007
  0
LINE
  5
CF
100
AcDbEntity
  8
0
  6
CONTINUOUS
 62
             7
100
AcDbLine
 10
156.00000000000011
 20
9.60000000000007
 11
156.27022468831771
 21
9.70133425811919
  0
LINE
  5
CE
100
AcDbEntity
  8
0
  6
CONTINUOUS
 62
             7
100
AcDbLine
 10
156.00000000000011
 20
9.60000000000007
 11
156.00000000000011
 21
8.40000000000006
  0
LINE
  5
CD
100
AcDbEntity
  8
0
  6
CONTINUOUS
 62
             7
100
AcDbLine
 10
156.00000000000011
 20
8.40000000000006
 11
156.27022468831771
 21
8.29866574188094
  0
LINE
  5
CC
100
AcDbEntity
  8
0
  6
CONTINUOUS
 62
             7
100
AcDbLine
 10
155.00000000000011
 20
9.60000000000007
 11
155.27022468831771
 21
9.70133425811919
  0
LINE
  5
CB
100
AcDbEntity
  8
0
  6
CONTINUOUS
 62
             7
100
AcDbLine
 10
155.00000000000011
 20
8.40000000000006
 11
155.27022468831771
 21
8.29866574188094
  0
LINE
  5
CA
100
AcDbEntity
  8
0
  6
CONTINUOUS
 62
             7
100
AcDbLine
 10
156.40000000000009
 20
12.40000000000006
 11
156.40000000000009
 21
9.888600093633
  0
LINE
  5
C9
100
AcDbEntity
  8
0
  6
CONTINUOUS
 62
             7
100
AcDbLine
 10
156.40000000000009
 20
7.25000000000007
 11
156.00000000000011
 21
5.60000000000007
  0
LINE
  5
C8
100
AcDbEntity
  8
0
  6
CONTINUOUS
 62
             7
100
AcDbLine
 10
155.40000000000009
 20
7.25000000000007
 11
155.00000000000011
 21
5.60000000000007
  0
LINE
  5
C7
100
AcDbEntity
  8
0
  6
CONTINUOUS
 62
             7
100
AcDbLine
 10
155.40000000000009
 20
10.75000000000007
 11
155.40000000000009
 21
10.22950000000006
  0
LINE
  5
C6
100
AcDbEntity
  8
0
  6
CONTINUOUS
 62
             7
100
AcDbLine
 10
155.40000000000009
 20
7.77050000000007
 11
155.40000000000009
 21
8.11139990636713
  0
LINE
  5
C5
100
AcDbEntity
  8
0
  6
CONTINUOUS
 62
             7
100
AcDbLine
 10
156.40000000000009
 20
12.40000000000006
 11
156.00000000000011
 21
12.40000000000006
  0
LINE
  5
C4
100
AcDbEntity
  8
0
  6
CONTINUOUS
 62
             7
100
AcDbLine
 10
156.40000000000009
 20
5.60000000000007
 11
156.00000000000011
 21
5.60000000000007
  0
LINE
  5
C3
100
AcDbEntity
  8
0
  6
CONTINUOUS
 62
             7
100
AcDbLine
 10
155.00000000000011
 20
10.22950000000006
 11
155.40000000000009
 21
10.22950000000006
  0
LINE
  5
C2
100
AcDbEntity
  8
0
  6
CONTINUOUS
 62
             7
100
AcDbLine
 10
155.40000000000009
 20
10.22950000000006
 11
155.40000000000009
 21
9.888600093633
  0
LINE
  5
C1
100
AcDbEntity
  8
0
  6
CONTINUOUS
 62
             7
100
AcDbLine
 10
155.00000000000011
 20
7.77050000000007
 11
155.40000000000009
 21
7.77050000000007
  0
LINE
  5
C0
100
AcDbEntity
  8
0
  6
CONTINUOUS
 62
             7
100
AcDbLine
 10
155.40000000000009
 20
7.77050000000007
 11
155.40000000000009
 21
7.25000000000007
  0
LINE
  5
BF
100
AcDbEntity
  8
0
  6
CONTINUOUS
 62
             7
100
AcDbLine
 10
156.40000000000009
 20
5.60000000000007
 11
156.40000000000009
 21
8.11139990636713
  0
LINE
  5
BE
100
AcDbEntity
  8
1
  6
CONTINUOUS
 62
             7
100
AcDbLine
 10
155.00000000000011
 20
12.45000000000005
 11
155.00000000000011
 21
5.55000000000007
  0
LINE
  5
BD
100
AcDbEntity
  8
0
  6
CONTINUOUS
 62
             7
100
AcDbLine
 10
156.40000000000009
 20
18.88860009363302
 11
156.40000000000009
 21
17.11139990636714
  0
LINE
  5
BC
100
AcDbEntity
  8
0
  6
CONTINUOUS
 62
             7
100
AcDbLine
 10
156.40000000000009
 20
20.75000000000009
 11
157.1391201416246
 21
20.75000000000009
  0
LINE
  5
BB
100
AcDbEntity
  8
0
  6
CONTINUOUS
 62
             7
100
AcDbLine
 10
157.1391201416246
 20
15.25000000000009
 11
156.40000000000009
 21
15.25000000000009
  0
LINE
  5
BA
100
AcDbEntity
  8
0
  6
CONTINUOUS
 62
             7
100
AcDbLine
 10
156.00000000000011
 20
21.40000000000008
 11
155.00000000000011
 21
21.40000000000008
  0
LINE
  5
B9
100
AcDbEntity
  8
0
  6
CONTINUOUS
 62
             7
100
AcDbLine
 10
156.00000000000011
 20
14.60000000000008
 11
155.00000000000011
 21
14.60000000000008
  0
LINE
  5
B8
100
AcDbEntity
  8
0
  6
CONTINUOUS
 62
             7
100
AcDbLine
 10
156.00000000000011
 20
21.40000000000008
 11
156.40000000000009
 21
19.75000000000009
  0
LINE
  5
B7
100
AcDbEntity
  8
0
  6
CONTINUOUS
 62
             7
100
AcDbLine
 10
155.00000000000011
 20
21.40000000000008
 11
155.40000000000009
 21
19.75000000000009
  0
LINE
  5
B6
100
AcDbEntity
  8
0
  6
CONTINUOUS
 62
             7
100
AcDbLine
 10
156.00000000000011
 20
18.60000000000008
 11
156.27022468831771
 21
18.7013342581192
  0
LINE
  5
B5
100
AcDbEntity
  8
0
  6
CONTINUOUS
 62
             7
100
AcDbLine
 10
156.00000000000011
 20
18.60000000000008
 11
156.00000000000011
 21
17.40000000000008
  0
LINE
  5
B4
100
AcDbEntity
  8
0
  6
CONTINUOUS
 62
             7
100
AcDbLine
 10
156.00000000000011
 20
17.40000000000008
 11
156.27022468831771
 21
17.29866574188095
  0
LINE
  5
B3
100
AcDbEntity
  8
0
  6
CONTINUOUS
 62
             7
100
AcDbLine
 10
155.00000000000011
 20
18.60000000000008
 11
155.27022468831771
 21
18.7013342581192
  0
LINE
  5
B2
100
AcDbEntity
  8
0
  6
CONTINUOUS
 62
             7
100
AcDbLine
 10
155.00000000000011
 20
17.40000000000008
 11
155.27022468831771
 21
17.29866574188095
  0
LINE
  5
B1
100
AcDbEntity
  8
0
  6
CONTINUOUS
 62
             7
100
AcDbLine
 10
156.40000000000009
 20
21.40000000000008
 11
156.40000000000009
 21
18.88860009363302
  0
LINE
  5
B0
100
AcDbEntity
  8
0
  6
CONTINUOUS
 62
             7
100
AcDbLine
 10
156.40000000000009
 20
16.25000000000009
 11
156.00000000000011
 21
14.60000000000008
  0
LINE
  5
AF
100
AcDbEntity
  8
0
  6
CONTINUOUS
 62
             7
100
AcDbLine
 10
155.40000000000009
 20
16.25000000000009
 11
155.00000000000011
 21
14.60000000000008
  0
LINE
  5
AE
100
AcDbEntity
  8
0
  6
CONTINUOUS
 62
             7
100
AcDbLine
 10
155.40000000000009
 20
19.75000000000009
 11
155.40000000000009
 21
19.22950000000007
  0
LINE
  5
AD
100
AcDbEntity
  8
0
  6
CONTINUOUS
 62
             7
100
AcDbLine
 10
155.40000000000009
 20
16.77050000000008
 11
155.40000000000009
 21
17.11139990636714
  0
LINE
  5
AC
100
AcDbEntity
  8
0
  6
CONTINUOUS
 62
             7
100
AcDbLine
 10
156.40000000000009
 20
21.40000000000008
 11
156.00000000000011
 21
21.40000000000008
  0
LINE
  5
AB
100
AcDbEntity
  8
0
  6
CONTINUOUS
 62
             7
100
AcDbLine
 10
156.40000000000009
 20
14.60000000000008
 11
156.00000000000011
 21
14.60000000000008
  0
LINE
  5
AA
100
AcDbEntity
  8
0
  6
CONTINUOUS
 62
             7
100
AcDbLine
 10
155.00000000000011
 20
19.22950000000007
 11
155.40000000000009
 21
19.22950000000007
  0
LINE
  5
A9
100
AcDbEntity
  8
0
  6
CONTINUOUS
 62
             7
100
AcDbLine
 10
155.40000000000009
 20
19.22950000000007
 11
155.40000000000009
 21
18.88860009363302
  0
LINE
  5
A8
100
AcDbEntity
  8
0
  6
CONTINUOUS
 62
             7
100
AcDbLine
 10
155.00000000000011
 20
16.77050000000008
 11
155.40000000000009
 21
16.77050000000008
  0
LINE
  5
A7
100
AcDbEntity
  8
0
  6
CONTINUOUS
 62
             7
100
AcDbLine
 10
155.40000000000009
 20
16.77050000000008
 11
155.40000000000009
 21
16.25000000000009
  0
LINE
  5
A6
100
AcDbEntity
  8
0
  6
CONTINUOUS
 62
             7
100
AcDbLine
 10
156.40000000000009
 20
14.60000000000008
 11
156.40000000000009
 21
17.11139990636714
  0
LINE
  5
A5
100
AcDbEntity
  8
1
  6
CONTINUOUS
 62
             7
100
AcDbLine
 10
155.00000000000011
 20
21.45000000000006
 11
155.00000000000011
 21
14.55000000000008
  0
LINE
  5
A4
100
AcDbEntity
  8
0
  6
CONTINUOUS
 62
             7
100
AcDbLine
 10
156.40000000000009
 20
27.88860009363303
 11
156.40000000000009
 21
26.11139990636715
  0
LINE
  5
A3
100
AcDbEntity
  8
0
  6
CONTINUOUS
 62
             7
100
AcDbLine
 10
156.40000000000009
 20
29.7500000000001
 11
157.1391201416246
 21
29.7500000000001
  0
LINE
  5
A2
100
AcDbEntity
  8
0
  6
CONTINUOUS
 62
             7
100
AcDbLine
 10
157.1391201416246
 20
24.2500000000001
 11
156.40000000000009
 21
24.2500000000001
  0
LINE
  5
A1
100
AcDbEntity
  8
0
  6
CONTINUOUS
 62
             7
100
AcDbLine
 10
156.00000000000011
 20
30.40000000000009
 11
155.00000000000011
 21
30.40000000000009
  0
LINE
  5
A0
100
AcDbEntity
  8
0
  6
CONTINUOUS
 62
             7
100
AcDbLine
 10
156.00000000000011
 20
23.60000000000009
 11
155.00000000000011
 21
23.60000000000009
  0
LINE
  5
9F
100
AcDbEntity
  8
0
  6
CONTINUOUS
 62
             7
100
AcDbLine
 10
156.00000000000011
 20
30.40000000000009
 11
156.40000000000009
 21
28.7500000000001
  0
LINE
  5
9E
100
AcDbEntity
  8
0
  6
CONTINUOUS
 62
             7
100
AcDbLine
 10
155.00000000000011
 20
30.40000000000009
 11
155.40000000000009
 21
28.7500000000001
  0
LINE
  5
9D
100
AcDbEntity
  8
0
  6
CONTINUOUS
 62
             7
100
AcDbLine
 10
156.00000000000011
 20
27.60000000000009
 11
156.27022468831771
 21
27.70133425811922
  0
LINE
  5
9C
100
AcDbEntity
  8
0
  6
CONTINUOUS
 62
             7
100
AcDbLine
 10
156.00000000000011
 20
27.60000000000009
 11
156.00000000000011
 21
26.40000000000009
  0
LINE
  5
9B
100
AcDbEntity
  8
0
  6
CONTINUOUS
 62
             7
100
AcDbLine
 10
156.00000000000011
 20
26.40000000000009
 11
156.27022468831771
 21
26.29866574188097
  0
LINE
  5
9A
100
AcDbEntity
  8
0
  6
CONTINUOUS
 62
             7
100
AcDbLine
 10
155.00000000000011
 20
27.60000000000009
 11
155.27022468831771
 21
27.70133425811922
  0
LINE
  5
99
100
AcDbEntity
  8
0
  6
CONTINUOUS
 62
             7
100
AcDbLine
 10
155.00000000000011
 20
26.40000000000009
 11
155.27022468831771
 21
26.29866574188097
  0
LINE
  5
98
100
AcDbEntity
  8
0
  6
CONTINUOUS
 62
             7
100
AcDbLine
 10
156.40000000000009
 20
30.40000000000009
 11
156.40000000000009
 21
27.88860009363303
  0
LINE
  5
97
100
AcDbEntity
  8
0
  6
CONTINUOUS
 62
             7
100
AcDbLine
 10
156.40000000000009
 20
25.2500000000001
 11
156.00000000000011
 21
23.60000000000009
  0
LINE
  5
96
100
AcDbEntity
  8
0
  6
CONTINUOUS
 62
             7
100
AcDbLine
 10
155.40000000000009
 20
25.2500000000001
 11
155.00000000000011
 21
23.60000000000009
  0
LINE
  5
95
100
AcDbEntity
  8
0
  6
CONTINUOUS
 62
             7
100
AcDbLine
 10
155.40000000000009
 20
28.7500000000001
 11
155.40000000000009
 21
28.22950000000009
  0
LINE
  5
94
100
AcDbEntity
  8
0
  6
CONTINUOUS
 62
             7
100
AcDbLine
 10
155.40000000000009
 20
25.7705000000001
 11
155.40000000000009
 21
26.11139990636715
  0
LINE
  5
93
100
AcDbEntity
  8
0
  6
CONTINUOUS
 62
             7
100
AcDbLine
 10
156.40000000000009
 20
30.40000000000009
 11
156.00000000000011
 21
30.40000000000009
  0
LINE
  5
92
100
AcDbEntity
  8
0
  6
CONTINUOUS
 62
             7
100
AcDbLine
 10
156.40000000000009
 20
23.60000000000009
 11
156.00000000000011
 21
23.60000000000009
  0
LINE
  5
91
100
AcDbEntity
  8
0
  6
CONTINUOUS
 62
             7
100
AcDbLine
 10
155.00000000000011
 20
28.22950000000009
 11
155.40000000000009
 21
28.22950000000009
  0
LINE
  5
90
100
AcDbEntity
  8
0
  6
CONTINUOUS
 62
             7
100
AcDbLine
 10
155.40000000000009
 20
28.22950000000009
 11
155.40000000000009
 21
27.88860009363303
  0
LINE
  5
8F
100
AcDbEntity
  8
0
  6
CONTINUOUS
 62
             7
100
AcDbLine
 10
155.00000000000011
 20
25.7705000000001
 11
155.40000000000009
 21
25.7705000000001
  0
LINE
  5
8E
100
AcDbEntity
  8
0
  6
CONTINUOUS
 62
             7
100
AcDbLine
 10
155.40000000000009
 20
25.7705000000001
 11
155.40000000000009
 21
25.2500000000001
  0
LINE
  5
8D
100
AcDbEntity
  8
0
  6
CONTINUOUS
 62
             7
100
AcDbLine
 10
156.40000000000009
 20
23.60000000000009
 11
156.40000000000009
 21
26.11139990636715
  0
LINE
  5
8C
100
AcDbEntity
  8
1
  6
CONTINUOUS
 62
             7
100
AcDbLine
 10
155.00000000000011
 20
30.45000000000007
 11
155.00000000000011
 21
23.5500000000001
  0
LINE
  5
8B
100
AcDbEntity
  8
0
  6
CONTINUOUS
 62
             7
100
AcDbLine
 10
156.40000000000009
 20
0.888600093633
 11
156.40000000000009
 21
-0.88860009363287
  0
LINE
  5
8A
100
AcDbEntity
  8
0
  6
CONTINUOUS
 62
             7
100
AcDbLine
 10
156.40000000000009
 20
2.75000000000007
 11
157.1391201416246
 21
2.75000000000007
  0
LINE
  5
89
100
AcDbEntity
  8
0
  6
CONTINUOUS
 62
             7
100
AcDbLine
 10
157.1391201416246
 20
-2.74999999999993
 11
156.40000000000009
 21
-2.74999999999993
  0
LINE
  5
88
100
AcDbEntity
  8
0
  6
CONTINUOUS
 62
             7
100
AcDbLine
 10
156.00000000000011
 20
3.40000000000006
 11
155.00000000000011
 21
3.40000000000006
  0
LINE
  5
87
100
AcDbEntity
  8
0
  6
CONTINUOUS
 62
             7
100
AcDbLine
 10
156.00000000000011
 20
-3.39999999999994
 11
155.00000000000011
 21
-3.39999999999994
  0
LINE
  5
86
100
AcDbEntity
  8
0
  6
CONTINUOUS
 62
             7
100
AcDbLine
 10
156.00000000000011
 20
3.40000000000006
 11
156.40000000000009
 21
1.75000000000007
  0
LINE
  5
85
100
AcDbEntity
  8
0
  6
CONTINUOUS
 62
             7
100
AcDbLine
 10
155.00000000000011
 20
3.40000000000006
 11
155.40000000000009
 21
1.75000000000007
  0
LINE
  5
84
100
AcDbEntity
  8
0
  6
CONTINUOUS
 62
             7
100
AcDbLine
 10
156.00000000000011
 20
0.60000000000007
 11
156.27022468831771
 21
0.70133425811919
  0
LINE
  5
83
100
AcDbEntity
  8
0
  6
CONTINUOUS
 62
             7
100
AcDbLine
 10
156.00000000000011
 20
0.60000000000007
 11
156.00000000000011
 21
-0.59999999999994
  0
LINE
  5
82
100
AcDbEntity
  8
0
  6
CONTINUOUS
 62
             7
100
AcDbLine
 10
156.00000000000011
 20
-0.59999999999994
 11
156.27022468831771
 21
-0.70133425811906
  0
LINE
  5
81
100
AcDbEntity
  8
0
  6
CONTINUOUS
 62
             7
100
AcDbLine
 10
155.00000000000011
 20
0.60000000000007
 11
155.27022468831771
 21
0.70133425811919
  0
LINE
  5
80
100
AcDbEntity
  8
0
  6
CONTINUOUS
 62
             7
100
AcDbLine
 10
155.00000000000011
 20
-0.59999999999994
 11
155.27022468831771
 21
-0.70133425811906
  0
LINE
  5
7F
100
AcDbEntity
  8
0
  6
CONTINUOUS
 62
             7
100
AcDbLine
 10
156.40000000000009
 20
3.40000000000006
 11
156.40000000000009
 21
0.888600093633
  0
LINE
  5
7E
100
AcDbEntity
  8
0
  6
CONTINUOUS
 62
             7
100
AcDbLine
 10
156.40000000000009
 20
-1.74999999999993
 11
156.00000000000011
 21
-3.39999999999994
  0
LINE
  5
7D
100
AcDbEntity
  8
0
  6
CONTINUOUS
 62
             7
100
AcDbLine
 10
155.40000000000009
 20
-1.74999999999993
 11
155.00000000000011
 21
-3.39999999999994
  0
LINE
  5
7C
100
AcDbEntity
  8
0
  6
CONTINUOUS
 62
             7
100
AcDbLine
 10
155.40000000000009
 20
1.75000000000007
 11
155.40000000000009
 21
1.22950000000006
  0
LINE
  5
7B
100
AcDbEntity
  8
0
  6
CONTINUOUS
 62
             7
100
AcDbLine
 10
155.40000000000009
 20
-1.22949999999993
 11
155.40000000000009
 21
-0.88860009363287
  0
LINE
  5
7A
100
AcDbEntity
  8
0
  6
CONTINUOUS
 62
             7
100
AcDbLine
 10
156.40000000000009
 20
3.40000000000006
 11
156.00000000000011
 21
3.40000000000006
  0
LINE
  5
79
100
AcDbEntity
  8
0
  6
CONTINUOUS
 62
             7
100
AcDbLine
 10
156.40000000000009
 20
-3.39999999999994
 11
156.00000000000011
 21
-3.39999999999994
  0
LINE
  5
78
100
AcDbEntity
  8
0
  6
CONTINUOUS
 62
             7
100
AcDbLine
 10
155.00000000000011
 20
1.22950000000006
 11
155.40000000000009
 21
1.22950000000006
  0
LINE
  5
77
100
AcDbEntity
  8
0
  6
CONTINUOUS
 62
             7
100
AcDbLine
 10
155.40000000000009
 20
1.22950000000006
 11
155.40000000000009
 21
0.888600093633
  0
LINE
  5
76
100
AcDbEntity
  8
0
  6
CONTINUOUS
 62
             7
100
AcDbLine
 10
155.00000000000011
 20
-1.22949999999993
 11
155.40000000000009
 21
-1.22949999999993
  0
LINE
  5
75
100
AcDbEntity
  8
0
  6
CONTINUOUS
 62
             7
100
AcDbLine
 10
155.40000000000009
 20
-1.22949999999993
 11
155.40000000000009
 21
-1.74999999999993
  0
LINE
  5
74
100
AcDbEntity
  8
0
  6
CONTINUOUS
 62
             7
100
AcDbLine
 10
156.40000000000009
 20
-3.39999999999994
 11
156.40000000000009
 21
-0.88860009363287
  0
LINE
  5
73
100
AcDbEntity
  8
1
  6
CONTINUOUS
 62
             7
100
AcDbLine
 10
155.00000000000011
 20
3.45000000000005
 11
155.00000000000011
 21
-3.44999999999993
  0
LINE
  5
72
100
AcDbEntity
  8
0
  6
CONTINUOUS
 62
             7
100
AcDbLine
 10
156.40000000000009
 20
-8.111399906367
 11
156.40000000000009
 21
-9.88860009363287
  0
LINE
  5
71
100
AcDbEntity
  8
0
  6
CONTINUOUS
 62
             7
100
AcDbLine
 10
156.40000000000009
 20
-6.24999999999993
 11
157.1391201416246
 21
-6.24999999999993
  0
LINE
  5
70
100
AcDbEntity
  8
0
  6
CONTINUOUS
 62
             7
100
AcDbLine
 10
157.1391201416246
 20
-11.74999999999993
 11
156.40000000000009
 21
-11.74999999999993
  0
LINE
  5
6F
100
AcDbEntity
  8
0
  6
CONTINUOUS
 62
             7
100
AcDbLine
 10
156.00000000000011
 20
-5.59999999999994
 11
155.00000000000011
 21
-5.59999999999994
  0
LINE
  5
6E
100
AcDbEntity
  8
0
  6
CONTINUOUS
 62
             7
100
AcDbLine
 10
156.00000000000011
 20
-12.39999999999994
 11
155.00000000000011
 21
-12.39999999999994
  0
LINE
  5
6D
100
AcDbEntity
  8
0
  6
CONTINUOUS
 62
             7
100
AcDbLine
 10
156.00000000000011
 20
-5.59999999999994
 11
156.40000000000009
 21
-7.24999999999993
  0
LINE
  5
6C
100
AcDbEntity
  8
0
  6
CONTINUOUS
 62
             7
100
AcDbLine
 10
155.00000000000011
 20
-5.59999999999994
 11
155.40000000000009
 21
-7.24999999999993
  0
LINE
  5
6B
100
AcDbEntity
  8
0
  6
CONTINUOUS
 62
             7
100
AcDbLine
 10
156.00000000000011
 20
-8.39999999999993
 11
156.27022468831771
 21
-8.29866574188081
  0
LINE
  5
6A
100
AcDbEntity
  8
0
  6
CONTINUOUS
 62
             7
100
AcDbLine
 10
156.00000000000011
 20
-8.39999999999993
 11
156.00000000000011
 21
-9.59999999999994
  0
LINE
  5
69
100
AcDbEntity
  8
0
  6
CONTINUOUS
 62
             7
100
AcDbLine
 10
156.00000000000011
 20
-9.59999999999994
 11
156.27022468831771
 21
-9.70133425811906
  0
LINE
  5
68
100
AcDbEntity
  8
0
  6
CONTINUOUS
 62
             7
100
AcDbLine
 10
155.00000000000011
 20
-8.39999999999993
 11
155.27022468831771
 21
-8.29866574188081
  0
LINE
  5
67
100
AcDbEntity
  8
0
  6
CONTINUOUS
 62
             7
100
AcDbLine
 10
155.00000000000011
 20
-9.59999999999994
 11
155.27022468831771
 21
-9.70133425811906
  0
LINE
  5
66
100
AcDbEntity
  8
0
  6
CONTINUOUS
 62
             7
100
AcDbLine
 10
156.40000000000009
 20
-5.59999999999994
 11
156.40000000000009
 21
-8.111399906367
  0
LINE
  5
65
100
AcDbEntity
  8
0
  6
CONTINUOUS
 62
             7
100
AcDbLine
 10
156.40000000000009
 20
-10.74999999999993
 11
156.00000000000011
 21
-12.39999999999994
  0
LINE
  5
64
100
AcDbEntity
  8
0
  6
CONTINUOUS
 62
             7
100
AcDbLine
 10
155.40000000000009
 20
-10.74999999999993
 11
155.00000000000011
 21
-12.39999999999994
  0
LINE
  5
63
100
AcDbEntity
  8
0
  6
CONTINUOUS
 62
             7
100
AcDbLine
 10
155.40000000000009
 20
-7.24999999999993
 11
155.40000000000009
 21
-7.77049999999994
  0
LINE
  5
62
100
AcDbEntity
  8
0
  6
CONTINUOUS
 62
             7
100
AcDbLine
 10
155.40000000000009
 20
-10.22949999999993
 11
155.40000000000009
 21
-9.88860009363287
  0
LINE
  5
61
100
AcDbEntity
  8
0
  6
CONTINUOUS
 62
             7
100
AcDbLine
 10
156.40000000000009
 20
-5.59999999999994
 11
156.00000000000011
 21
-5.59999999999994
  0
LINE
  5
60
100
AcDbEntity
  8
0
  6
CONTINUOUS
 62
             7
100
AcDbLine
 10
156.40000000000009
 20
-12.39999999999994
 11
156.00000000000011
 21
-12.39999999999994
  0
LINE
  5
5F
100
AcDbEntity
  8
0
  6
CONTINUOUS
 62
             7
100
AcDbLine
 10
155.00000000000011
 20
-7.77049999999994
 11
155.40000000000009
 21
-7.77049999999994
  0
LINE
  5
5E
100
AcDbEntity
  8
0
  6
CONTINUOUS
 62
             7
100
AcDbLine
 10
155.40000000000009
 20
-7.77049999999994
 11
155.40000000000009
 21
-8.111399906367
  0
LINE
  5
5D
100
AcDbEntity
  8
0
  6
CONTINUOUS
 62
             7
100
AcDbLine
 10
155.00000000000011
 20
-10.22949999999993
 11
155.40000000000009
 21
-10.22949999999993
  0
LINE
  5
5C
100
AcDbEntity
  8
0
  6
CONTINUOUS
 62
             7
100
AcDbLine
 10
155.40000000000009
 20
-10.22949999999993
 11
155.40000000000009
 21
-10.74999999999993
  0
LINE
  5
5B
100
AcDbEntity
  8
0
  6
CONTINUOUS
 62
             7
100
AcDbLine
 10
156.40000000000009
 20
-12.39999999999994
 11
156.40000000000009
 21
-9.88860009363287
  0
LINE
  5
5A
100
AcDbEntity
  8
1
  6
CONTINUOUS
 62
             7
100
AcDbLine
 10
155.00000000000011
 20
-5.54999999999996
 11
155.00000000000011
 21
-12.44999999999993
  0
LINE
  5
59
100
AcDbEntity
  8
0
  6
CONTINUOUS
 62
             7
100
AcDbLine
 10
156.40000000000009
 20
-17.111399906367
 11
156.40000000000009
 21
-18.88860009363287
  0
LINE
  5
58
100
AcDbEntity
  8
0
  6
CONTINUOUS
 62
             7
100
AcDbLine
 10
156.40000000000009
 20
-15.24999999999993
 11
157.1391201416246
 21
-15.24999999999993
  0
LINE
  5
57
100
AcDbEntity
  8
0
  6
CONTINUOUS
 62
             7
100
AcDbLine
 10
157.1391201416246
 20
-20.74999999999993
 11
156.40000000000009
 21
-20.74999999999993
  0
LINE
  5
56
100
AcDbEntity
  8
0
  6
CONTINUOUS
 62
             7
100
AcDbLine
 10
156.00000000000011
 20
-14.59999999999994
 11
155.00000000000011
 21
-14.59999999999994
  0
LINE
  5
55
100
AcDbEntity
  8
0
  6
CONTINUOUS
 62
             7
100
AcDbLine
 10
156.00000000000011
 20
-21.39999999999994
 11
155.00000000000011
 21
-21.39999999999994
  0
LINE
  5
54
100
AcDbEntity
  8
0
  6
CONTINUOUS
 62
             7
100
AcDbLine
 10
156.00000000000011
 20
-14.59999999999994
 11
156.40000000000009
 21
-16.24999999999993
  0
LINE
  5
53
100
AcDbEntity
  8
0
  6
CONTINUOUS
 62
             7
100
AcDbLine
 10
155.00000000000011
 20
-14.59999999999994
 11
155.40000000000009
 21
-16.24999999999993
  0
LINE
  5
52
100
AcDbEntity
  8
0
  6
CONTINUOUS
 62
             7
100
AcDbLine
 10
156.00000000000011
 20
-17.39999999999994
 11
156.27022468831771
 21
-17.29866574188081
  0
LINE
  5
51
100
AcDbEntity
  8
0
  6
CONTINUOUS
 62
             7
100
AcDbLine
 10
156.00000000000011
 20
-17.39999999999994
 11
156.00000000000011
 21
-18.59999999999994
  0
LINE
  5
50
100
AcDbEntity
  8
0
  6
CONTINUOUS
 62
             7
100
AcDbLine
 10
156.00000000000011
 20
-18.59999999999994
 11
156.27022468831771
 21
-18.70133425811906
  0
LINE
  5
4F
100
AcDbEntity
  8
0
  6
CONTINUOUS
 62
             7
100
AcDbLine
 10
155.00000000000011
 20
-17.39999999999994
 11
155.27022468831771
 21
-17.29866574188081
  0
LINE
  5
4E
100
AcDbEntity
  8
0
  6
CONTINUOUS
 62
             7
100
AcDbLine
 10
155.00000000000011
 20
-18.59999999999994
 11
155.27022468831771
 21
-18.70133425811906
  0
LINE
  5
4D
100
AcDbEntity
  8
0
  6
CONTINUOUS
 62
             7
100
AcDbLine
 10
156.40000000000009
 20
-14.59999999999994
 11
156.40000000000009
 21
-17.111399906367
  0
LINE
  5
4C
100
AcDbEntity
  8
0
  6
CONTINUOUS
 62
             7
100
AcDbLine
 10
156.40000000000009
 20
-19.74999999999993
 11
156.00000000000011
 21
-21.39999999999994
  0
LINE
  5
4B
100
AcDbEntity
  8
0
  6
CONTINUOUS
 62
             7
100
AcDbLine
 10
155.40000000000009
 20
-19.74999999999993
 11
155.00000000000011
 21
-21.39999999999994
  0
LINE
  5
4A
100
AcDbEntity
  8
0
  6
CONTINUOUS
 62
             7
100
AcDbLine
 10
155.40000000000009
 20
-16.24999999999993
 11
155.40000000000009
 21
-16.77049999999994
  0
LINE
  5
49
100
AcDbEntity
  8
0
  6
CONTINUOUS
 62
             7
100
AcDbLine
 10
155.40000000000009
 20
-19.22949999999993
 11
155.40000000000009
 21
-18.88860009363287
  0
LINE
  5
48
100
AcDbEntity
  8
0
  6
CONTINUOUS
 62
             7
100
AcDbLine
 10
156.40000000000009
 20
-14.59999999999994
 11
156.00000000000011
 21
-14.59999999999994
  0
LINE
  5
47
100
AcDbEntity
  8
0
  6
CONTINUOUS
 62
             7
100
AcDbLine
 10
156.40000000000009
 20
-21.39999999999994
 11
156.00000000000011
 21
-21.39999999999994
  0
LINE
  5
46
100
AcDbEntity
  8
0
  6
CONTINUOUS
 62
             7
100
AcDbLine
 10
155.00000000000011
 20
-16.77049999999994
 11
155.40000000000009
 21
-16.77049999999994
  0
LINE
  5
45
100
AcDbEntity
  8
0
  6
CONTINUOUS
 62
             7
100
AcDbLine
 10
155.40000000000009
 20
-16.77049999999994
 11
155.40000000000009
 21
-17.111399906367
  0
LINE
  5
44
100
AcDbEntity
  8
0
  6
CONTINUOUS
 62
             7
100
AcDbLine
 10
155.00000000000011
 20
-19.22949999999993
 11
155.40000000000009
 21
-19.22949999999993
  0
LINE
  5
43
100
AcDbEntity
  8
0
  6
CONTINUOUS
 62
             7
100
AcDbLine
 10
155.40000000000009
 20
-19.22949999999993
 11
155.40000000000009
 21
-19.74999999999993
  0
LINE
  5
42
100
AcDbEntity
  8
0
  6
CONTINUOUS
 62
             7
100
AcDbLine
 10
156.40000000000009
 20
-21.39999999999994
 11
156.40000000000009
 21
-18.88860009363287
  0
LINE
  5
41
100
AcDbEntity
  8
1
  6
CONTINUOUS
 62
             7
100
AcDbLine
 10
155.00000000000011
 20
-14.54999999999996
 11
155.00000000000011
 21
-21.44999999999993
  0
LINE
  5
40
100
AcDbEntity
  8
0
  6
CONTINUOUS
 62
             7
100
AcDbLine
 10
156.40000000000009
 20
-26.111399906367
 11
156.40000000000009
 21
-27.88860009363287
  0
LINE
  5
3F
100
AcDbEntity
  8
0
  6
CONTINUOUS
 62
             7
100
AcDbLine
 10
156.40000000000009
 20
-24.24999999999993
 11
157.1391201416246
 21
-24.24999999999993
  0
LINE
  5
3E
100
AcDbEntity
  8
0
  6
CONTINUOUS
 62
             7
100
AcDbLine
 10
157.1391201416246
 20
-29.74999999999993
 11
156.40000000000009
 21
-29.74999999999993
  0
LINE
  5
3D
100
AcDbEntity
  8
0
  6
CONTINUOUS
 62
             7
100
AcDbLine
 10
156.00000000000011
 20
-23.59999999999994
 11
155.00000000000011
 21
-23.59999999999994
  0
LINE
  5
3C
100
AcDbEntity
  8
0
  6
CONTINUOUS
 62
             7
100
AcDbLine
 10
156.00000000000011
 20
-30.39999999999994
 11
155.00000000000011
 21
-30.39999999999994
  0
LINE
  5
3B
100
AcDbEntity
  8
0
  6
CONTINUOUS
 62
             7
100
AcDbLine
 10
156.00000000000011
 20
-23.59999999999994
 11
156.40000000000009
 21
-25.24999999999993
  0
LINE
  5
3A
100
AcDbEntity
  8
0
  6
CONTINUOUS
 62
             7
100
AcDbLine
 10
155.00000000000011
 20
-23.59999999999994
 11
155.40000000000009
 21
-25.24999999999993
  0
LINE
  5
39
100
AcDbEntity
  8
0
  6
CONTINUOUS
 62
             7
100
AcDbLine
 10
156.00000000000011
 20
-26.39999999999994
 11
156.27022468831771
 21
-26.29866574188081
  0
LINE
  5
38
100
AcDbEntity
  8
0
  6
CONTINUOUS
 62
             7
100
AcDbLine
 10
156.00000000000011
 20
-26.39999999999994
 11
156.00000000000011
 21
-27.59999999999994
  0
LINE
  5
37
100
AcDbEntity
  8
0
  6
CONTINUOUS
 62
             7
100
AcDbLine
 10
156.00000000000011
 20
-27.59999999999994
 11
156.27022468831771
 21
-27.70133425811906
  0
LINE
  5
36
100
AcDbEntity
  8
0
  6
CONTINUOUS
 62
             7
100
AcDbLine
 10
155.00000000000011
 20
-26.39999999999994
 11
155.27022468831771
 21
-26.29866574188081
  0
LINE
  5
35
100
AcDbEntity
  8
0
  6
CONTINUOUS
 62
             7
100
AcDbLine
 10
155.00000000000011
 20
-27.59999999999994
 11
155.27022468831771
 21
-27.70133425811906
  0
LINE
  5
34
100
AcDbEntity
  8
0
  6
CONTINUOUS
 62
             7
100
AcDbLine
 10
156.40000000000009
 20
-23.59999999999994
 11
156.40000000000009
 21
-26.111399906367
  0
LINE
  5
33
100
AcDbEntity
  8
0
  6
CONTINUOUS
 62
             7
100
AcDbLine
 10
156.40000000000009
 20
-28.74999999999993
 11
156.00000000000011
 21
-30.39999999999994
  0
LINE
  5
32
100
AcDbEntity
  8
0
  6
CONTINUOUS
 62
             7
100
AcDbLine
 10
155.40000000000009
 20
-28.74999999999993
 11
155.00000000000011
 21
-30.39999999999994
  0
LINE
  5
31
100
AcDbEntity
  8
0
  6
CONTINUOUS
 62
             7
100
AcDbLine
 10
155.40000000000009
 20
-25.24999999999993
 11
155.40000000000009
 21
-25.77049999999994
  0
LINE
  5
30
100
AcDbEntity
  8
0
  6
CONTINUOUS
 62
             7
100
AcDbLine
 10
155.40000000000009
 20
-28.22949999999993
 11
155.40000000000009
 21
-27.88860009363287
  0
LINE
  5
2F
100
AcDbEntity
  8
0
  6
CONTINUOUS
 62
             7
100
AcDbLine
 10
156.40000000000009
 20
-23.59999999999994
 11
156.00000000000011
 21
-23.59999999999994
  0
LINE
  5
2E
100
AcDbEntity
  8
0
  6
CONTINUOUS
 62
             7
100
AcDbLine
 10
156.40000000000009
 20
-30.39999999999994
 11
156.00000000000011
 21
-30.39999999999994
  0
LINE
  5
2D
100
AcDbEntity
  8
0
  6
CONTINUOUS
 62
             7
100
AcDbLine
 10
155.00000000000011
 20
-25.77049999999994
 11
155.40000000000009
 21
-25.77049999999994
  0
LINE
  5
2C
100
AcDbEntity
  8
0
  6
CONTINUOUS
 62
             7
100
AcDbLine
 10
155.40000000000009
 20
-25.77049999999994
 11
155.40000000000009
 21
-26.111399906367
  0
LINE
  5
2B
100
AcDbEntity
  8
0
  6
CONTINUOUS
 62
             7
100
AcDbLine
 10
155.00000000000011
 20
-28.22949999999993
 11
155.40000000000009
 21
-28.22949999999993
  0
LINE
  5
2A
100
AcDbEntity
  8
0
  6
CONTINUOUS
 62
             7
100
AcDbLine
 10
155.40000000000009
 20
-28.22949999999993
 11
155.40000000000009
 21
-28.74999999999993
  0
LINE
  5
29
100
AcDbEntity
  8
0
  6
CONTINUOUS
 62
             7
100
AcDbLine
 10
156.40000000000009
 20
-30.39999999999994
 11
156.40000000000009
 21
-27.88860009363287
  0
LINE
  5
28
100
AcDbEntity
  8
1
  6
CONTINUOUS
 62
             7
100
AcDbLine
 10
155.00000000000011
 20
-23.54999999999996
 11
155.00000000000011
 21
-30.44999999999993
  0
ENDSEC
  0
SECTION
  2
OBJECTS
  0
DICTIONARY
  5
19
100
AcDbDictionary
  3
ACAD_GROUP
350
1A
  3
ACAD_MLINESTYLE
350
1B
  0
DICTIONARY
  5
1A
102
{ACAD_REACTORS
330
19
102
}
100
AcDbDictionary
  0
DICTIONARY
  5
1B
102
{ACAD_REACTORS
330
19
102
}
100
AcDbDictionary
  3
STANDARD
350
1C
  0
MLINESTYLE
  5
1C
102
{ACAD_REACTORS
330
1B
102
}
100
AcDbMlineStyle
  2
STANDARD
 70
             0
  3

 62
             0
 51
90.0
 52
90.0
 71
             2
 49
0.5
 62
           256
  6
BYLAYER
 49
-0.5
 62
           256
  6
BYLAYER
  0
ENDSEC
  0
EOF
