  0
SECTION
  2
HEADER
  9
$ACADVER
  1
AC1014
  9
$ACADMAINTVER
 70
             0
  9
$DWGCODEPAGE
  3
ANSI_1252
  9
$INSBASE
 10
0.0
 20
0.0
 30
0.0
  9
$EXTMIN
 10
1.00000000000000E+20
 20
1.00000000000000E+20
 30
1.00000000000000E+20
  9
$EXTMAX
 10
-1.00000000000000E+20
 20
-1.00000000000000E+20
 30
-1.00000000000000E+20
  9
$LIMMIN
 10
0.0
 20
0.0
  9
$LIMMAX
 10
0.0
 20
0.0
  9
$ORTHOMODE
 70
             0
  9
$REGENMODE
 70
             1
  9
$FILLMODE
 70
             1
  9
$QTEXTMODE
 70
             0
  9
$MIRRTEXT
 70
             1
  9
$DRAGMODE
 70
             2
  9
$LTSCALE
 40
1.0
  9
$OSMODE
 70
             0
  9
$ATTMODE
 70
             1
  9
$TEXTSIZE
 40
0.2
  9
$TRACEWID
 40
0.05
  9
$TEXTSTYLE
  7
STANDARD
  9
$CLAYER
  8
0
  9
$CELTYPE
  6
CONTINUOUS
  9
$CECOLOR
 62
           256
  9
$CELTSCALE
 40
1.0
  9
$DELOBJ
 70
             1
  9
$DISPSILH
 70
             0
  9
$DIMSCALE
 40
1.0
  9
$DIMASZ
 40
0.18
  9
$DIMEXO
 40
0.0625
  9
$DIMDLI
 40
0.38
  9
$DIMRND
 40
0.0
  9
$DIMDLE
 40
0.0
  9
$DIMEXE
 40
0.18
  9
$DIMTP
 40
0.0
  9
$DIMTM
 40
0.0
  9
$DIMTXT
 40
0.18
  9
$DIMCEN
 40
0.09
  9
$DIMTSZ
 40
0.0
  9
$DIMTOL
 70
             0
  9
$DIMLIM
 70
             0
  9
$DIMTIH
 70
             1
  9
$DIMTOH
 70
             1
  9
$DIMSE1
 70
             0
  9
$DIMSE2
 70
             0
  9
$DIMTAD
 70
             0
  9
$DIMZIN
 70
             0
  9
$DIMBLK
  1

  9
$DIMASO
 70
             1
  9
$DIMSHO
 70
             1
  9
$DIMPOST
  1

  9
$DIMAPOST
  1

  9
$DIMALT
 70
             0
  9
$DIMALTD
 70
             2
  9
$DIMALTF
 40
25.4
  9
$DIMLFAC
 40
1.0
  9
$DIMTOFL
 70
             0
  9
$DIMTVP
 40
0.0
  9
$DIMTIX
 70
             0
  9
$DIMSOXD
 70
             0
  9
$DIMSAH
 70
             0
  9
$DIMBLK1
  1

  9
$DIMBLK2
  1

  9
$DIMSTYLE
  2
STANDARD
  9
$DIMCLRD
 70
             0
  9
$DIMCLRE
 70
             0
  9
$DIMCLRT
 70
             0
  9
$DIMTFAC
 40
1.0
  9
$DIMGAP
 40
0.09
  9
$DIMJUST
 70
             0
  9
$DIMSD1
 70
             0
  9
$DIMSD2
 70
             0
  9
$DIMTOLJ
 70
             1
  9
$DIMTZIN
 70
             0
  9
$DIMALTZ
 70
             0
  9
$DIMALTTZ
 70
             0
  9
$DIMFIT
 70
             3
  9
$DIMUPT
 70
             0
  9
$DIMUNIT
 70
             2
  9
$DIMDEC
 70
             4
  9
$DIMTDEC
 70
             4
  9
$DIMALTU
 70
             2
  9
$DIMALTTD
 70
             2
  9
$DIMTXSTY
  7
STANDARD
  9
$DIMAUNIT
 70
             0
  9
$LUNITS
 70
             2
  9
$LUPREC
 70
             4
  9
$SKETCHINC
 40
0.1
  9
$FILLETRAD
 40
0.0
  9
$AUNITS
 70
             0
  9
$AUPREC
 70
             0
  9
$MENU
  1
acad
  9
$ELEVATION
 40
0.0
  9
$PELEVATION
 40
0.0
  9
$THICKNESS
 40
0.0
  9
$LIMCHECK
 70
             0
  9
$BLIPMODE
 70
             1
  9
$CHAMFERA
 40
0.0
  9
$CHAMFERB
 40
0.0
  9
$CHAMFERC
 40
0.0
  9
$CHAMFERD
 40
0.0
  9
$SKPOLY
 70
             0
  9
$TDCREATE
 40
0.000000000
  9
$TDUPDATE
 40
0.000000000
  9
$TDINDWG
 40
0.0000000000
  9
$TDUSRTIMER
 40
0.0000000000
  9
$USRTIMER
 70
             1
  9
$ANGBASE
 50
0.0
  9
$ANGDIR
 70
             0
  9
$PDMODE
 70
             0
  9
$PDSIZE
 40
0.0
  9
$PLINEWID
 40
0.0
  9
$COORDS
 70
             0
  9
$SPLFRAME
 70
             0
  9
$SPLINETYPE
 70
             6
  9
$SPLINESEGS
 70
             8
  9
$ATTDIA
 70
             0
  9
$ATTREQ
 70
             1
  9
$HANDLING
 70
             1
  9
$HANDSEED
  5
2D5
  9
$SURFTAB1
 70
             6
  9
$SURFTAB2
 70
             6
  9
$SURFTYPE
 70
             6
  9
$SURFU
 70
             6
  9
$SURFV
 70
             6
  9
$UCSNAME
  2

  9
$UCSORG
 10
0.0
 20
0.0
 30
0.0
  9
$UCSXDIR
 10
1.0
 20
0.0
 30
0.0
  9
$UCSYDIR
 10
0.0
 20
1.0
 30
0.0
  9
$PUCSNAME
  2

  9
$PUCSORG
 10
0.0
 20
0.0
 30
0.0
  9
$PUCSXDIR
 10
1.0
 20
0.0
 30
0.0
  9
$PUCSYDIR
 10
0.0
 20
1.0
 30
0.0
  9
$USERI1
 70
             0
  9
$USERI2
 70
             0
  9
$USERI3
 70
             0
  9
$USERI4
 70
             0
  9
$USERI5
 70
             0
  9
$USERR1
 40
11.6
  9
$USERR2
 40
0.0
  9
$USERR3
 40
0.0
  9
$USERR4
 40
0.0
  9
$USERR5
 40
0.0
  9
$WORLDVIEW
 70
             1
  9
$SHADEDGE
 70
             3
  9
$SHADEDIF
 70
            70
  9
$TILEMODE
 70
             1
  9
$MAXACTVP
 70
            16
  9
$PINSBASE
 10
0.0
 20
0.0
 30
0.0
  9
$PLIMCHECK
 70
             0
  9
$PEXTMIN
 10
1.00000000000000E+20
 20
1.00000000000000E+20
 30
1.00000000000000E+20
  9
$PEXTMAX
 10
-1.00000000000000E+20
 20
-1.00000000000000E+20
 30
-1.00000000000000E+20
  9
$PLIMMIN
 10
0.0
 20
0.0
  9
$PLIMMAX
 10
12.0
 20
9.0
  9
$UNITMODE
 70
             0
  9
$VISRETAIN
 70
             0
  9
$PLINEGEN
 70
             1
  9
$PSLTSCALE
 70
             0
  9
$TREEDEPTH
 70
          3020
  9
$PICKSTYLE
 70
             1
  9
$CMLSTYLE
  2
STANDARD
  9
$CMLJUST
 70
             0
  9
$CMLSCALE
 40
1.0
  9
$PROXYGRAPHICS
 70
             0
  9
$MEASUREMENT
 70
             1
  0
ENDSEC
  0
SECTION
  2
CLASSES
  0
CLASS
  1
LWPOLYLINE
  2
AcDbPolyline
  3
"AutoCAD"
 90
        0
280
             0
281
             1
  0
CLASS
  1
IMAGE
  2
AcDbRasterImage
  3
ISM
 90
      127
280
             0
281
             1
  0
CLASS
  1
OLE2FRAME
  2
AcDbOle2Frame
  3
""
 90
        0
280
             0
281
             1
  0
CLASS
  1
HATCH
  2
AcDbHatch
  3
"ACAD_SEDONA"
 90
        0
280
             0
281
             1
  0
CLASS
  1
DICTIONARYVAR
  2
AcDbDictionaryVar
  3
"AutoCAD"
 90
        0
280
             0
281
             0
  0
CLASS
  1
RASTERVARIABLES
  2
AcDbRasterVariables
  3
ISM
 90
        0
280
             0
281
             0
  0
CLASS
  1
IMAGEDEF
  2
AcDbRasterImageDef
  3
ISM
 90
        0
280
             0
281
             0
  0
CLASS
  1
IMAGEDEF_REACTOR
  2
AcDbRasterImageDefReactor
  3
ISM
 90
        1
280
             0
281
             0
  0
CLASS
  1
IDBUFFER
  2
AcDbIdBuffer
  3
"Acad"
 90
        0
280
             0
281
             0
  0
CLASS
  1
SPATIAL_FILTER
  2
AcDbSpatialFilter
  3
"Acad"
 90
        0
280
             0
281
             0
  0
CLASS
  1
XRECORD
  2
AcDbXrecord
  3
"<Built In>"
 90
        0
280
             0
281
             0
  0
CLASS
  1
SORTENTSTABLE
  2
AcDbSortentsTable
  3
"AutoCAD"
 90
        0
280
             0
281
             0
  0
CLASS
  1
LAYER_INDEX
  2
AcDbLayerIndex
  3
"Acad"
 90
        0
280
             0
281
             0
  0
CLASS
  1
SPATIAL_INDEX
  2
AcDbSpatialIndex
  3
"Acad"
 90
        0
280
             0
281
             0
  0
CLASS
  1
OBJECT_PTR
  2
CAseDLPNTableRecord
  3
"ASE-LPNTableRecord"
 90
        1
280
             0
281
             0
  0
CLASS
  1
LAYOUT
  2
AcDbLayout
  3
"AutoCAD 2000"
 90
        1
280
             0
281
             0
  0
CLASS
  1
PLOTSETTINGS
  2
AcDbPlotSettings
  3
"AutoCAD 2000"
 90
        1
280
             0
281
             0
  0
CLASS
  1
ACDBDICTIONARYWDFLT
  2
AcDbDictionaryWithDefault
  3
"AutoCAD 2000"
 90
        1
280
             0
281
             0
  0
CLASS
  1
ACDBPLACEHOLDER
  2
AcDbPlaceHolder
  3
"AutoCAD 2000"
 90
        1
280
             0
281
             0
  0
ENDSEC
  0
SECTION
  2
TABLES
  0
TABLE
  2
VPORT
  5
7
100
AcDbSymbolTable
 70
             1
  0
VPORT
  5
15
100
AcDbSymbolTableRecord
100
AcDbViewportTableRecord
  2
*ACTIVE
 70
             0
 10
0.0
 20
0.0
 11
1.0
 21
1.0
 12
-26.0
 22
0.0
 13
0.0
 23
0.0
 14
1.0
 24
1.0
 15
0.0
 25
0.0
 16
0.0
 26
0.0
 36
1.0
 17
0.0
 27
0.0
 37
0.0
 40
175.70584958217279
 41
1.60267857142857
 42
50.0
 43
0.0
 44
0.0
 50
0.0
 51
0.0
 71
             0
 72
           100
 73
             1
 74
             1
 75
             0
 76
             0
 77
             0
 78
             0
  0
ENDTAB
  0
TABLE
  2
LTYPE
  5
4
100
AcDbSymbolTable
 70
            10
  0
LTYPE
  5
11
100
AcDbSymbolTableRecord
100
AcDbLinetypeTableRecord
  2
BYBLOCK
 70
            64
  3

 72
            65
 73
             0
 40
0.0
  0
LTYPE
  5
12
100
AcDbSymbolTableRecord
100
AcDbLinetypeTableRecord
  2
BYLAYER
 70
            64
  3

 72
            65
 73
             0
 40
0.0
  0
LTYPE
  5
13
100
AcDbSymbolTableRecord
100
AcDbLinetypeTableRecord
  2
CONTINUOUS
 70
            64
  3
Solid line
 72
            65
 73
             0
 40
0.0
  0
LTYPE
  5
1D
100
AcDbSymbolTableRecord
100
AcDbLinetypeTableRecord
  2
DASHED
 70
            64
  3
Dashed
 72
            65
 73
             2
 40
15.0
 49
12.0
 74
             0
 49
-3.0
 74
             0
  0
LTYPE
  5
1E
100
AcDbSymbolTableRecord
100
AcDbLinetypeTableRecord
  2
DOTTED
 70
            64
  3
Dotted
 72
            65
 73
             2
 40
3.5
 49
0.5
 74
             0
 49
-3.0
 74
             0
  0
LTYPE
  5
1F
100
AcDbSymbolTableRecord
100
AcDbLinetypeTableRecord
  2
DOT_CENTER
 70
            64
  3
Dot_Center
 72
            65
 73
             4
 40
2.0
 49
1.25
 74
             0
 49
-0.25
 74
             0
 49
0.25
 74
             0
 49
-0.25
 74
             0
  0
LTYPE
  5
20
100
AcDbSymbolTableRecord
100
AcDbLinetypeTableRecord
  2
LONG_DASHED
 70
            64
  3
Long_Dashed
 72
            65
 73
             2
 40
2.0
 49
1.5
 74
             0
 49
-0.5
 74
             0
  0
LTYPE
  5
21
100
AcDbSymbolTableRecord
100
AcDbLinetypeTableRecord
  2
DASH_CENTER
 70
            64
  3
Dash_Center
 72
            65
 73
             4
 40
36.0
 49
24.0
 74
             0
 49
-3.0
 74
             0
 49
6.0
 74
             0
 49
-3.0
 74
             0
  0
LTYPE
  5
22
100
AcDbSymbolTableRecord
100
AcDbLinetypeTableRecord
  2
PHANTOM
 70
            64
  3
Phantom
 72
            65
 73
             6
 40
2.5
 49
1.25
 74
             0
 49
-0.25
 74
             0
 49
0.25
 74
             0
 49
-0.25
 74
             0
 49
0.25
 74
             0
 49
-0.25
 74
             0
  0
LTYPE
  5
23
100
AcDbSymbolTableRecord
100
AcDbLinetypeTableRecord
  2
CENTER_DASH_DASH
 70
            64
  3
Center_Dash_Dash
 72
            65
 73
             6
 40
22.0
 49
12.0
 74
             0
 49
-3.0
 74
             0
 49
0.5
 74
             0
 49
-3.0
 74
             0
 49
0.5
 74
             0
 49
-3.0
 74
             0
  0
ENDTAB
  0
TABLE
  2
LAYER
  5
2
100
AcDbSymbolTable
 70
             2
  0
LAYER
  5
14
100
AcDbSymbolTableRecord
100
AcDbLayerTableRecord
  2
0
 70
             0
 62
             7
  6
CONTINUOUS
  0
LAYER
  5
24
100
AcDbSymbolTableRecord
100
AcDbLayerTableRecord
  2
1
 70
             0
 62
             7
  6
CONTINUOUS
  0
ENDTAB
  0
TABLE
  2
STYLE
  5
3
100
AcDbSymbolTable
 70
             1
  0
STYLE
  5
17
100
AcDbSymbolTableRecord
100
AcDbTextStyleTableRecord
  2
STANDARD
 70
             0
 40
0.0
 41
1.0
 50
0.0
 71
             0
 42
0.0
  3
txt
  4

  0
ENDTAB
  0
TABLE
  2
VIEW
  5
5
100
AcDbSymbolTable
 70
             0
  0
ENDTAB
  0
TABLE
  2
UCS
  5
6
100
AcDbSymbolTable
 70
             0
  0
ENDTAB
  0
TABLE
  2
APPID
  5
8
100
AcDbSymbolTable
 70
             1
  0
APPID
  5
16
100
AcDbSymbolTableRecord
100
AcDbRegAppTableRecord
  2
ACAD
 70
             0
  0
ENDTAB
  0
TABLE
  2
DIMSTYLE
  5
9
100
AcDbSymbolTable
 70
             1
  0
DIMSTYLE
105
18
100
AcDbSymbolTableRecord
100
AcDbDimStyleTableRecord
  2
STANDARD
 70
             0
  3

  4

  5

  6

  7

 40
1.0
 41
0.18
 42
0.0625
 43
0.38
 44
0.18
 45
0.0
 46
0.0
 47
0.0
 48
0.0
 71
             0
 72
             0
 73
             1
 74
             1
 75
             0
 76
             0
 77
             0
 78
             0
140
0.18
141
0.09
142
0.0
143
25.4
144
1.0
145
0.0
146
1.0
147
0.09
170
             0
171
             2
172
             0
173
             0
174
             0
175
             0
176
             0
177
             0
178
             0
270
             2
271
             4
272
             4
273
             2
274
             2
275
             0
280
             0
281
             0
282
             0
283
             1
284
             0
285
             0
286
             0
287
             0
288
             0
340
17
  0
ENDTAB
  0
TABLE
  2
BLOCK_RECORD
  5
1
100
AcDbSymbolTable
 70
             0
  0
BLOCK_RECORD
  5
A
100
AcDbSymbolTableRecord
100
AcDbBlockTableRecord
  2
*MODEL_SPACE
  0
BLOCK_RECORD
  5
B
100
AcDbSymbolTableRecord
100
AcDbBlockTableRecord
  2
*PAPER_SPACE
  0
ENDTAB
  0
ENDSEC
  0
SECTION
  2
BLOCKS
  0
BLOCK
  5
D
100
AcDbEntity
  8
0
100
AcDbBlockBegin
  2
*MODEL_SPACE
 70
             0
 10
0.0
 20
0.0
 30
0.0
  3
*MODEL_SPACE
  1

  0
ENDBLK
  5
E
100
AcDbEntity
  8
0
100
AcDbBlockEnd
  0
BLOCK
  5
F
100
AcDbEntity
 67
             1
  8
0
100
AcDbBlockBegin
  2
*PAPER_SPACE
 70
             0
 10
0.0
 20
0.0
 30
0.0
  3
*PAPER_SPACE
  1

  0
ENDBLK
  5
10
100
AcDbEntity
 67
             1
  8
0
100
AcDbBlockEnd
  0
ENDSEC
  0
SECTION
  2
ENTITIES
  0
ARC
  5
2D3
100
AcDbEntity
  8
1
  6
CONTINUOUS
 62
             7
100
AcDbCircle
 10
-7.5
 20
22.97432796138309
 40
0.5
100
AcDbArc
 50
93.99999999999999
 51
180.0
  0
ARC
  5
2D2
100
AcDbEntity
  8
1
  6
CONTINUOUS
 62
             7
100
AcDbCircle
 10
-7.5
 20
-22.97432796138308
 40
0.5
100
AcDbArc
 50
180.0
 51
-94.00000000000001
  0
ARC
  5
2D1
100
AcDbEntity
  8
1
  6
CONTINUOUS
 62
             7
100
AcDbCircle
 10
-153.0
 20
23.0
 40
1.0
100
AcDbArc
 50
90.0
 51
180.0
  0
ARC
  5
2D0
100
AcDbEntity
  8
1
  6
CONTINUOUS
 62
             7
100
AcDbCircle
 10
-153.0
 20
-23.0
 40
1.0
100
AcDbArc
 50
180.0
 51
-90.0
  0
ARC
  5
2CF
100
AcDbEntity
  8
1
  6
CONTINUOUS
 62
             7
100
AcDbCircle
 10
-59.0
 20
-23.0
 40
1.0
100
AcDbArc
 50
-90.0
 51
0.0
  0
ARC
  5
2CE
100
AcDbEntity
  8
1
  6
CONTINUOUS
 62
             7
100
AcDbCircle
 10
-59.0
 20
23.0
 40
1.0
100
AcDbArc
 50
0.0
 51
90.0
  0
ARC
  5
2CD
100
AcDbEntity
  8
1
  6
CONTINUOUS
 62
             7
100
AcDbCircle
 10
29.0
 20
-20.0
 40
1.0
100
AcDbArc
 50
0.0
 51
90.0
  0
ARC
  5
2CC
100
AcDbEntity
  8
1
  6
CONTINUOUS
 62
             7
100
AcDbCircle
 10
13.13378091189057
 20
-20.0
 40
1.0
100
AcDbArc
 50
90.0
 51
180.0
  0
ARC
  5
2CB
100
AcDbEntity
  8
1
  6
CONTINUOUS
 62
             7
100
AcDbCircle
 10
13.13378091189057
 20
20.0
 40
1.0
100
AcDbArc
 50
180.0
 51
-90.0
  0
ARC
  5
2CA
100
AcDbEntity
  8
1
  6
CONTINUOUS
 62
             7
100
AcDbCircle
 10
29.0
 20
20.0
 40
1.0
100
AcDbArc
 50
-90.0
 51
0.0
  0
ARC
  5
2C9
100
AcDbEntity
  8
1
  6
CONTINUOUS
 62
             7
100
AcDbCircle
 10
29.0
 20
6.0
 40
1.0
100
AcDbArc
 50
0.0
 51
90.0
  0
ARC
  5
2C8
100
AcDbEntity
  8
1
  6
CONTINUOUS
 62
             7
100
AcDbCircle
 10
16.0
 20
6.0
 40
1.0
100
AcDbArc
 50
90.0
 51
180.0
  0
ARC
  5
2C7
100
AcDbEntity
  8
1
  6
CONTINUOUS
 62
             7
100
AcDbCircle
 10
16.0
 20
-6.0
 40
1.0
100
AcDbArc
 50
180.0
 51
-90.0
  0
ARC
  5
2C6
100
AcDbEntity
  8
1
  6
CONTINUOUS
 62
             7
100
AcDbCircle
 10
29.0
 20
-6.0
 40
1.0
100
AcDbArc
 50
-90.0
 51
0.0
  0
ARC
  5
2C5
100
AcDbEntity
  8
1
  6
CONTINUOUS
 62
             7
100
AcDbCircle
 10
-68.5
 20
7.74999999999999
 40
0.5
100
AcDbArc
 50
0.0
 51
90.0
  0
ARC
  5
2C4
100
AcDbEntity
  8
1
  6
CONTINUOUS
 62
             7
100
AcDbCircle
 10
-68.5
 20
1.74999999999999
 40
0.5
100
AcDbArc
 50
-90.0
 51
0.0
  0
ARC
  5
2C3
100
AcDbEntity
  8
1
  6
CONTINUOUS
 62
             7
100
AcDbCircle
 10
-77.5
 20
1.74999999999999
 40
0.5
100
AcDbArc
 50
180.0
 51
-90.0
  0
ARC
  5
2C2
100
AcDbEntity
  8
1
  6
CONTINUOUS
 62
             7
100
AcDbCircle
 10
-77.5
 20
7.74999999999999
 40
0.50000000000001
100
AcDbArc
 50
90.0
 51
180.0
  0
ARC
  5
2C1
100
AcDbEntity
  8
1
  6
CONTINUOUS
 62
             7
100
AcDbCircle
 10
-79.5
 20
7.74999999999999
 40
0.5
100
AcDbArc
 50
0.0
 51
90.0
  0
ARC
  5
2C0
100
AcDbEntity
  8
1
  6
CONTINUOUS
 62
             7
100
AcDbCircle
 10
-79.5
 20
1.74999999999999
 40
0.5
100
AcDbArc
 50
-90.0
 51
0.0
  0
ARC
  5
2BF
100
AcDbEntity
  8
1
  6
CONTINUOUS
 62
             7
100
AcDbCircle
 10
-88.5
 20
1.74999999999999
 40
0.5
100
AcDbArc
 50
180.0
 51
-90.0
  0
ARC
  5
2BE
100
AcDbEntity
  8
1
  6
CONTINUOUS
 62
             7
100
AcDbCircle
 10
-88.5
 20
7.74999999999999
 40
0.50000000000001
100
AcDbArc
 50
90.0
 51
180.0
  0
ARC
  5
2BD
100
AcDbEntity
  8
1
  6
CONTINUOUS
 62
             7
100
AcDbCircle
 10
-68.5
 20
17.24999999999999
 40
0.5
100
AcDbArc
 50
0.0
 51
90.0
  0
ARC
  5
2BC
100
AcDbEntity
  8
1
  6
CONTINUOUS
 62
             7
100
AcDbCircle
 10
-68.5
 20
11.24999999999999
 40
0.5
100
AcDbArc
 50
-90.0
 51
0.0
  0
ARC
  5
2BB
100
AcDbEntity
  8
1
  6
CONTINUOUS
 62
             7
100
AcDbCircle
 10
-77.5
 20
11.24999999999999
 40
0.5
100
AcDbArc
 50
180.0
 51
-90.0
  0
ARC
  5
2BA
100
AcDbEntity
  8
1
  6
CONTINUOUS
 62
             7
100
AcDbCircle
 10
-77.5
 20
17.24999999999999
 40
0.5
100
AcDbArc
 50
90.0
 51
180.0
  0
ARC
  5
2B9
100
AcDbEntity
  8
1
  6
CONTINUOUS
 62
             7
100
AcDbCircle
 10
-79.5
 20
17.24999999999999
 40
0.5
100
AcDbArc
 50
0.0
 51
90.0
  0
ARC
  5
2B8
100
AcDbEntity
  8
1
  6
CONTINUOUS
 62
             7
100
AcDbCircle
 10
-79.5
 20
11.24999999999999
 40
0.5
100
AcDbArc
 50
-90.0
 51
0.0
  0
ARC
  5
2B7
100
AcDbEntity
  8
1
  6
CONTINUOUS
 62
             7
100
AcDbCircle
 10
-88.5
 20
11.24999999999999
 40
0.5
100
AcDbArc
 50
180.0
 51
-90.0
  0
ARC
  5
2B6
100
AcDbEntity
  8
1
  6
CONTINUOUS
 62
             7
100
AcDbCircle
 10
-88.5
 20
17.24999999999999
 40
0.5
100
AcDbArc
 50
90.0
 51
180.0
  0
ARC
  5
2B5
100
AcDbEntity
  8
1
  6
CONTINUOUS
 62
             7
100
AcDbCircle
 10
-144.5
 20
-14.75
 40
0.5
100
AcDbArc
 50
90.0
 51
180.0
  0
ARC
  5
2B4
100
AcDbEntity
  8
1
  6
CONTINUOUS
 62
             7
100
AcDbCircle
 10
-144.5
 20
-15.25
 40
0.5
100
AcDbArc
 50
180.0
 51
-90.0
  0
ARC
  5
2B3
100
AcDbEntity
  8
1
  6
CONTINUOUS
 62
             7
100
AcDbCircle
 10
-91.5
 20
-14.75
 40
0.5
100
AcDbArc
 50
0.0
 51
90.0
  0
ARC
  5
2B2
100
AcDbEntity
  8
1
  6
CONTINUOUS
 62
             7
100
AcDbCircle
 10
-91.5
 20
-15.25
 40
0.5
100
AcDbArc
 50
-90.0
 51
0.0
  0
ARC
  5
2B1
100
AcDbEntity
  8
1
  6
CONTINUOUS
 62
             7
100
AcDbCircle
 10
-68.5
 20
-1.75000000000001
 40
0.5
100
AcDbArc
 50
0.0
 51
90.0
  0
ARC
  5
2B0
100
AcDbEntity
  8
1
  6
CONTINUOUS
 62
             7
100
AcDbCircle
 10
-68.5
 20
-7.75000000000001
 40
0.5
100
AcDbArc
 50
-90.0
 51
0.0
  0
ARC
  5
2AF
100
AcDbEntity
  8
1
  6
CONTINUOUS
 62
             7
100
AcDbCircle
 10
-77.5
 20
-7.75000000000001
 40
0.5
100
AcDbArc
 50
180.0
 51
-90.0
  0
ARC
  5
2AE
100
AcDbEntity
  8
1
  6
CONTINUOUS
 62
             7
100
AcDbCircle
 10
-77.5
 20
-1.75000000000001
 40
0.5
100
AcDbArc
 50
90.0
 51
180.0
  0
ARC
  5
2AD
100
AcDbEntity
  8
1
  6
CONTINUOUS
 62
             7
100
AcDbCircle
 10
-68.5
 20
-3.60343613597583
 40
0.49999999999999
100
AcDbArc
 50
-85.00000000000011
 51
0.0
  0
ARC
  5
2AC
100
AcDbEntity
  8
1
  6
CONTINUOUS
 62
             7
100
AcDbCircle
 10
-68.5
 20
-5.10916589229087
 40
0.5
100
AcDbArc
 50
0.0
 51
94.99999999999325
  0
ARC
  5
2AB
100
AcDbEntity
  8
1
  6
CONTINUOUS
 62
             7
100
AcDbCircle
 10
-79.5
 20
-1.75000000000001
 40
0.5
100
AcDbArc
 50
0.0
 51
90.0
  0
ARC
  5
2AA
100
AcDbEntity
  8
1
  6
CONTINUOUS
 62
             7
100
AcDbCircle
 10
-79.5
 20
-7.75000000000001
 40
0.5
100
AcDbArc
 50
-90.0
 51
0.0
  0
ARC
  5
2A9
100
AcDbEntity
  8
1
  6
CONTINUOUS
 62
             7
100
AcDbCircle
 10
-88.5
 20
-7.75000000000001
 40
0.5
100
AcDbArc
 50
180.0
 51
-90.0
  0
ARC
  5
2A8
100
AcDbEntity
  8
1
  6
CONTINUOUS
 62
             7
100
AcDbCircle
 10
-88.5
 20
-1.75000000000001
 40
0.5
100
AcDbArc
 50
90.0
 51
180.0
  0
ARC
  5
2A7
100
AcDbEntity
  8
1
  6
CONTINUOUS
 62
             7
100
AcDbCircle
 10
-79.5
 20
-3.60343613597583
 40
0.49999999999999
100
AcDbArc
 50
-85.00000000000011
 51
0.0
  0
ARC
  5
2A6
100
AcDbEntity
  8
1
  6
CONTINUOUS
 62
             7
100
AcDbCircle
 10
-79.5
 20
-5.10916589229087
 40
0.5
100
AcDbArc
 50
0.0
 51
94.99999999999325
  0
ARC
  5
2A5
100
AcDbEntity
  8
1
  6
CONTINUOUS
 62
             7
100
AcDbCircle
 10
-120.5
 20
0.0
 40
0.5
100
AcDbArc
 50
90.0
 51
180.0
  0
ARC
  5
2A4
100
AcDbEntity
  8
1
  6
CONTINUOUS
 62
             7
100
AcDbCircle
 10
-120.5
 20
-8.99999999999999
 40
0.5
100
AcDbArc
 50
180.0
 51
-90.0
  0
ARC
  5
2A3
100
AcDbEntity
  8
1
  6
CONTINUOUS
 62
             7
100
AcDbCircle
 10
-91.5
 20
-8.99999999999999
 40
0.5
100
AcDbArc
 50
-90.0
 51
0.0
  0
ARC
  5
2A2
100
AcDbEntity
  8
1
  6
CONTINUOUS
 62
             7
100
AcDbCircle
 10
-91.5
 20
0.0
 40
0.5
100
AcDbArc
 50
0.0
 51
90.0
  0
ARC
  5
2A1
100
AcDbEntity
  8
1
  6
CONTINUOUS
 62
             7
100
AcDbCircle
 10
-130.5
 20
15.99999999999999
 40
0.5
100
AcDbArc
 50
90.0
 51
180.0
  0
ARC
  5
2A0
100
AcDbEntity
  8
1
  6
CONTINUOUS
 62
             7
100
AcDbCircle
 10
-130.5
 20
4.99999999999999
 40
0.5
100
AcDbArc
 50
180.0
 51
-90.0
  0
ARC
  5
29F
100
AcDbEntity
  8
1
  6
CONTINUOUS
 62
             7
100
AcDbCircle
 10
-91.5
 20
4.99999999999999
 40
0.5
100
AcDbArc
 50
-90.0
 51
0.0
  0
ARC
  5
29E
100
AcDbEntity
  8
1
  6
CONTINUOUS
 62
             7
100
AcDbCircle
 10
-91.5
 20
15.99999999999999
 40
0.5
100
AcDbArc
 50
0.0
 51
90.0
  0
ARC
  5
29D
100
AcDbEntity
  8
1
  6
CONTINUOUS
 62
             7
100
AcDbCircle
 10
-144.25
 20
15.99999999999999
 40
0.5
100
AcDbArc
 50
90.0
 51
180.0
  0
ARC
  5
29C
100
AcDbEntity
  8
1
  6
CONTINUOUS
 62
             7
100
AcDbCircle
 10
-144.25
 20
6.99999999999999
 40
0.5
100
AcDbArc
 50
180.0
 51
-90.0
  0
ARC
  5
29B
100
AcDbEntity
  8
1
  6
CONTINUOUS
 62
             7
100
AcDbCircle
 10
-137.75
 20
6.99999999999999
 40
0.5
100
AcDbArc
 50
-90.0
 51
0.0
  0
ARC
  5
29A
100
AcDbEntity
  8
1
  6
CONTINUOUS
 62
             7
100
AcDbCircle
 10
-137.75
 20
15.99999999999999
 40
0.5
100
AcDbArc
 50
0.0
 51
90.0
  0
ARC
  5
299
100
AcDbEntity
  8
1
  6
CONTINUOUS
 62
             7
100
AcDbCircle
 10
-144.5
 20
-7.24999999999999
 40
0.5
100
AcDbArc
 50
90.0
 51
180.0
  0
ARC
  5
298
100
AcDbEntity
  8
1
  6
CONTINUOUS
 62
             7
100
AcDbCircle
 10
-144.5
 20
-7.74999999999999
 40
0.5
100
AcDbArc
 50
180.0
 51
-90.0
  0
ARC
  5
297
100
AcDbEntity
  8
1
  6
CONTINUOUS
 62
             7
100
AcDbCircle
 10
-127.5
 20
-7.74999999999999
 40
0.5
100
AcDbArc
 50
-90.0
 51
0.0
  0
ARC
  5
296
100
AcDbEntity
  8
1
  6
CONTINUOUS
 62
             7
100
AcDbCircle
 10
-127.5
 20
-7.24999999999999
 40
0.5
100
AcDbArc
 50
0.0
 51
90.0
  0
ARC
  5
295
100
AcDbEntity
  8
1
  6
CONTINUOUS
 62
             7
100
AcDbCircle
 10
-144.5
 20
-1.25
 40
0.5
100
AcDbArc
 50
90.0
 51
180.0
  0
ARC
  5
294
100
AcDbEntity
  8
1
  6
CONTINUOUS
 62
             7
100
AcDbCircle
 10
-144.5
 20
-1.75
 40
0.5
100
AcDbArc
 50
180.0
 51
-90.0
  0
ARC
  5
293
100
AcDbEntity
  8
1
  6
CONTINUOUS
 62
             7
100
AcDbCircle
 10
-127.5
 20
-1.75
 40
0.5
100
AcDbArc
 50
-90.0
 51
0.0
  0
ARC
  5
292
100
AcDbEntity
  8
1
  6
CONTINUOUS
 62
             7
100
AcDbCircle
 10
-127.5
 20
-1.25
 40
0.5
100
AcDbArc
 50
0.0
 51
90.0
  0
CIRCLE
  5
291
100
AcDbEntity
  8
1
  6
CONTINUOUS
 62
             7
100
AcDbCircle
 10
-138.5
 20
7.99999999999999
 40
0.5
  0
CIRCLE
  5
290
100
AcDbEntity
  8
1
  6
CONTINUOUS
 62
             7
100
AcDbCircle
 10
-99.75
 20
-7.99999999999999
 40
0.5
  0
CIRCLE
  5
28F
100
AcDbEntity
  8
1
  6
CONTINUOUS
 62
             7
100
AcDbCircle
 10
-92.25
 20
-7.99999999999999
 40
0.5
  0
CIRCLE
  5
28E
100
AcDbEntity
  8
1
  6
CONTINUOUS
 62
             7
100
AcDbCircle
 10
-107.25
 20
-7.99999999999999
 40
0.5
  0
CIRCLE
  5
28D
100
AcDbEntity
  8
1
  6
CONTINUOUS
 62
             7
100
AcDbCircle
 10
-114.75
 20
-7.99999999999999
 40
0.5
  0
CIRCLE
  5
28C
100
AcDbEntity
  8
0
  6
CONTINUOUS
 62
             7
100
AcDbCircle
 10
-92.75
 20
5.99999999999999
 40
0.59999999999999
  0
CIRCLE
  5
28B
100
AcDbEntity
  8
0
  6
CONTINUOUS
 62
             7
100
AcDbCircle
 10
-102.75
 20
5.99999999999999
 40
0.59999999999999
  0
CIRCLE
  5
28A
100
AcDbEntity
  8
0
  6
CONTINUOUS
 62
             7
100
AcDbCircle
 10
-112.75
 20
5.99999999999999
 40
0.59999999999999
  0
CIRCLE
  5
289
100
AcDbEntity
  8
0
  6
CONTINUOUS
 62
             7
100
AcDbCircle
 10
-122.75
 20
5.99999999999999
 40
0.59999999999999
  0
ARC
  5
288
100
AcDbEntity
  8
1
  6
CONTINUOUS
 62
             7
100
AcDbCircle
 10
-77.25
 20
-5.12182681998518
 40
0.25
100
AcDbArc
 50
94.99999999999989
 51
-85.00000000000026
  0
ARC
  5
287
100
AcDbEntity
  8
1
  6
CONTINUOUS
 62
             7
100
AcDbCircle
 10
-88.25
 20
-5.12182681998518
 40
0.25
100
AcDbArc
 50
94.99999999999989
 51
-85.00000000000026
  0
LINE
  5
286
100
AcDbEntity
  8
1
  6
CONTINUOUS
 62
             7
100
AcDbLine
 10
0.0
 20
24.0
 11
2.0
 21
24.0
  0
LINE
  5
285
100
AcDbEntity
  8
1
  6
CONTINUOUS
 62
             7
100
AcDbLine
 10
0.0
 20
-24.0
 11
2.0
 21
-24.0
  0
LINE
  5
284
100
AcDbEntity
  8
1
  6
CONTINUOUS
 62
             7
100
AcDbLine
 10
90.5
 20
15.25
 11
102.0
 21
15.25
  0
LINE
  5
283
100
AcDbEntity
  8
1
  6
CONTINUOUS
 62
             7
100
AcDbLine
 10
90.5
 20
8.25
 11
102.0
 21
8.25
  0
LINE
  5
282
100
AcDbEntity
  8
1
  6
CONTINUOUS
 62
             7
100
AcDbLine
 10
90.5
 20
8.25
 11
90.5
 21
3.0
  0
LINE
  5
281
100
AcDbEntity
  8
1
  6
CONTINUOUS
 62
             7
100
AcDbLine
 10
90.5
 20
-1.0
 11
90.5
 21
-8.25
  0
LINE
  5
280
100
AcDbEntity
  8
1
  6
CONTINUOUS
 62
             7
100
AcDbLine
 10
90.5
 20
-8.25
 11
102.0
 21
-8.25
  0
LINE
  5
27F
100
AcDbEntity
  8
1
  6
CONTINUOUS
 62
             7
100
AcDbLine
 10
90.5
 20
-15.25
 11
102.0
 21
-15.25
  0
LINE
  5
27E
100
AcDbEntity
  8
1
  6
CONTINUOUS
 62
             7
100
AcDbLine
 10
92.0
 20
15.25
 11
92.0
 21
22.5
  0
LINE
  5
27D
100
AcDbEntity
  8
1
  6
CONTINUOUS
 62
             7
100
AcDbLine
 10
92.0
 20
8.25
 11
92.0
 21
3.0
  0
LINE
  5
27C
100
AcDbEntity
  8
1
  6
CONTINUOUS
 62
             7
100
AcDbLine
 10
92.0
 20
-1.0
 11
92.0
 21
-8.25
  0
LINE
  5
27B
100
AcDbEntity
  8
1
  6
CONTINUOUS
 62
             7
100
AcDbLine
 10
92.0
 20
-15.25
 11
92.0
 21
-22.5
  0
LINE
  5
27A
100
AcDbEntity
  8
1
  6
CONTINUOUS
 62
             7
100
AcDbLine
 10
92.0
 20
3.0
 11
82.0
 21
3.0
  0
LINE
  5
279
100
AcDbEntity
  8
1
  6
CONTINUOUS
 62
             7
100
AcDbLine
 10
82.0
 20
3.0
 11
82.0
 21
-1.0
  0
LINE
  5
278
100
AcDbEntity
  8
1
  6
CONTINUOUS
 62
             7
100
AcDbLine
 10
82.0
 20
-1.0
 11
92.0
 21
-1.0
  0
LINE
  5
277
100
AcDbEntity
  8
1
  6
CONTINUOUS
 62
             7
100
AcDbLine
 10
90.5
 20
20.0
 11
45.40192378864668
 21
20.0
  0
LINE
  5
276
100
AcDbEntity
  8
1
  6
CONTINUOUS
 62
             7
100
AcDbLine
 10
45.40192378864668
 20
20.0
 11
48.0
 21
18.5
  0
LINE
  5
275
100
AcDbEntity
  8
1
  6
CONTINUOUS
 62
             7
100
AcDbLine
 10
48.0
 20
18.5
 11
90.5
 21
18.5
  0
LINE
  5
274
100
AcDbEntity
  8
1
  6
CONTINUOUS
 62
             7
100
AcDbLine
 10
90.5
 20
-18.5
 11
48.0
 21
-18.5
  0
LINE
  5
273
100
AcDbEntity
  8
1
  6
CONTINUOUS
 62
             7
100
AcDbLine
 10
48.0
 20
-18.5
 11
45.40192378864668
 21
-20.0
  0
LINE
  5
272
100
AcDbEntity
  8
1
  6
CONTINUOUS
 62
             7
100
AcDbLine
 10
45.40192378864668
 20
-20.0
 11
90.5
 21
-20.0
  0
LINE
  5
271
100
AcDbEntity
  8
1
  6
CONTINUOUS
 62
             7
100
AcDbLine
 10
90.5
 20
15.25
 11
90.5
 21
22.5
  0
LINE
  5
270
100
AcDbEntity
  8
1
  6
CONTINUOUS
 62
             7
100
AcDbLine
 10
90.5
 20
-15.25
 11
90.5
 21
-22.5
  0
LINE
  5
26F
100
AcDbEntity
  8
1
  6
CONTINUOUS
 62
             7
100
AcDbLine
 10
30.0
 20
22.5
 11
30.0
 21
20.0
  0
LINE
  5
26E
100
AcDbEntity
  8
1
  6
CONTINUOUS
 62
             7
100
AcDbLine
 10
15.0
 20
22.5
 11
15.0
 21
22.0
  0
LINE
  5
26D
100
AcDbEntity
  8
1
  6
CONTINUOUS
 62
             7
100
AcDbLine
 10
15.0
 20
-22.5
 11
15.0
 21
-22.0
  0
LINE
  5
26C
100
AcDbEntity
  8
1
  6
CONTINUOUS
 62
             7
100
AcDbLine
 10
30.0
 20
-22.5
 11
30.0
 21
-20.0
  0
LINE
  5
26B
100
AcDbEntity
  8
1
  6
CONTINUOUS
 62
             7
100
AcDbLine
 10
2.0
 20
22.0
 11
6.5
 21
22.0
  0
LINE
  5
26A
100
AcDbEntity
  8
1
  6
CONTINUOUS
 62
             7
100
AcDbLine
 10
2.0
 20
-22.0
 11
6.5
 21
-22.0
  0
LINE
  5
269
100
AcDbEntity
  8
1
  6
CONTINUOUS
 62
             7
100
AcDbLine
 10
37.0
 20
22.5
 11
37.0
 21
-22.5
  0
LINE
  5
268
100
AcDbEntity
  8
1
  6
CONTINUOUS
 62
             7
100
AcDbLine
 10
4.0
 20
3.0
 11
6.5
 21
3.0
  0
LINE
  5
267
100
AcDbEntity
  8
1
  6
CONTINUOUS
 62
             7
100
AcDbLine
 10
102.0
 20
13.25
 11
101.5
 21
13.25
  0
LINE
  5
266
100
AcDbEntity
  8
1
  6
CONTINUOUS
 62
             7
100
AcDbLine
 10
101.5
 20
13.25
 11
101.5
 21
10.25
  0
LINE
  5
265
100
AcDbEntity
  8
1
  6
CONTINUOUS
 62
             7
100
AcDbLine
 10
101.5
 20
10.25
 11
102.0
 21
10.25
  0
LINE
  5
264
100
AcDbEntity
  8
1
  6
CONTINUOUS
 62
             7
100
AcDbLine
 10
102.0
 20
-10.25
 11
101.5
 21
-10.25
  0
LINE
  5
263
100
AcDbEntity
  8
1
  6
CONTINUOUS
 62
             7
100
AcDbLine
 10
101.5
 20
-10.25
 11
101.5
 21
-13.25
  0
LINE
  5
262
100
AcDbEntity
  8
1
  6
CONTINUOUS
 62
             7
100
AcDbLine
 10
101.5
 20
-13.25
 11
102.0
 21
-13.25
  0
LINE
  5
261
100
AcDbEntity
  8
1
  6
CONTINUOUS
 62
             7
100
AcDbLine
 10
100.0
 20
22.5
 11
102.0
 21
20.5
  0
LINE
  5
260
100
AcDbEntity
  8
1
  6
CONTINUOUS
 62
             7
100
AcDbLine
 10
102.0
 20
20.5
 11
102.0
 21
-20.5
  0
LINE
  5
25F
100
AcDbEntity
  8
1
  6
CONTINUOUS
 62
             7
100
AcDbLine
 10
102.0
 20
-20.5
 11
100.0
 21
-22.5
  0
LINE
  5
25E
100
AcDbEntity
  8
1
  6
CONTINUOUS
 62
             7
100
AcDbLine
 10
100.0
 20
22.5
 11
2.0
 21
22.5
  0
LINE
  5
25D
100
AcDbEntity
  8
1
  6
CONTINUOUS
 62
             7
100
AcDbLine
 10
100.0
 20
-22.5
 11
2.0
 21
-22.5
  0
LINE
  5
25C
100
AcDbEntity
  8
1
  6
CONTINUOUS
 62
             7
100
AcDbLine
 10
17.0
 20
6.5
 11
29.86602540378444
 21
6.5
  0
LINE
  5
25B
100
AcDbEntity
  8
1
  6
CONTINUOUS
 62
             7
100
AcDbLine
 10
17.0
 20
7.0
 11
17.0
 21
6.5
  0
LINE
  5
25A
100
AcDbEntity
  8
1
  6
CONTINUOUS
 62
             7
100
AcDbLine
 10
17.0
 20
3.0
 11
30.0
 21
3.0
  0
LINE
  5
259
100
AcDbEntity
  8
1
  6
CONTINUOUS
 62
             7
100
AcDbLine
 10
30.0
 20
5.0
 11
17.0
 21
5.0
  0
LINE
  5
258
100
AcDbEntity
  8
1
  6
CONTINUOUS
 62
             7
100
AcDbLine
 10
17.0
 20
5.0
 11
17.0
 21
3.0
  0
LINE
  5
257
100
AcDbEntity
  8
1
  6
CONTINUOUS
 62
             7
100
AcDbLine
 10
29.86602540378444
 20
-6.5
 11
17.0
 21
-6.5
  0
LINE
  5
256
100
AcDbEntity
  8
1
  6
CONTINUOUS
 62
             7
100
AcDbLine
 10
17.0
 20
-6.5
 11
17.0
 21
-7.0
  0
LINE
  5
255
100
AcDbEntity
  8
1
  6
CONTINUOUS
 62
             7
100
AcDbLine
 10
30.0
 20
-3.0
 11
17.0
 21
-3.0
  0
LINE
  5
254
100
AcDbEntity
  8
1
  6
CONTINUOUS
 62
             7
100
AcDbLine
 10
17.0
 20
-5.0
 11
30.0
 21
-5.0
  0
LINE
  5
253
100
AcDbEntity
  8
1
  6
CONTINUOUS
 62
             7
100
AcDbLine
 10
17.0
 20
-3.0
 11
17.0
 21
-5.0
  0
LINE
  5
252
100
AcDbEntity
  8
1
  6
CONTINUOUS
 62
             7
100
AcDbLine
 10
39.0
 20
10.0
 11
54.0
 21
10.0
  0
LINE
  5
251
100
AcDbEntity
  8
1
  6
CONTINUOUS
 62
             7
100
AcDbLine
 10
54.0
 20
10.0
 11
54.0
 21
12.0
  0
LINE
  5
250
100
AcDbEntity
  8
1
  6
CONTINUOUS
 62
             7
100
AcDbLine
 10
54.0
 20
12.0
 11
39.0
 21
12.0
  0
LINE
  5
24F
100
AcDbEntity
  8
1
  6
CONTINUOUS
 62
             7
100
AcDbLine
 10
39.0
 20
12.0
 11
39.0
 21
10.0
  0
LINE
  5
24E
100
AcDbEntity
  8
1
  6
CONTINUOUS
 62
             7
100
AcDbLine
 10
39.0
 20
6.5
 11
54.0
 21
6.5
  0
LINE
  5
24D
100
AcDbEntity
  8
1
  6
CONTINUOUS
 62
             7
100
AcDbLine
 10
54.0
 20
6.5
 11
54.0
 21
8.5
  0
LINE
  5
24C
100
AcDbEntity
  8
1
  6
CONTINUOUS
 62
             7
100
AcDbLine
 10
54.0
 20
8.5
 11
39.0
 21
8.5
  0
LINE
  5
24B
100
AcDbEntity
  8
1
  6
CONTINUOUS
 62
             7
100
AcDbLine
 10
39.0
 20
8.5
 11
39.0
 21
6.5
  0
LINE
  5
24A
100
AcDbEntity
  8
1
  6
CONTINUOUS
 62
             7
100
AcDbLine
 10
39.0
 20
3.0
 11
54.0
 21
3.0
  0
LINE
  5
249
100
AcDbEntity
  8
1
  6
CONTINUOUS
 62
             7
100
AcDbLine
 10
54.0
 20
3.0
 11
54.0
 21
5.0
  0
LINE
  5
248
100
AcDbEntity
  8
1
  6
CONTINUOUS
 62
             7
100
AcDbLine
 10
54.0
 20
5.0
 11
39.0
 21
5.0
  0
LINE
  5
247
100
AcDbEntity
  8
1
  6
CONTINUOUS
 62
             7
100
AcDbLine
 10
39.0
 20
5.0
 11
39.0
 21
3.0
  0
LINE
  5
246
100
AcDbEntity
  8
1
  6
CONTINUOUS
 62
             7
100
AcDbLine
 10
54.0
 20
-10.0
 11
39.0
 21
-10.0
  0
LINE
  5
245
100
AcDbEntity
  8
1
  6
CONTINUOUS
 62
             7
100
AcDbLine
 10
54.0
 20
-12.0
 11
54.0
 21
-10.0
  0
LINE
  5
244
100
AcDbEntity
  8
1
  6
CONTINUOUS
 62
             7
100
AcDbLine
 10
39.0
 20
-12.0
 11
54.0
 21
-12.0
  0
LINE
  5
243
100
AcDbEntity
  8
1
  6
CONTINUOUS
 62
             7
100
AcDbLine
 10
39.0
 20
-10.0
 11
39.0
 21
-12.0
  0
LINE
  5
242
100
AcDbEntity
  8
1
  6
CONTINUOUS
 62
             7
100
AcDbLine
 10
54.0
 20
-6.5
 11
39.0
 21
-6.5
  0
LINE
  5
241
100
AcDbEntity
  8
1
  6
CONTINUOUS
 62
             7
100
AcDbLine
 10
54.0
 20
-8.5
 11
54.0
 21
-6.5
  0
LINE
  5
240
100
AcDbEntity
  8
1
  6
CONTINUOUS
 62
             7
100
AcDbLine
 10
39.0
 20
-8.5
 11
54.0
 21
-8.5
  0
LINE
  5
23F
100
AcDbEntity
  8
1
  6
CONTINUOUS
 62
             7
100
AcDbLine
 10
39.0
 20
-6.5
 11
39.0
 21
-8.5
  0
LINE
  5
23E
100
AcDbEntity
  8
1
  6
CONTINUOUS
 62
             7
100
AcDbLine
 10
54.0
 20
-3.0
 11
39.0
 21
-3.0
  0
LINE
  5
23D
100
AcDbEntity
  8
1
  6
CONTINUOUS
 62
             7
100
AcDbLine
 10
54.0
 20
-5.0
 11
54.0
 21
-3.0
  0
LINE
  5
23C
100
AcDbEntity
  8
1
  6
CONTINUOUS
 62
             7
100
AcDbLine
 10
39.0
 20
-5.0
 11
54.0
 21
-5.0
  0
LINE
  5
23B
100
AcDbEntity
  8
1
  6
CONTINUOUS
 62
             7
100
AcDbLine
 10
39.0
 20
-3.0
 11
39.0
 21
-5.0
  0
LINE
  5
23A
100
AcDbEntity
  8
1
  6
CONTINUOUS
 62
             7
100
AcDbLine
 10
59.0
 20
10.0
 11
74.0
 21
10.0
  0
LINE
  5
239
100
AcDbEntity
  8
1
  6
CONTINUOUS
 62
             7
100
AcDbLine
 10
74.0
 20
10.0
 11
74.0
 21
12.0
  0
LINE
  5
238
100
AcDbEntity
  8
1
  6
CONTINUOUS
 62
             7
100
AcDbLine
 10
74.0
 20
12.0
 11
59.0
 21
12.0
  0
LINE
  5
237
100
AcDbEntity
  8
1
  6
CONTINUOUS
 62
             7
100
AcDbLine
 10
59.0
 20
12.0
 11
59.0
 21
10.0
  0
LINE
  5
236
100
AcDbEntity
  8
1
  6
CONTINUOUS
 62
             7
100
AcDbLine
 10
59.0
 20
6.5
 11
74.0
 21
6.5
  0
LINE
  5
235
100
AcDbEntity
  8
1
  6
CONTINUOUS
 62
             7
100
AcDbLine
 10
74.0
 20
6.5
 11
74.0
 21
8.5
  0
LINE
  5
234
100
AcDbEntity
  8
1
  6
CONTINUOUS
 62
             7
100
AcDbLine
 10
74.0
 20
8.5
 11
59.0
 21
8.5
  0
LINE
  5
233
100
AcDbEntity
  8
1
  6
CONTINUOUS
 62
             7
100
AcDbLine
 10
59.0
 20
8.5
 11
59.0
 21
6.5
  0
LINE
  5
232
100
AcDbEntity
  8
1
  6
CONTINUOUS
 62
             7
100
AcDbLine
 10
74.0
 20
-10.0
 11
59.0
 21
-10.0
  0
LINE
  5
231
100
AcDbEntity
  8
1
  6
CONTINUOUS
 62
             7
100
AcDbLine
 10
74.0
 20
-12.0
 11
74.0
 21
-10.0
  0
LINE
  5
230
100
AcDbEntity
  8
1
  6
CONTINUOUS
 62
             7
100
AcDbLine
 10
59.0
 20
-12.0
 11
74.0
 21
-12.0
  0
LINE
  5
22F
100
AcDbEntity
  8
1
  6
CONTINUOUS
 62
             7
100
AcDbLine
 10
59.0
 20
-10.0
 11
59.0
 21
-12.0
  0
LINE
  5
22E
100
AcDbEntity
  8
1
  6
CONTINUOUS
 62
             7
100
AcDbLine
 10
74.0
 20
-6.5
 11
59.0
 21
-6.5
  0
LINE
  5
22D
100
AcDbEntity
  8
1
  6
CONTINUOUS
 62
             7
100
AcDbLine
 10
74.0
 20
-8.5
 11
74.0
 21
-6.5
  0
LINE
  5
22C
100
AcDbEntity
  8
1
  6
CONTINUOUS
 62
             7
100
AcDbLine
 10
59.0
 20
-8.5
 11
74.0
 21
-8.5
  0
LINE
  5
22B
100
AcDbEntity
  8
1
  6
CONTINUOUS
 62
             7
100
AcDbLine
 10
59.0
 20
-6.5
 11
59.0
 21
-8.5
  0
LINE
  5
22A
100
AcDbEntity
  8
1
  6
CONTINUOUS
 62
             7
100
AcDbLine
 10
60.0
 20
-2.0
 11
65.0
 21
-2.0
  0
LINE
  5
229
100
AcDbEntity
  8
1
  6
CONTINUOUS
 62
             7
100
AcDbLine
 10
65.0
 20
-2.0
 11
65.0
 21
4.0
  0
LINE
  5
228
100
AcDbEntity
  8
1
  6
CONTINUOUS
 62
             7
100
AcDbLine
 10
65.0
 20
4.0
 11
60.0
 21
4.0
  0
LINE
  5
227
100
AcDbEntity
  8
1
  6
CONTINUOUS
 62
             7
100
AcDbLine
 10
60.0
 20
4.0
 11
60.0
 21
-2.0
  0
LINE
  5
226
100
AcDbEntity
  8
1
  6
CONTINUOUS
 62
             7
100
AcDbLine
 10
69.5
 20
15.0
 11
72.5
 21
15.0
  0
LINE
  5
225
100
AcDbEntity
  8
1
  6
CONTINUOUS
 62
             7
100
AcDbLine
 10
72.5
 20
15.0
 11
72.5
 21
18.0
  0
LINE
  5
224
100
AcDbEntity
  8
1
  6
CONTINUOUS
 62
             7
100
AcDbLine
 10
72.5
 20
18.0
 11
69.5
 21
18.0
  0
LINE
  5
223
100
AcDbEntity
  8
1
  6
CONTINUOUS
 62
             7
100
AcDbLine
 10
69.5
 20
18.0
 11
69.5
 21
15.0
  0
LINE
  5
222
100
AcDbEntity
  8
1
  6
CONTINUOUS
 62
             7
100
AcDbLine
 10
72.5
 20
-15.0
 11
69.5
 21
-15.0
  0
LINE
  5
221
100
AcDbEntity
  8
1
  6
CONTINUOUS
 62
             7
100
AcDbLine
 10
72.5
 20
-18.0
 11
72.5
 21
-15.0
  0
LINE
  5
220
100
AcDbEntity
  8
1
  6
CONTINUOUS
 62
             7
100
AcDbLine
 10
69.5
 20
-18.0
 11
72.5
 21
-18.0
  0
LINE
  5
21F
100
AcDbEntity
  8
1
  6
CONTINUOUS
 62
             7
100
AcDbLine
 10
69.5
 20
-15.0
 11
69.5
 21
-18.0
  0
LINE
  5
21E
100
AcDbEntity
  8
1
  6
CONTINUOUS
 62
             7
100
AcDbLine
 10
4.0
 20
22.0
 11
4.0
 21
-22.0
  0
LINE
  5
21D
100
AcDbEntity
  8
1
  6
CONTINUOUS
 62
             7
100
AcDbLine
 10
2.0
 20
24.0
 11
2.0
 21
-24.0
  0
LINE
  5
21C
100
AcDbEntity
  8
1
  6
CONTINUOUS
 62
             7
100
AcDbLine
 10
1.7
 20
9.0
 11
1.7
 21
-9.0
  0
LINE
  5
21B
100
AcDbEntity
  8
1
  6
CONTINUOUS
 62
             7
100
AcDbLine
 10
-4.0
 20
7.0
 11
-4.0
 21
-7.0
  0
LINE
  5
21A
100
AcDbEntity
  8
1
  6
CONTINUOUS
 62
             7
100
AcDbLine
 10
-3.0
 20
7.0
 11
-3.0
 21
-7.0
  0
LINE
  5
219
100
AcDbEntity
  8
1
  6
CONTINUOUS
 62
             7
100
AcDbLine
 10
-1.5
 20
7.0
 11
-1.5
 21
-7.0
  0
LINE
  5
218
100
AcDbEntity
  8
1
  6
CONTINUOUS
 62
             7
100
AcDbLine
 10
-4.0
 20
7.0
 11
0.0
 21
7.0
  0
LINE
  5
217
100
AcDbEntity
  8
1
  6
CONTINUOUS
 62
             7
100
AcDbLine
 10
-4.0
 20
-7.0
 11
0.0
 21
-7.0
  0
LINE
  5
216
100
AcDbEntity
  8
1
  6
CONTINUOUS
 62
             7
100
AcDbLine
 10
-5.0
 20
9.0
 11
-5.0
 21
-9.0
  0
LINE
  5
215
100
AcDbEntity
  8
1
  6
CONTINUOUS
 62
             7
100
AcDbLine
 10
-6.0
 20
-9.0
 11
-6.0
 21
9.0
  0
LINE
  5
214
100
AcDbEntity
  8
1
  6
CONTINUOUS
 62
             7
100
AcDbLine
 10
1.7
 20
9.0
 11
-6.0
 21
9.0
  0
LINE
  5
213
100
AcDbEntity
  8
1
  6
CONTINUOUS
 62
             7
100
AcDbLine
 10
1.7
 20
-9.0
 11
-6.0
 21
-9.0
  0
LINE
  5
212
100
AcDbEntity
  8
1
  6
CONTINUOUS
 62
             7
100
AcDbLine
 10
0.0
 20
24.0
 11
0.0
 21
-24.0
  0
LINE
  5
211
100
AcDbEntity
  8
1
  6
CONTINUOUS
 62
             7
100
AcDbLine
 10
0.0
 20
24.0
 11
-7.53487823687206
 21
23.473109986513
  0
LINE
  5
210
100
AcDbEntity
  8
1
  6
CONTINUOUS
 62
             7
100
AcDbLine
 10
-8.0
 20
22.97432796138309
 11
-8.0
 21
-22.97432796138308
  0
LINE
  5
20F
100
AcDbEntity
  8
1
  6
CONTINUOUS
 62
             7
100
AcDbLine
 10
-7.53487823687206
 20
-23.473109986513
 11
0.0
 21
-24.0
  0
LINE
  5
20E
100
AcDbEntity
  8
1
  6
CONTINUOUS
 62
             7
100
AcDbLine
 10
-59.0
 20
24.0
 11
-153.0
 21
24.0
  0
LINE
  5
20D
100
AcDbEntity
  8
1
  6
CONTINUOUS
 62
             7
100
AcDbLine
 10
-153.0
 20
-24.0
 11
-59.0
 21
-24.0
  0
LINE
  5
20C
100
AcDbEntity
  8
1
  6
CONTINUOUS
 62
             7
100
AcDbLine
 10
12.13378091189057
 20
22.0
 11
15.0
 21
22.0
  0
LINE
  5
20B
100
AcDbEntity
  8
1
  6
CONTINUOUS
 62
             7
100
AcDbLine
 10
12.13378091189057
 20
22.5
 11
12.13378091189057
 21
20.0
  0
LINE
  5
20A
100
AcDbEntity
  8
1
  6
CONTINUOUS
 62
             7
100
AcDbLine
 10
6.5
 20
22.5
 11
6.50000000000001
 21
-22.49999999999998
  0
LINE
  5
209
100
AcDbEntity
  8
1
  6
CONTINUOUS
 62
             7
100
AcDbLine
 10
12.13378091189057
 20
-22.0
 11
15.0
 21
-22.0
  0
LINE
  5
208
100
AcDbEntity
  8
1
  6
CONTINUOUS
 62
             7
100
AcDbLine
 10
6.5
 20
-3.0
 11
4.0
 21
-3.0
  0
LINE
  5
207
100
AcDbEntity
  8
1
  6
CONTINUOUS
 62
             7
100
AcDbLine
 10
12.13378091189057
 20
-22.5
 11
12.13378091189057
 21
-20.0
  0
LINE
  5
206
100
AcDbEntity
  8
1
  6
CONTINUOUS
 62
             7
100
AcDbLine
 10
13.13378091189057
 20
19.0
 11
29.0
 21
19.0
  0
LINE
  5
205
100
AcDbEntity
  8
1
  6
CONTINUOUS
 62
             7
100
AcDbLine
 10
13.13378091189057
 20
-19.0
 11
29.0
 21
-19.0
  0
LINE
  5
204
100
AcDbEntity
  8
1
  6
CONTINUOUS
 62
             7
100
AcDbLine
 10
16.0
 20
-7.0
 11
29.0
 21
-7.0
  0
LINE
  5
203
100
AcDbEntity
  8
1
  6
CONTINUOUS
 62
             7
100
AcDbLine
 10
30.0
 20
-6.0
 11
30.0
 21
6.0
  0
LINE
  5
202
100
AcDbEntity
  8
1
  6
CONTINUOUS
 62
             7
100
AcDbLine
 10
29.0
 20
7.0
 11
16.0
 21
7.0
  0
LINE
  5
201
100
AcDbEntity
  8
1
  6
CONTINUOUS
 62
             7
100
AcDbLine
 10
15.0
 20
6.0
 11
15.0
 21
-6.0
  0
LINE
  5
200
100
AcDbEntity
  8
1
  6
CONTINUOUS
 62
             7
100
AcDbLine
 10
-92.0
 20
-14.25
 11
-92.0
 21
-15.75
  0
LINE
  5
1FF
100
AcDbEntity
  8
1
  6
CONTINUOUS
 62
             7
100
AcDbLine
 10
-98.0
 20
-14.25
 11
-98.0
 21
-15.75
  0
LINE
  5
1FE
100
AcDbEntity
  8
1
  6
CONTINUOUS
 62
             7
100
AcDbLine
 10
-104.0
 20
-14.25
 11
-104.0
 21
-15.75
  0
LINE
  5
1FD
100
AcDbEntity
  8
1
  6
CONTINUOUS
 62
             7
100
AcDbLine
 10
-110.0
 20
-14.25
 11
-110.0
 21
-15.75
  0
LINE
  5
1FC
100
AcDbEntity
  8
1
  6
CONTINUOUS
 62
             7
100
AcDbLine
 10
-116.0
 20
-14.25
 11
-116.0
 21
-15.75
  0
LINE
  5
1FB
100
AcDbEntity
  8
1
  6
CONTINUOUS
 62
             7
100
AcDbLine
 10
-122.0
 20
-14.25
 11
-122.0
 21
-15.75
  0
LINE
  5
1FA
100
AcDbEntity
  8
1
  6
CONTINUOUS
 62
             7
100
AcDbLine
 10
-128.0
 20
-14.25
 11
-128.0
 21
-15.75
  0
LINE
  5
1F9
100
AcDbEntity
  8
1
  6
CONTINUOUS
 62
             7
100
AcDbLine
 10
-134.0
 20
-14.25
 11
-134.0
 21
-15.75
  0
LINE
  5
1F8
100
AcDbEntity
  8
1
  6
CONTINUOUS
 62
             7
100
AcDbLine
 10
-96.0
 20
-14.25
 11
-96.0
 21
-15.75
  0
LINE
  5
1F7
100
AcDbEntity
  8
1
  6
CONTINUOUS
 62
             7
100
AcDbLine
 10
-102.0
 20
-14.25
 11
-102.0
 21
-15.75
  0
LINE
  5
1F6
100
AcDbEntity
  8
1
  6
CONTINUOUS
 62
             7
100
AcDbLine
 10
-108.0
 20
-14.25
 11
-108.0
 21
-15.75
  0
LINE
  5
1F5
100
AcDbEntity
  8
1
  6
CONTINUOUS
 62
             7
100
AcDbLine
 10
-114.0
 20
-14.25
 11
-114.0
 21
-15.75
  0
LINE
  5
1F4
100
AcDbEntity
  8
1
  6
CONTINUOUS
 62
             7
100
AcDbLine
 10
-120.0
 20
-14.25
 11
-120.0
 21
-15.75
  0
LINE
  5
1F3
100
AcDbEntity
  8
1
  6
CONTINUOUS
 62
             7
100
AcDbLine
 10
-126.0
 20
-14.25
 11
-126.0
 21
-15.75
  0
LINE
  5
1F2
100
AcDbEntity
  8
1
  6
CONTINUOUS
 62
             7
100
AcDbLine
 10
-132.0
 20
-14.25
 11
-132.0
 21
-15.75
  0
LINE
  5
1F1
100
AcDbEntity
  8
1
  6
CONTINUOUS
 62
             7
100
AcDbLine
 10
-138.0
 20
-14.25
 11
-138.0
 21
-15.75
  0
LINE
  5
1F0
100
AcDbEntity
  8
1
  6
CONTINUOUS
 62
             7
100
AcDbLine
 10
-144.0
 20
-14.25
 11
-144.0
 21
-15.75
  0
LINE
  5
1EF
100
AcDbEntity
  8
1
  6
CONTINUOUS
 62
             7
100
AcDbLine
 10
-140.0
 20
-14.25
 11
-140.0
 21
-15.75
  0
LINE
  5
1EE
100
AcDbEntity
  8
1
  6
CONTINUOUS
 62
             7
100
AcDbLine
 10
-86.0
 20
13.24999999999999
 11
-84.0
 21
15.63350718518841
  0
LINE
  5
1ED
100
AcDbEntity
  8
1
  6
CONTINUOUS
 62
             7
100
AcDbLine
 10
-84.0
 20
15.63350718518841
 11
-82.0
 21
13.24999999999999
  0
LINE
  5
1EC
100
AcDbEntity
  8
1
  6
CONTINUOUS
 62
             7
100
AcDbLine
 10
-82.0
 20
13.24999999999999
 11
-86.0
 21
13.24999999999999
  0
LINE
  5
1EB
100
AcDbEntity
  8
1
  6
CONTINUOUS
 62
             7
100
AcDbLine
 10
-82.0
 20
5.74999999999999
 11
-84.0
 21
3.36649281481157
  0
LINE
  5
1EA
100
AcDbEntity
  8
1
  6
CONTINUOUS
 62
             7
100
AcDbLine
 10
-86.0
 20
5.74999999999999
 11
-82.0
 21
5.74999999999999
  0
LINE
  5
1E9
100
AcDbEntity
  8
1
  6
CONTINUOUS
 62
             7
100
AcDbLine
 10
-84.0
 20
3.36649281481157
 11
-86.0
 21
5.74999999999999
  0
LINE
  5
1E8
100
AcDbEntity
  8
1
  6
CONTINUOUS
 62
             7
100
AcDbLine
 10
-77.5
 20
10.74999999999999
 11
-68.5
 21
10.74999999999999
  0
LINE
  5
1E7
100
AcDbEntity
  8
1
  6
CONTINUOUS
 62
             7
100
AcDbLine
 10
-68.0
 20
11.24999999999999
 11
-68.0
 21
17.24999999999999
  0
LINE
  5
1E6
100
AcDbEntity
  8
1
  6
CONTINUOUS
 62
             7
100
AcDbLine
 10
-68.5
 20
17.74999999999999
 11
-77.5
 21
17.74999999999999
  0
LINE
  5
1E5
100
AcDbEntity
  8
1
  6
CONTINUOUS
 62
             7
100
AcDbLine
 10
-78.0
 20
17.24999999999999
 11
-78.0
 21
11.24999999999999
  0
LINE
  5
1E4
100
AcDbEntity
  8
1
  6
CONTINUOUS
 62
             7
100
AcDbLine
 10
-88.5
 20
1.24999999999999
 11
-79.5
 21
1.24999999999999
  0
LINE
  5
1E3
100
AcDbEntity
  8
1
  6
CONTINUOUS
 62
             7
100
AcDbLine
 10
-79.0
 20
1.74999999999999
 11
-79.0
 21
7.74999999999999
  0
LINE
  5
1E2
100
AcDbEntity
  8
1
  6
CONTINUOUS
 62
             7
100
AcDbLine
 10
-79.5
 20
8.24999999999999
 11
-88.5
 21
8.24999999999999
  0
LINE
  5
1E1
100
AcDbEntity
  8
1
  6
CONTINUOUS
 62
             7
100
AcDbLine
 10
-89.0
 20
7.74999999999999
 11
-89.0
 21
1.74999999999999
  0
LINE
  5
1E0
100
AcDbEntity
  8
1
  6
CONTINUOUS
 62
             7
100
AcDbLine
 10
-77.5
 20
1.24999999999999
 11
-68.5
 21
1.24999999999999
  0
LINE
  5
1DF
100
AcDbEntity
  8
1
  6
CONTINUOUS
 62
             7
100
AcDbLine
 10
-68.0
 20
1.74999999999999
 11
-68.0
 21
7.74999999999999
  0
LINE
  5
1DE
100
AcDbEntity
  8
1
  6
CONTINUOUS
 62
             7
100
AcDbLine
 10
-68.5
 20
8.24999999999999
 11
-77.5
 21
8.24999999999999
  0
LINE
  5
1DD
100
AcDbEntity
  8
1
  6
CONTINUOUS
 62
             7
100
AcDbLine
 10
-78.0
 20
7.74999999999999
 11
-78.0
 21
1.74999999999999
  0
LINE
  5
1DC
100
AcDbEntity
  8
1
  6
CONTINUOUS
 62
             7
100
AcDbLine
 10
-88.5
 20
10.74999999999999
 11
-79.5
 21
10.74999999999999
  0
LINE
  5
1DB
100
AcDbEntity
  8
1
  6
CONTINUOUS
 62
             7
100
AcDbLine
 10
-79.0
 20
11.24999999999999
 11
-79.0
 21
17.24999999999999
  0
LINE
  5
1DA
100
AcDbEntity
  8
1
  6
CONTINUOUS
 62
             7
100
AcDbLine
 10
-79.5
 20
17.74999999999999
 11
-88.5
 21
17.74999999999999
  0
LINE
  5
1D9
100
AcDbEntity
  8
1
  6
CONTINUOUS
 62
             7
100
AcDbLine
 10
-89.0
 20
17.24999999999999
 11
-89.0
 21
11.24999999999999
  0
LINE
  5
1D8
100
AcDbEntity
  8
1
  6
CONTINUOUS
 62
             7
100
AcDbLine
 10
-150.5
 20
-12.88000000000001
 11
-61.5
 21
-12.88000000000001
  0
LINE
  5
1D7
100
AcDbEntity
  8
1
  6
CONTINUOUS
 62
             7
100
AcDbLine
 10
-144.5
 20
-15.75
 11
-91.5
 21
-15.75
  0
LINE
  5
1D6
100
AcDbEntity
  8
1
  6
CONTINUOUS
 62
             7
100
AcDbLine
 10
-91.0
 20
-15.25
 11
-91.0
 21
-14.75
  0
LINE
  5
1D5
100
AcDbEntity
  8
1
  6
CONTINUOUS
 62
             7
100
AcDbLine
 10
-91.5
 20
-14.25
 11
-144.5
 21
-14.25
  0
LINE
  5
1D4
100
AcDbEntity
  8
1
  6
CONTINUOUS
 62
             7
100
AcDbLine
 10
-145.0
 20
-14.75
 11
-145.0
 21
-15.25
  0
LINE
  5
1D3
100
AcDbEntity
  8
1
  6
CONTINUOUS
 62
             7
100
AcDbLine
 10
-77.5
 20
-8.25000000000001
 11
-68.5
 21
-8.25000000000001
  0
LINE
  5
1D2
100
AcDbEntity
  8
1
  6
CONTINUOUS
 62
             7
100
AcDbLine
 10
-68.0
 20
-7.75000000000001
 11
-68.0
 21
-5.10916589229087
  0
LINE
  5
1D1
100
AcDbEntity
  8
1
  6
CONTINUOUS
 62
             7
100
AcDbLine
 10
-68.5
 20
-1.25000000000001
 11
-77.5
 21
-1.25000000000001
  0
LINE
  5
1D0
100
AcDbEntity
  8
1
  6
CONTINUOUS
 62
             7
100
AcDbLine
 10
-78.0
 20
-1.75000000000001
 11
-78.0
 21
-7.75000000000001
  0
LINE
  5
1CF
100
AcDbEntity
  8
1
  6
CONTINUOUS
 62
             7
100
AcDbLine
 10
-68.45642212862617
 20
-4.1015334850217
 11
-77.27178893568691
 21
-4.87277814546225
  0
LINE
  5
1CE
100
AcDbEntity
  8
1
  6
CONTINUOUS
 62
             7
100
AcDbLine
 10
-68.0
 20
-3.60343613597583
 11
-68.0
 21
-1.75000000000001
  0
LINE
  5
1CD
100
AcDbEntity
  8
1
  6
CONTINUOUS
 62
             7
100
AcDbLine
 10
-77.22821106431309
 20
-5.37087549450812
 11
-68.54357787137377
 21
-4.61106854324499
  0
LINE
  5
1CC
100
AcDbEntity
  8
1
  6
CONTINUOUS
 62
             7
100
AcDbLine
 10
-88.5
 20
-8.25000000000001
 11
-79.5
 21
-8.25000000000001
  0
LINE
  5
1CB
100
AcDbEntity
  8
1
  6
CONTINUOUS
 62
             7
100
AcDbLine
 10
-79.0
 20
-7.75000000000001
 11
-79.0
 21
-5.10916589229087
  0
LINE
  5
1CA
100
AcDbEntity
  8
1
  6
CONTINUOUS
 62
             7
100
AcDbLine
 10
-79.5
 20
-1.25000000000001
 11
-88.5
 21
-1.25000000000001
  0
LINE
  5
1C9
100
AcDbEntity
  8
1
  6
CONTINUOUS
 62
             7
100
AcDbLine
 10
-89.0
 20
-1.75000000000001
 11
-89.0
 21
-7.75000000000001
  0
LINE
  5
1C8
100
AcDbEntity
  8
1
  6
CONTINUOUS
 62
             7
100
AcDbLine
 10
-79.45642212862617
 20
-4.1015334850217
 11
-88.27178893568691
 21
-4.87277814546225
  0
LINE
  5
1C7
100
AcDbEntity
  8
1
  6
CONTINUOUS
 62
             7
100
AcDbLine
 10
-79.0
 20
-3.60343613597583
 11
-79.0
 21
-1.75000000000001
  0
LINE
  5
1C6
100
AcDbEntity
  8
1
  6
CONTINUOUS
 62
             7
100
AcDbLine
 10
-88.22821106431309
 20
-5.37087549450812
 11
-79.54357787137377
 21
-4.61106854324499
  0
LINE
  5
1C5
100
AcDbEntity
  8
1
  6
CONTINUOUS
 62
             7
100
AcDbLine
 10
-120.5
 20
-9.49999999999999
 11
-91.5
 21
-9.49999999999999
  0
LINE
  5
1C4
100
AcDbEntity
  8
1
  6
CONTINUOUS
 62
             7
100
AcDbLine
 10
-91.0
 20
-8.99999999999999
 11
-91.0
 21
0.0
  0
LINE
  5
1C3
100
AcDbEntity
  8
1
  6
CONTINUOUS
 62
             7
100
AcDbLine
 10
-91.5
 20
0.5
 11
-120.5
 21
0.5
  0
LINE
  5
1C2
100
AcDbEntity
  8
1
  6
CONTINUOUS
 62
             7
100
AcDbLine
 10
-121.0
 20
0.0
 11
-121.0
 21
-8.99999999999999
  0
LINE
  5
1C1
100
AcDbEntity
  8
1
  6
CONTINUOUS
 62
             7
100
AcDbLine
 10
-130.5
 20
4.49999999999999
 11
-91.5
 21
4.49999999999999
  0
LINE
  5
1C0
100
AcDbEntity
  8
1
  6
CONTINUOUS
 62
             7
100
AcDbLine
 10
-91.0
 20
4.99999999999999
 11
-91.0
 21
15.99999999999999
  0
LINE
  5
1BF
100
AcDbEntity
  8
1
  6
CONTINUOUS
 62
             7
100
AcDbLine
 10
-91.5
 20
16.49999999999999
 11
-130.5
 21
16.49999999999999
  0
LINE
  5
1BE
100
AcDbEntity
  8
1
  6
CONTINUOUS
 62
             7
100
AcDbLine
 10
-131.0
 20
15.99999999999999
 11
-131.0
 21
4.99999999999999
  0
LINE
  5
1BD
100
AcDbEntity
  8
1
  6
CONTINUOUS
 62
             7
100
AcDbLine
 10
-144.25
 20
6.49999999999999
 11
-137.75
 21
6.49999999999999
  0
LINE
  5
1BC
100
AcDbEntity
  8
1
  6
CONTINUOUS
 62
             7
100
AcDbLine
 10
-137.25
 20
6.99999999999999
 11
-137.25
 21
15.99999999999999
  0
LINE
  5
1BB
100
AcDbEntity
  8
1
  6
CONTINUOUS
 62
             7
100
AcDbLine
 10
-137.75
 20
16.49999999999999
 11
-144.25
 21
16.49999999999999
  0
LINE
  5
1BA
100
AcDbEntity
  8
1
  6
CONTINUOUS
 62
             7
100
AcDbLine
 10
-144.75
 20
15.99999999999999
 11
-144.75
 21
6.99999999999999
  0
LINE
  5
1B9
100
AcDbEntity
  8
1
  6
CONTINUOUS
 62
             7
100
AcDbLine
 10
-144.5
 20
-8.24999999999999
 11
-127.5
 21
-8.24999999999999
  0
LINE
  5
1B8
100
AcDbEntity
  8
1
  6
CONTINUOUS
 62
             7
100
AcDbLine
 10
-127.0
 20
-7.74999999999999
 11
-127.0
 21
-7.24999999999999
  0
LINE
  5
1B7
100
AcDbEntity
  8
1
  6
CONTINUOUS
 62
             7
100
AcDbLine
 10
-127.5
 20
-6.74999999999999
 11
-144.5
 21
-6.74999999999999
  0
LINE
  5
1B6
100
AcDbEntity
  8
1
  6
CONTINUOUS
 62
             7
100
AcDbLine
 10
-145.0
 20
-7.24999999999999
 11
-145.0
 21
-7.74999999999999
  0
LINE
  5
1B5
100
AcDbEntity
  8
1
  6
CONTINUOUS
 62
             7
100
AcDbLine
 10
-144.5
 20
-2.25
 11
-127.5
 21
-2.25
  0
LINE
  5
1B4
100
AcDbEntity
  8
1
  6
CONTINUOUS
 62
             7
100
AcDbLine
 10
-127.0
 20
-1.75
 11
-127.0
 21
-1.25
  0
LINE
  5
1B3
100
AcDbEntity
  8
1
  6
CONTINUOUS
 62
             7
100
AcDbLine
 10
-127.5
 20
-0.75
 11
-144.5
 21
-0.75
  0
LINE
  5
1B2
100
AcDbEntity
  8
1
  6
CONTINUOUS
 62
             7
100
AcDbLine
 10
-145.0
 20
-1.25
 11
-145.0
 21
-1.75
  0
LINE
  5
1B1
100
AcDbEntity
  8
1
  6
CONTINUOUS
 62
             7
100
AcDbLine
 10
-144.0
 20
-0.75
 11
-144.0
 21
-2.25
  0
LINE
  5
1B0
100
AcDbEntity
  8
1
  6
CONTINUOUS
 62
             7
100
AcDbLine
 10
-140.0
 20
-0.75
 11
-140.0
 21
-2.25
  0
LINE
  5
1AF
100
AcDbEntity
  8
1
  6
CONTINUOUS
 62
             7
100
AcDbLine
 10
-138.0
 20
-0.75
 11
-138.0
 21
-2.25
  0
LINE
  5
1AE
100
AcDbEntity
  8
1
  6
CONTINUOUS
 62
             7
100
AcDbLine
 10
-134.0
 20
-0.75
 11
-134.0
 21
-2.25
  0
LINE
  5
1AD
100
AcDbEntity
  8
1
  6
CONTINUOUS
 62
             7
100
AcDbLine
 10
-132.0
 20
-0.75
 11
-132.0
 21
-2.25
  0
LINE
  5
1AC
100
AcDbEntity
  8
1
  6
CONTINUOUS
 62
             7
100
AcDbLine
 10
-128.0
 20
-0.75
 11
-128.0
 21
-2.25
  0
LINE
  5
1AB
100
AcDbEntity
  8
1
  6
CONTINUOUS
 62
             7
100
AcDbLine
 10
-144.0
 20
-6.74999999999999
 11
-144.0
 21
-8.24999999999999
  0
LINE
  5
1AA
100
AcDbEntity
  8
1
  6
CONTINUOUS
 62
             7
100
AcDbLine
 10
-140.0
 20
-6.74999999999999
 11
-140.0
 21
-8.24999999999999
  0
LINE
  5
1A9
100
AcDbEntity
  8
1
  6
CONTINUOUS
 62
             7
100
AcDbLine
 10
-132.0
 20
-6.74999999999999
 11
-132.0
 21
-8.24999999999999
  0
LINE
  5
1A8
100
AcDbEntity
  8
1
  6
CONTINUOUS
 62
             7
100
AcDbLine
 10
-128.0
 20
-6.74999999999999
 11
-128.0
 21
-8.24999999999999
  0
LINE
  5
1A7
100
AcDbEntity
  8
1
  6
CONTINUOUS
 62
             7
100
AcDbLine
 10
-142.4137087912919
 20
14.99999999999999
 11
-142.23067705961111
 21
15.15358185854701
  0
LINE
  5
1A6
100
AcDbEntity
  8
1
  6
CONTINUOUS
 62
             7
100
AcDbLine
 10
-142.4137087912919
 20
14.99999999999999
 11
-142.90868749388139
 21
12.19283628290595
  0
LINE
  5
1A5
100
AcDbEntity
  8
1
  6
CONTINUOUS
 62
             7
100
AcDbLine
 10
-142.23067705961111
 20
15.15358185854701
 11
-141.52044790929619
 21
14.30716371709404
  0
LINE
  5
1A4
100
AcDbEntity
  8
1
  6
CONTINUOUS
 62
             7
100
AcDbLine
 10
-141.2906345763605
 20
14.49999999999999
 11
-142.0008637266755
 21
15.34641814145297
  0
LINE
  5
1A3
100
AcDbEntity
  8
1
  6
CONTINUOUS
 62
             7
100
AcDbLine
 10
-141.2906345763605
 20
14.49999999999999
 11
-139.68895102001801
 21
14.49999999999999
  0
LINE
  5
1A2
100
AcDbEntity
  8
1
  6
CONTINUOUS
 62
             7
100
AcDbLine
 10
-142.0008637266755
 20
15.34641814145297
 11
-141.8178319949948
 21
15.49999999999999
  0
LINE
  5
1A1
100
AcDbEntity
  8
1
  6
CONTINUOUS
 62
             7
100
AcDbLine
 10
-141.8178319949948
 20
15.49999999999999
 11
-138.77155215933749
 21
15.49999999999999
  0
LINE
  5
1A0
100
AcDbEntity
  8
1
  6
CONTINUOUS
 62
             7
100
AcDbLine
 10
-138.77155215933749
 20
15.49999999999999
 11
-138.65819539299619
 21
15.36490666646785
  0
LINE
  5
19F
100
AcDbEntity
  8
1
  6
CONTINUOUS
 62
             7
100
AcDbLine
 10
-138.65819539299619
 20
15.36490666646785
 11
-139.68895102001801
 21
14.49999999999999
  0
LINE
  5
19E
100
AcDbEntity
  8
1
  6
CONTINUOUS
 62
             7
100
AcDbLine
 10
-139.49611473711201
 20
14.2701866670643
 11
-138.46535911009019
 21
15.13509333353214
  0
LINE
  5
19D
100
AcDbEntity
  8
1
  6
CONTINUOUS
 62
             7
100
AcDbLine
 10
-139.49611473711201
 20
14.2701866670643
 11
-139.86240765822421
 21
12.19283628290595
  0
LINE
  5
19C
100
AcDbEntity
  8
1
  6
CONTINUOUS
 62
             7
100
AcDbLine
 10
-138.46535911009019
 20
15.13509333353214
 11
-138.35200234374889
 21
14.99999999999999
  0
LINE
  5
19B
100
AcDbEntity
  8
1
  6
CONTINUOUS
 62
             7
100
AcDbLine
 10
-141.8867408304084
 20
12.22981333293568
 11
-141.52044790929619
 21
14.30716371709404
  0
LINE
  5
19A
100
AcDbEntity
  8
1
  6
CONTINUOUS
 62
             7
100
AcDbLine
 10
-139.45837155715651
 20
11.71132480792083
 11
-138.8404609947512
 21
12.22981333293568
  0
LINE
  5
199
100
AcDbEntity
  8
1
  6
CONTINUOUS
 62
             7
100
AcDbLine
 10
-138.8404609947512
 20
12.22981333293568
 11
-138.35200234374889
 21
14.99999999999999
  0
LINE
  5
198
100
AcDbEntity
  8
1
  6
CONTINUOUS
 62
             7
100
AcDbLine
 10
-139.45837155715651
 20
11.71132480792083
 11
-139.86240765822421
 21
12.19283628290595
  0
LINE
  5
197
100
AcDbEntity
  8
1
  6
CONTINUOUS
 62
             7
100
AcDbLine
 10
-142.90868749388139
 20
12.19283628290595
 11
-142.50465139281371
 21
11.71132480792083
  0
LINE
  5
196
100
AcDbEntity
  8
1
  6
CONTINUOUS
 62
             7
100
AcDbLine
 10
-142.50465139281371
 20
11.71132480792083
 11
-141.8867408304084
 21
12.22981333293568
  0
LINE
  5
195
100
AcDbEntity
  8
1
  6
CONTINUOUS
 62
             7
100
AcDbLine
 10
-143.1595390052488
 20
10.7701866670643
 11
-142.54162844284349
 21
11.28867519207916
  0
LINE
  5
194
100
AcDbEntity
  8
1
  6
CONTINUOUS
 62
             7
100
AcDbLine
 10
-143.1595390052488
 20
10.7701866670643
 11
-143.64799765625111
 21
7.99999999999999
  0
LINE
  5
193
100
AcDbEntity
  8
1
  6
CONTINUOUS
 62
             7
100
AcDbLine
 10
-142.54162844284349
 20
11.28867519207916
 11
-142.13759234177579
 21
10.80716371709404
  0
LINE
  5
192
100
AcDbEntity
  8
1
  6
CONTINUOUS
 62
             7
100
AcDbLine
 10
-141.69390454750251
 20
11.99999999999999
 11
-142.3118151099078
 21
11.48151147498513
  0
LINE
  5
191
100
AcDbEntity
  8
1
  6
CONTINUOUS
 62
             7
100
AcDbLine
 10
-142.3118151099078
 20
11.48151147498513
 11
-141.90777900884009
 21
10.99999999999999
  0
LINE
  5
190
100
AcDbEntity
  8
1
  6
CONTINUOUS
 62
             7
100
AcDbLine
 10
-141.90777900884009
 20
10.99999999999999
 11
-140.30609545249749
 21
10.99999999999999
  0
LINE
  5
18F
100
AcDbEntity
  8
1
  6
CONTINUOUS
 62
             7
100
AcDbLine
 10
-140.30609545249749
 20
10.99999999999999
 11
-139.6881848900922
 21
11.51848852501486
  0
LINE
  5
18E
100
AcDbEntity
  8
1
  6
CONTINUOUS
 62
             7
100
AcDbLine
 10
-139.6881848900922
 20
11.51848852501486
 11
-140.09222099115991
 21
11.99999999999999
  0
LINE
  5
18D
100
AcDbEntity
  8
1
  6
CONTINUOUS
 62
             7
100
AcDbLine
 10
-140.09222099115991
 20
11.99999999999999
 11
-141.69390454750251
 21
11.99999999999999
  0
LINE
  5
18C
100
AcDbEntity
  8
1
  6
CONTINUOUS
 62
             7
100
AcDbLine
 10
-140.1132591695916
 20
10.7701866670643
 11
-139.49534860718629
 21
11.28867519207916
  0
LINE
  5
18B
100
AcDbEntity
  8
1
  6
CONTINUOUS
 62
             7
100
AcDbLine
 10
-139.49534860718629
 20
11.28867519207916
 11
-139.09131250611861
 21
10.80716371709404
  0
LINE
  5
18A
100
AcDbEntity
  8
1
  6
CONTINUOUS
 62
             7
100
AcDbLine
 10
-139.09131250611861
 20
10.80716371709404
 11
-139.5862912087081
 21
7.99999999999999
  0
LINE
  5
189
100
AcDbEntity
  8
1
  6
CONTINUOUS
 62
             7
100
AcDbLine
 10
-140.7093654236395
 20
8.49999999999999
 11
-139.99913627332461
 21
7.65358185854701
  0
LINE
  5
188
100
AcDbEntity
  8
1
  6
CONTINUOUS
 62
             7
100
AcDbLine
 10
-139.99913627332461
 20
7.65358185854701
 11
-140.1821680050052
 21
7.49999999999999
  0
LINE
  5
187
100
AcDbEntity
  8
1
  6
CONTINUOUS
 62
             7
100
AcDbLine
 10
-140.1821680050052
 20
7.49999999999999
 11
-143.22844784066251
 21
7.49999999999999
  0
LINE
  5
186
100
AcDbEntity
  8
1
  6
CONTINUOUS
 62
             7
100
AcDbLine
 10
-140.47955209070381
 20
8.69283628290595
 11
-139.76932294038889
 21
7.84641814145297
  0
LINE
  5
185
100
AcDbEntity
  8
1
  6
CONTINUOUS
 62
             7
100
AcDbLine
 10
-140.47955209070381
 20
8.69283628290595
 11
-140.1132591695916
 21
10.7701866670643
  0
LINE
  5
184
100
AcDbEntity
  8
1
  6
CONTINUOUS
 62
             7
100
AcDbLine
 10
-139.76932294038889
 20
7.84641814145297
 11
-139.5862912087081
 21
7.99999999999999
  0
LINE
  5
183
100
AcDbEntity
  8
1
  6
CONTINUOUS
 62
             7
100
AcDbLine
 10
-142.5038852628881
 20
8.72981333293568
 11
-143.53464088990981
 21
7.86490666646785
  0
LINE
  5
182
100
AcDbEntity
  8
1
  6
CONTINUOUS
 62
             7
100
AcDbLine
 10
-142.5038852628881
 20
8.72981333293568
 11
-142.13759234177579
 21
10.80716371709404
  0
LINE
  5
181
100
AcDbEntity
  8
1
  6
CONTINUOUS
 62
             7
100
AcDbLine
 10
-143.53464088990981
 20
7.86490666646785
 11
-143.64799765625111
 21
7.99999999999999
  0
LINE
  5
180
100
AcDbEntity
  8
1
  6
CONTINUOUS
 62
             7
100
AcDbLine
 10
-142.3110489799821
 20
8.49999999999999
 11
-143.34180460700381
 21
7.63509333353214
  0
LINE
  5
17F
100
AcDbEntity
  8
1
  6
CONTINUOUS
 62
             7
100
AcDbLine
 10
-142.3110489799821
 20
8.49999999999999
 11
-140.7093654236395
 21
8.49999999999999
  0
LINE
  5
17E
100
AcDbEntity
  8
1
  6
CONTINUOUS
 62
             7
100
AcDbLine
 10
-143.34180460700381
 20
7.63509333353214
 11
-143.22844784066251
 21
7.49999999999999
  0
LINE
  5
17D
100
AcDbEntity
  8
1
  6
CONTINUOUS
 62
             7
100
AcDbLine
 10
-104.59180460700379
 20
-8.36490666646785
 11
-104.4784478406625
 21
-8.49999999999999
  0
LINE
  5
17C
100
AcDbEntity
  8
1
  6
CONTINUOUS
 62
             7
100
AcDbLine
 10
-103.5610489799821
 20
-7.49999999999999
 11
-101.9593654236395
 21
-7.49999999999999
  0
LINE
  5
17B
100
AcDbEntity
  8
1
  6
CONTINUOUS
 62
             7
100
AcDbLine
 10
-103.5610489799821
 20
-7.49999999999999
 11
-104.59180460700379
 21
-8.36490666646785
  0
LINE
  5
17A
100
AcDbEntity
  8
1
  6
CONTINUOUS
 62
             7
100
AcDbLine
 10
-104.7846408899098
 20
-8.13509333353215
 11
-104.89799765625111
 21
-7.99999999999999
  0
LINE
  5
179
100
AcDbEntity
  8
1
  6
CONTINUOUS
 62
             7
100
AcDbLine
 10
-103.75388526288801
 20
-7.27018666706432
 11
-103.3875923417758
 21
-5.19283628290596
  0
LINE
  5
178
100
AcDbEntity
  8
1
  6
CONTINUOUS
 62
             7
100
AcDbLine
 10
-103.75388526288801
 20
-7.27018666706432
 11
-104.7846408899098
 21
-8.13509333353215
  0
LINE
  5
177
100
AcDbEntity
  8
1
  6
CONTINUOUS
 62
             7
100
AcDbLine
 10
-101.0193229403889
 20
-8.15358185854702
 11
-100.8362912087081
 21
-7.99999999999999
  0
LINE
  5
176
100
AcDbEntity
  8
1
  6
CONTINUOUS
 62
             7
100
AcDbLine
 10
-101.72955209070381
 20
-7.30716371709403
 11
-101.3632591695916
 21
-5.22981333293568
  0
LINE
  5
175
100
AcDbEntity
  8
1
  6
CONTINUOUS
 62
             7
100
AcDbLine
 10
-101.72955209070381
 20
-7.30716371709403
 11
-101.0193229403889
 21
-8.15358185854702
  0
LINE
  5
174
100
AcDbEntity
  8
1
  6
CONTINUOUS
 62
             7
100
AcDbLine
 10
-101.4321680050052
 20
-8.49999999999999
 11
-104.4784478406625
 21
-8.49999999999999
  0
LINE
  5
173
100
AcDbEntity
  8
1
  6
CONTINUOUS
 62
             7
100
AcDbLine
 10
-101.24913627332459
 20
-8.34641814145298
 11
-101.4321680050052
 21
-8.49999999999999
  0
LINE
  5
172
100
AcDbEntity
  8
1
  6
CONTINUOUS
 62
             7
100
AcDbLine
 10
-101.9593654236395
 20
-7.49999999999999
 11
-101.24913627332459
 21
-8.34641814145298
  0
LINE
  5
171
100
AcDbEntity
  8
1
  6
CONTINUOUS
 62
             7
100
AcDbLine
 10
-100.3413125061186
 20
-5.19283628290596
 11
-100.8362912087081
 21
-7.99999999999999
  0
LINE
  5
170
100
AcDbEntity
  8
1
  6
CONTINUOUS
 62
             7
100
AcDbLine
 10
-100.7453486071863
 20
-4.71132480792082
 11
-100.3413125061186
 21
-5.19283628290596
  0
LINE
  5
16F
100
AcDbEntity
  8
1
  6
CONTINUOUS
 62
             7
100
AcDbLine
 10
-101.3632591695916
 20
-5.22981333293568
 11
-100.7453486071863
 21
-4.71132480792082
  0
LINE
  5
16E
100
AcDbEntity
  8
1
  6
CONTINUOUS
 62
             7
100
AcDbLine
 10
-101.34222099115991
 20
-4.0
 11
-102.9439045475025
 21
-4.0
  0
LINE
  5
16D
100
AcDbEntity
  8
1
  6
CONTINUOUS
 62
             7
100
AcDbLine
 10
-100.9381848900922
 20
-4.48151147498514
 11
-101.34222099115991
 21
-4.0
  0
LINE
  5
16C
100
AcDbEntity
  8
1
  6
CONTINUOUS
 62
             7
100
AcDbLine
 10
-101.5560954524975
 20
-5.0
 11
-100.9381848900922
 21
-4.48151147498514
  0
LINE
  5
16B
100
AcDbEntity
  8
1
  6
CONTINUOUS
 62
             7
100
AcDbLine
 10
-103.15777900884009
 20
-5.0
 11
-101.5560954524975
 21
-5.0
  0
LINE
  5
16A
100
AcDbEntity
  8
1
  6
CONTINUOUS
 62
             7
100
AcDbLine
 10
-103.5618151099078
 20
-4.51848852501487
 11
-103.15777900884009
 21
-5.0
  0
LINE
  5
169
100
AcDbEntity
  8
1
  6
CONTINUOUS
 62
             7
100
AcDbLine
 10
-102.9439045475025
 20
-4.0
 11
-103.5618151099078
 21
-4.51848852501487
  0
LINE
  5
168
100
AcDbEntity
  8
1
  6
CONTINUOUS
 62
             7
100
AcDbLine
 10
-103.7916284428435
 20
-4.71132480792082
 11
-103.3875923417758
 21
-5.19283628290596
  0
LINE
  5
167
100
AcDbEntity
  8
1
  6
CONTINUOUS
 62
             7
100
AcDbLine
 10
-104.4095390052488
 20
-5.22981333293568
 11
-104.89799765625111
 21
-7.99999999999999
  0
LINE
  5
166
100
AcDbEntity
  8
1
  6
CONTINUOUS
 62
             7
100
AcDbLine
 10
-104.4095390052488
 20
-5.22981333293568
 11
-103.7916284428435
 21
-4.71132480792082
  0
LINE
  5
165
100
AcDbEntity
  8
1
  6
CONTINUOUS
 62
             7
100
AcDbLine
 10
-103.7546513928138
 20
-4.28867519207917
 11
-103.1367408304084
 21
-3.77018666706429
  0
LINE
  5
164
100
AcDbEntity
  8
1
  6
CONTINUOUS
 62
             7
100
AcDbLine
 10
-104.1586874938814
 20
-3.80716371709403
 11
-103.7546513928138
 21
-4.28867519207917
  0
LINE
  5
163
100
AcDbEntity
  8
1
  6
CONTINUOUS
 62
             7
100
AcDbLine
 10
-100.7083715571565
 20
-4.28867519207917
 11
-101.1124076582242
 21
-3.80716371709403
  0
LINE
  5
162
100
AcDbEntity
  8
1
  6
CONTINUOUS
 62
             7
100
AcDbLine
 10
-100.0904609947512
 20
-3.77018666706429
 11
-99.60200234374889
 21
-1.0
  0
LINE
  5
161
100
AcDbEntity
  8
1
  6
CONTINUOUS
 62
             7
100
AcDbLine
 10
-100.7083715571565
 20
-4.28867519207917
 11
-100.0904609947512
 21
-3.77018666706429
  0
LINE
  5
160
100
AcDbEntity
  8
1
  6
CONTINUOUS
 62
             7
100
AcDbLine
 10
-103.1367408304084
 20
-3.77018666706429
 11
-102.77044790929619
 21
-1.69283628290596
  0
LINE
  5
15F
100
AcDbEntity
  8
1
  6
CONTINUOUS
 62
             7
100
AcDbLine
 10
-99.71535911009022
 20
-0.86490666646785
 11
-99.60200234374889
 21
-1.0
  0
LINE
  5
15E
100
AcDbEntity
  8
1
  6
CONTINUOUS
 62
             7
100
AcDbLine
 10
-100.74611473711199
 20
-1.72981333293568
 11
-101.1124076582242
 21
-3.80716371709403
  0
LINE
  5
15D
100
AcDbEntity
  8
1
  6
CONTINUOUS
 62
             7
100
AcDbLine
 10
-100.74611473711199
 20
-1.72981333293568
 11
-99.71535911009022
 21
-0.86490666646785
  0
LINE
  5
15C
100
AcDbEntity
  8
1
  6
CONTINUOUS
 62
             7
100
AcDbLine
 10
-99.90819539299616
 20
-0.63509333353215
 11
-100.9389510200179
 21
-1.5
  0
LINE
  5
15B
100
AcDbEntity
  8
1
  6
CONTINUOUS
 62
             7
100
AcDbLine
 10
-100.0215521593375
 20
-0.5
 11
-99.90819539299616
 21
-0.63509333353215
  0
LINE
  5
15A
100
AcDbEntity
  8
1
  6
CONTINUOUS
 62
             7
100
AcDbLine
 10
-103.0678319949948
 20
-0.5
 11
-100.0215521593375
 21
-0.5
  0
LINE
  5
159
100
AcDbEntity
  8
1
  6
CONTINUOUS
 62
             7
100
AcDbLine
 10
-103.2508637266755
 20
-0.65358185854701
 11
-103.0678319949948
 21
-0.5
  0
LINE
  5
158
100
AcDbEntity
  8
1
  6
CONTINUOUS
 62
             7
100
AcDbLine
 10
-102.5406345763605
 20
-1.5
 11
-100.9389510200179
 21
-1.5
  0
LINE
  5
157
100
AcDbEntity
  8
1
  6
CONTINUOUS
 62
             7
100
AcDbLine
 10
-102.5406345763605
 20
-1.5
 11
-103.2508637266755
 21
-0.65358185854701
  0
LINE
  5
156
100
AcDbEntity
  8
1
  6
CONTINUOUS
 62
             7
100
AcDbLine
 10
-103.4806770596111
 20
-0.84641814145298
 11
-102.77044790929619
 21
-1.69283628290596
  0
LINE
  5
155
100
AcDbEntity
  8
1
  6
CONTINUOUS
 62
             7
100
AcDbLine
 10
-103.6637087912919
 20
-1.0
 11
-104.1586874938814
 21
-3.80716371709403
  0
LINE
  5
154
100
AcDbEntity
  8
1
  6
CONTINUOUS
 62
             7
100
AcDbLine
 10
-103.6637087912919
 20
-1.0
 11
-103.4806770596111
 21
-0.84641814145298
  0
LINE
  5
153
100
AcDbEntity
  8
1
  6
CONTINUOUS
 62
             7
100
AcDbLine
 10
-97.09180460700384
 20
-8.36490666646785
 11
-96.97844784066248
 21
-8.49999999999999
  0
LINE
  5
152
100
AcDbEntity
  8
1
  6
CONTINUOUS
 62
             7
100
AcDbLine
 10
-96.06104897998208
 20
-7.49999999999999
 11
-94.4593654236395
 21
-7.49999999999999
  0
LINE
  5
151
100
AcDbEntity
  8
1
  6
CONTINUOUS
 62
             7
100
AcDbLine
 10
-96.06104897998208
 20
-7.49999999999999
 11
-97.09180460700384
 21
-8.36490666646785
  0
LINE
  5
150
100
AcDbEntity
  8
1
  6
CONTINUOUS
 62
             7
100
AcDbLine
 10
-97.28464088990978
 20
-8.13509333353215
 11
-97.39799765625111
 21
-7.99999999999999
  0
LINE
  5
14F
100
AcDbEntity
  8
1
  6
CONTINUOUS
 62
             7
100
AcDbLine
 10
-96.25388526288805
 20
-7.27018666706432
 11
-95.88759234177584
 21
-5.19283628290596
  0
LINE
  5
14E
100
AcDbEntity
  8
1
  6
CONTINUOUS
 62
             7
100
AcDbLine
 10
-96.25388526288805
 20
-7.27018666706432
 11
-97.28464088990978
 21
-8.13509333353215
  0
LINE
  5
14D
100
AcDbEntity
  8
1
  6
CONTINUOUS
 62
             7
100
AcDbLine
 10
-93.51932294038886
 20
-8.15358185854702
 11
-93.33629120870813
 21
-7.99999999999999
  0
LINE
  5
14C
100
AcDbEntity
  8
1
  6
CONTINUOUS
 62
             7
100
AcDbLine
 10
-94.22955209070381
 20
-7.30716371709403
 11
-93.8632591695916
 21
-5.22981333293568
  0
LINE
  5
14B
100
AcDbEntity
  8
1
  6
CONTINUOUS
 62
             7
100
AcDbLine
 10
-94.22955209070381
 20
-7.30716371709403
 11
-93.51932294038886
 21
-8.15358185854702
  0
LINE
  5
14A
100
AcDbEntity
  8
1
  6
CONTINUOUS
 62
             7
100
AcDbLine
 10
-93.93216800500525
 20
-8.49999999999999
 11
-96.97844784066248
 21
-8.49999999999999
  0
LINE
  5
149
100
AcDbEntity
  8
1
  6
CONTINUOUS
 62
             7
100
AcDbLine
 10
-93.74913627332455
 20
-8.34641814145298
 11
-93.93216800500525
 21
-8.49999999999999
  0
LINE
  5
148
100
AcDbEntity
  8
1
  6
CONTINUOUS
 62
             7
100
AcDbLine
 10
-94.4593654236395
 20
-7.49999999999999
 11
-93.74913627332455
 21
-8.34641814145298
  0
LINE
  5
147
100
AcDbEntity
  8
1
  6
CONTINUOUS
 62
             7
100
AcDbLine
 10
-92.84131250611861
 20
-5.19283628290596
 11
-93.33629120870813
 21
-7.99999999999999
  0
LINE
  5
146
100
AcDbEntity
  8
1
  6
CONTINUOUS
 62
             7
100
AcDbLine
 10
-93.24534860718623
 20
-4.71132480792082
 11
-92.84131250611861
 21
-5.19283628290596
  0
LINE
  5
145
100
AcDbEntity
  8
1
  6
CONTINUOUS
 62
             7
100
AcDbLine
 10
-93.8632591695916
 20
-5.22981333293568
 11
-93.24534860718623
 21
-4.71132480792082
  0
LINE
  5
144
100
AcDbEntity
  8
1
  6
CONTINUOUS
 62
             7
100
AcDbLine
 10
-93.84222099115985
 20
-4.0
 11
-95.44390454750246
 21
-4.0
  0
LINE
  5
143
100
AcDbEntity
  8
1
  6
CONTINUOUS
 62
             7
100
AcDbLine
 10
-93.43818489009223
 20
-4.48151147498514
 11
-93.84222099115985
 21
-4.0
  0
LINE
  5
142
100
AcDbEntity
  8
1
  6
CONTINUOUS
 62
             7
100
AcDbLine
 10
-94.05609545249754
 20
-5.0
 11
-93.43818489009223
 21
-4.48151147498514
  0
LINE
  5
141
100
AcDbEntity
  8
1
  6
CONTINUOUS
 62
             7
100
AcDbLine
 10
-95.65777900884015
 20
-5.0
 11
-94.05609545249754
 21
-5.0
  0
LINE
  5
140
100
AcDbEntity
  8
1
  6
CONTINUOUS
 62
             7
100
AcDbLine
 10
-96.0618151099078
 20
-4.51848852501487
 11
-95.65777900884015
 21
-5.0
  0
LINE
  5
13F
100
AcDbEntity
  8
1
  6
CONTINUOUS
 62
             7
100
AcDbLine
 10
-95.44390454750246
 20
-4.0
 11
-96.0618151099078
 21
-4.51848852501487
  0
LINE
  5
13E
100
AcDbEntity
  8
1
  6
CONTINUOUS
 62
             7
100
AcDbLine
 10
-96.29162844284349
 20
-4.71132480792082
 11
-95.88759234177584
 21
-5.19283628290596
  0
LINE
  5
13D
100
AcDbEntity
  8
1
  6
CONTINUOUS
 62
             7
100
AcDbLine
 10
-96.9095390052488
 20
-5.22981333293568
 11
-97.39799765625111
 21
-7.99999999999999
  0
LINE
  5
13C
100
AcDbEntity
  8
1
  6
CONTINUOUS
 62
             7
100
AcDbLine
 10
-96.9095390052488
 20
-5.22981333293568
 11
-96.29162844284349
 21
-4.71132480792082
  0
LINE
  5
13B
100
AcDbEntity
  8
1
  6
CONTINUOUS
 62
             7
100
AcDbLine
 10
-96.25465139281374
 20
-4.28867519207917
 11
-95.6367408304084
 21
-3.77018666706429
  0
LINE
  5
13A
100
AcDbEntity
  8
1
  6
CONTINUOUS
 62
             7
100
AcDbLine
 10
-96.65868749388142
 20
-3.80716371709403
 11
-96.25465139281374
 21
-4.28867519207917
  0
LINE
  5
139
100
AcDbEntity
  8
1
  6
CONTINUOUS
 62
             7
100
AcDbLine
 10
-93.20837155715651
 20
-4.28867519207917
 11
-93.61240765822416
 21
-3.80716371709403
  0
LINE
  5
138
100
AcDbEntity
  8
1
  6
CONTINUOUS
 62
             7
100
AcDbLine
 10
-92.59046099475117
 20
-3.77018666706429
 11
-92.10200234374889
 21
-1.0
  0
LINE
  5
137
100
AcDbEntity
  8
1
  6
CONTINUOUS
 62
             7
100
AcDbLine
 10
-93.20837155715651
 20
-4.28867519207917
 11
-92.59046099475117
 21
-3.77018666706429
  0
LINE
  5
136
100
AcDbEntity
  8
1
  6
CONTINUOUS
 62
             7
100
AcDbLine
 10
-95.6367408304084
 20
-3.77018666706429
 11
-95.2704479092962
 21
-1.69283628290596
  0
LINE
  5
135
100
AcDbEntity
  8
1
  6
CONTINUOUS
 62
             7
100
AcDbLine
 10
-92.21535911009022
 20
-0.86490666646785
 11
-92.10200234374889
 21
-1.0
  0
LINE
  5
134
100
AcDbEntity
  8
1
  6
CONTINUOUS
 62
             7
100
AcDbLine
 10
-93.24611473711198
 20
-1.72981333293568
 11
-93.61240765822416
 21
-3.80716371709403
  0
LINE
  5
133
100
AcDbEntity
  8
1
  6
CONTINUOUS
 62
             7
100
AcDbLine
 10
-93.24611473711198
 20
-1.72981333293568
 11
-92.21535911009022
 21
-0.86490666646785
  0
LINE
  5
132
100
AcDbEntity
  8
1
  6
CONTINUOUS
 62
             7
100
AcDbLine
 10
-92.40819539299619
 20
-0.63509333353215
 11
-93.43895102001793
 21
-1.5
  0
LINE
  5
131
100
AcDbEntity
  8
1
  6
CONTINUOUS
 62
             7
100
AcDbLine
 10
-92.52155215933752
 20
-0.5
 11
-92.40819539299619
 21
-0.63509333353215
  0
LINE
  5
130
100
AcDbEntity
  8
1
  6
CONTINUOUS
 62
             7
100
AcDbLine
 10
-95.56783199499475
 20
-0.5
 11
-92.52155215933752
 21
-0.5
  0
LINE
  5
12F
100
AcDbEntity
  8
1
  6
CONTINUOUS
 62
             7
100
AcDbLine
 10
-95.75086372667545
 20
-0.65358185854701
 11
-95.56783199499475
 21
-0.5
  0
LINE
  5
12E
100
AcDbEntity
  8
1
  6
CONTINUOUS
 62
             7
100
AcDbLine
 10
-95.0406345763605
 20
-1.5
 11
-93.43895102001793
 21
-1.5
  0
LINE
  5
12D
100
AcDbEntity
  8
1
  6
CONTINUOUS
 62
             7
100
AcDbLine
 10
-95.0406345763605
 20
-1.5
 11
-95.75086372667545
 21
-0.65358185854701
  0
LINE
  5
12C
100
AcDbEntity
  8
1
  6
CONTINUOUS
 62
             7
100
AcDbLine
 10
-95.98067705961114
 20
-0.84641814145298
 11
-95.2704479092962
 21
-1.69283628290596
  0
LINE
  5
12B
100
AcDbEntity
  8
1
  6
CONTINUOUS
 62
             7
100
AcDbLine
 10
-96.16370879129187
 20
-1.0
 11
-96.65868749388142
 21
-3.80716371709403
  0
LINE
  5
12A
100
AcDbEntity
  8
1
  6
CONTINUOUS
 62
             7
100
AcDbLine
 10
-96.16370879129187
 20
-1.0
 11
-95.98067705961114
 21
-0.84641814145298
  0
LINE
  5
129
100
AcDbEntity
  8
1
  6
CONTINUOUS
 62
             7
100
AcDbLine
 10
-112.09180460700379
 20
-8.36490666646785
 11
-111.9784478406625
 21
-8.49999999999999
  0
LINE
  5
128
100
AcDbEntity
  8
1
  6
CONTINUOUS
 62
             7
100
AcDbLine
 10
-111.0610489799821
 20
-7.49999999999999
 11
-109.4593654236395
 21
-7.49999999999999
  0
LINE
  5
127
100
AcDbEntity
  8
1
  6
CONTINUOUS
 62
             7
100
AcDbLine
 10
-111.0610489799821
 20
-7.49999999999999
 11
-112.09180460700379
 21
-8.36490666646785
  0
LINE
  5
126
100
AcDbEntity
  8
1
  6
CONTINUOUS
 62
             7
100
AcDbLine
 10
-112.2846408899098
 20
-8.13509333353215
 11
-112.39799765625111
 21
-7.99999999999999
  0
LINE
  5
125
100
AcDbEntity
  8
1
  6
CONTINUOUS
 62
             7
100
AcDbLine
 10
-111.2538852628881
 20
-7.27018666706432
 11
-110.8875923417758
 21
-5.19283628290596
  0
LINE
  5
124
100
AcDbEntity
  8
1
  6
CONTINUOUS
 62
             7
100
AcDbLine
 10
-111.2538852628881
 20
-7.27018666706432
 11
-112.2846408899098
 21
-8.13509333353215
  0
LINE
  5
123
100
AcDbEntity
  8
1
  6
CONTINUOUS
 62
             7
100
AcDbLine
 10
-108.5193229403889
 20
-8.15358185854702
 11
-108.3362912087081
 21
-7.99999999999999
  0
LINE
  5
122
100
AcDbEntity
  8
1
  6
CONTINUOUS
 62
             7
100
AcDbLine
 10
-109.22955209070381
 20
-7.30716371709403
 11
-108.8632591695916
 21
-5.22981333293568
  0
LINE
  5
121
100
AcDbEntity
  8
1
  6
CONTINUOUS
 62
             7
100
AcDbLine
 10
-109.22955209070381
 20
-7.30716371709403
 11
-108.5193229403889
 21
-8.15358185854702
  0
LINE
  5
120
100
AcDbEntity
  8
1
  6
CONTINUOUS
 62
             7
100
AcDbLine
 10
-108.9321680050052
 20
-8.49999999999999
 11
-111.9784478406625
 21
-8.49999999999999
  0
LINE
  5
11F
100
AcDbEntity
  8
1
  6
CONTINUOUS
 62
             7
100
AcDbLine
 10
-108.74913627332459
 20
-8.34641814145298
 11
-108.9321680050052
 21
-8.49999999999999
  0
LINE
  5
11E
100
AcDbEntity
  8
1
  6
CONTINUOUS
 62
             7
100
AcDbLine
 10
-109.4593654236395
 20
-7.49999999999999
 11
-108.74913627332459
 21
-8.34641814145298
  0
LINE
  5
11D
100
AcDbEntity
  8
1
  6
CONTINUOUS
 62
             7
100
AcDbLine
 10
-107.8413125061186
 20
-5.19283628290596
 11
-108.3362912087081
 21
-7.99999999999999
  0
LINE
  5
11C
100
AcDbEntity
  8
1
  6
CONTINUOUS
 62
             7
100
AcDbLine
 10
-108.2453486071862
 20
-4.71132480792082
 11
-107.8413125061186
 21
-5.19283628290596
  0
LINE
  5
11B
100
AcDbEntity
  8
1
  6
CONTINUOUS
 62
             7
100
AcDbLine
 10
-108.8632591695916
 20
-5.22981333293568
 11
-108.2453486071862
 21
-4.71132480792082
  0
LINE
  5
11A
100
AcDbEntity
  8
1
  6
CONTINUOUS
 62
             7
100
AcDbLine
 10
-108.84222099115991
 20
-4.0
 11
-110.4439045475025
 21
-4.0
  0
LINE
  5
119
100
AcDbEntity
  8
1
  6
CONTINUOUS
 62
             7
100
AcDbLine
 10
-108.4381848900922
 20
-4.48151147498514
 11
-108.84222099115991
 21
-4.0
  0
LINE
  5
118
100
AcDbEntity
  8
1
  6
CONTINUOUS
 62
             7
100
AcDbLine
 10
-109.0560954524975
 20
-5.0
 11
-108.4381848900922
 21
-4.48151147498514
  0
LINE
  5
117
100
AcDbEntity
  8
1
  6
CONTINUOUS
 62
             7
100
AcDbLine
 10
-110.65777900884009
 20
-5.0
 11
-109.0560954524975
 21
-5.0
  0
LINE
  5
116
100
AcDbEntity
  8
1
  6
CONTINUOUS
 62
             7
100
AcDbLine
 10
-111.0618151099078
 20
-4.51848852501487
 11
-110.65777900884009
 21
-5.0
  0
LINE
  5
115
100
AcDbEntity
  8
1
  6
CONTINUOUS
 62
             7
100
AcDbLine
 10
-110.4439045475025
 20
-4.0
 11
-111.0618151099078
 21
-4.51848852501487
  0
LINE
  5
114
100
AcDbEntity
  8
1
  6
CONTINUOUS
 62
             7
100
AcDbLine
 10
-111.2916284428435
 20
-4.71132480792082
 11
-110.8875923417758
 21
-5.19283628290596
  0
LINE
  5
113
100
AcDbEntity
  8
1
  6
CONTINUOUS
 62
             7
100
AcDbLine
 10
-111.9095390052488
 20
-5.22981333293568
 11
-112.39799765625111
 21
-7.99999999999999
  0
LINE
  5
112
100
AcDbEntity
  8
1
  6
CONTINUOUS
 62
             7
100
AcDbLine
 10
-111.9095390052488
 20
-5.22981333293568
 11
-111.2916284428435
 21
-4.71132480792082
  0
LINE
  5
111
100
AcDbEntity
  8
1
  6
CONTINUOUS
 62
             7
100
AcDbLine
 10
-111.2546513928137
 20
-4.28867519207917
 11
-110.6367408304084
 21
-3.77018666706429
  0
LINE
  5
110
100
AcDbEntity
  8
1
  6
CONTINUOUS
 62
             7
100
AcDbLine
 10
-111.6586874938814
 20
-3.80716371709403
 11
-111.2546513928137
 21
-4.28867519207917
  0
LINE
  5
10F
100
AcDbEntity
  8
1
  6
CONTINUOUS
 62
             7
100
AcDbLine
 10
-108.2083715571565
 20
-4.28867519207917
 11
-108.6124076582242
 21
-3.80716371709403
  0
LINE
  5
10E
100
AcDbEntity
  8
1
  6
CONTINUOUS
 62
             7
100
AcDbLine
 10
-107.5904609947512
 20
-3.77018666706429
 11
-107.10200234374889
 21
-1.0
  0
LINE
  5
10D
100
AcDbEntity
  8
1
  6
CONTINUOUS
 62
             7
100
AcDbLine
 10
-108.2083715571565
 20
-4.28867519207917
 11
-107.5904609947512
 21
-3.77018666706429
  0
LINE
  5
10C
100
AcDbEntity
  8
1
  6
CONTINUOUS
 62
             7
100
AcDbLine
 10
-110.6367408304084
 20
-3.77018666706429
 11
-110.27044790929619
 21
-1.69283628290596
  0
LINE
  5
10B
100
AcDbEntity
  8
1
  6
CONTINUOUS
 62
             7
100
AcDbLine
 10
-107.2153591100902
 20
-0.86490666646785
 11
-107.10200234374889
 21
-1.0
  0
LINE
  5
10A
100
AcDbEntity
  8
1
  6
CONTINUOUS
 62
             7
100
AcDbLine
 10
-108.24611473711199
 20
-1.72981333293568
 11
-108.6124076582242
 21
-3.80716371709403
  0
LINE
  5
109
100
AcDbEntity
  8
1
  6
CONTINUOUS
 62
             7
100
AcDbLine
 10
-108.24611473711199
 20
-1.72981333293568
 11
-107.2153591100902
 21
-0.86490666646785
  0
LINE
  5
108
100
AcDbEntity
  8
1
  6
CONTINUOUS
 62
             7
100
AcDbLine
 10
-107.40819539299621
 20
-0.63509333353215
 11
-108.4389510200179
 21
-1.5
  0
LINE
  5
107
100
AcDbEntity
  8
1
  6
CONTINUOUS
 62
             7
100
AcDbLine
 10
-107.5215521593375
 20
-0.5
 11
-107.40819539299621
 21
-0.63509333353215
  0
LINE
  5
106
100
AcDbEntity
  8
1
  6
CONTINUOUS
 62
             7
100
AcDbLine
 10
-110.5678319949948
 20
-0.5
 11
-107.5215521593375
 21
-0.5
  0
LINE
  5
105
100
AcDbEntity
  8
1
  6
CONTINUOUS
 62
             7
100
AcDbLine
 10
-110.7508637266755
 20
-0.65358185854701
 11
-110.5678319949948
 21
-0.5
  0
LINE
  5
104
100
AcDbEntity
  8
1
  6
CONTINUOUS
 62
             7
100
AcDbLine
 10
-110.0406345763605
 20
-1.5
 11
-108.4389510200179
 21
-1.5
  0
LINE
  5
103
100
AcDbEntity
  8
1
  6
CONTINUOUS
 62
             7
100
AcDbLine
 10
-110.0406345763605
 20
-1.5
 11
-110.7508637266755
 21
-0.65358185854701
  0
LINE
  5
102
100
AcDbEntity
  8
1
  6
CONTINUOUS
 62
             7
100
AcDbLine
 10
-110.9806770596111
 20
-0.84641814145298
 11
-110.27044790929619
 21
-1.69283628290596
  0
LINE
  5
101
100
AcDbEntity
  8
1
  6
CONTINUOUS
 62
             7
100
AcDbLine
 10
-111.1637087912919
 20
-1.0
 11
-111.6586874938814
 21
-3.80716371709403
  0
LINE
  5
100
100
AcDbEntity
  8
1
  6
CONTINUOUS
 62
             7
100
AcDbLine
 10
-111.1637087912919
 20
-1.0
 11
-110.9806770596111
 21
-0.84641814145298
  0
LINE
  5
FF
100
AcDbEntity
  8
1
  6
CONTINUOUS
 62
             7
100
AcDbLine
 10
-119.59180460700379
 20
-8.36490666646785
 11
-119.4784478406625
 21
-8.49999999999999
  0
LINE
  5
FE
100
AcDbEntity
  8
1
  6
CONTINUOUS
 62
             7
100
AcDbLine
 10
-118.5610489799821
 20
-7.49999999999999
 11
-116.9593654236395
 21
-7.49999999999999
  0
LINE
  5
FD
100
AcDbEntity
  8
1
  6
CONTINUOUS
 62
             7
100
AcDbLine
 10
-118.5610489799821
 20
-7.49999999999999
 11
-119.59180460700379
 21
-8.36490666646785
  0
LINE
  5
FC
100
AcDbEntity
  8
1
  6
CONTINUOUS
 62
             7
100
AcDbLine
 10
-119.7846408899098
 20
-8.13509333353215
 11
-119.89799765625111
 21
-7.99999999999999
  0
LINE
  5
FB
100
AcDbEntity
  8
1
  6
CONTINUOUS
 62
             7
100
AcDbLine
 10
-118.75388526288801
 20
-7.27018666706432
 11
-118.3875923417758
 21
-5.19283628290596
  0
LINE
  5
FA
100
AcDbEntity
  8
1
  6
CONTINUOUS
 62
             7
100
AcDbLine
 10
-118.75388526288801
 20
-7.27018666706432
 11
-119.7846408899098
 21
-8.13509333353215
  0
LINE
  5
F9
100
AcDbEntity
  8
1
  6
CONTINUOUS
 62
             7
100
AcDbLine
 10
-116.0193229403889
 20
-8.15358185854702
 11
-115.8362912087081
 21
-7.99999999999999
  0
LINE
  5
F8
100
AcDbEntity
  8
1
  6
CONTINUOUS
 62
             7
100
AcDbLine
 10
-116.72955209070381
 20
-7.30716371709403
 11
-116.3632591695916
 21
-5.22981333293568
  0
LINE
  5
F7
100
AcDbEntity
  8
1
  6
CONTINUOUS
 62
             7
100
AcDbLine
 10
-116.72955209070381
 20
-7.30716371709403
 11
-116.0193229403889
 21
-8.15358185854702
  0
LINE
  5
F6
100
AcDbEntity
  8
1
  6
CONTINUOUS
 62
             7
100
AcDbLine
 10
-116.43216800500529
 20
-8.49999999999999
 11
-119.4784478406625
 21
-8.49999999999999
  0
LINE
  5
F5
100
AcDbEntity
  8
1
  6
CONTINUOUS
 62
             7
100
AcDbLine
 10
-116.24913627332459
 20
-8.34641814145298
 11
-116.43216800500529
 21
-8.49999999999999
  0
LINE
  5
F4
100
AcDbEntity
  8
1
  6
CONTINUOUS
 62
             7
100
AcDbLine
 10
-116.9593654236395
 20
-7.49999999999999
 11
-116.24913627332459
 21
-8.34641814145298
  0
LINE
  5
F3
100
AcDbEntity
  8
1
  6
CONTINUOUS
 62
             7
100
AcDbLine
 10
-115.3413125061186
 20
-5.19283628290596
 11
-115.8362912087081
 21
-7.99999999999999
  0
LINE
  5
F2
100
AcDbEntity
  8
1
  6
CONTINUOUS
 62
             7
100
AcDbLine
 10
-115.7453486071862
 20
-4.71132480792082
 11
-115.3413125061186
 21
-5.19283628290596
  0
LINE
  5
F1
100
AcDbEntity
  8
1
  6
CONTINUOUS
 62
             7
100
AcDbLine
 10
-116.3632591695916
 20
-5.22981333293568
 11
-115.7453486071862
 21
-4.71132480792082
  0
LINE
  5
F0
100
AcDbEntity
  8
1
  6
CONTINUOUS
 62
             7
100
AcDbLine
 10
-116.34222099115991
 20
-4.0
 11
-117.9439045475025
 21
-4.0
  0
LINE
  5
EF
100
AcDbEntity
  8
1
  6
CONTINUOUS
 62
             7
100
AcDbLine
 10
-115.9381848900922
 20
-4.48151147498514
 11
-116.34222099115991
 21
-4.0
  0
LINE
  5
EE
100
AcDbEntity
  8
1
  6
CONTINUOUS
 62
             7
100
AcDbLine
 10
-116.5560954524975
 20
-5.0
 11
-115.9381848900922
 21
-4.48151147498514
  0
LINE
  5
ED
100
AcDbEntity
  8
1
  6
CONTINUOUS
 62
             7
100
AcDbLine
 10
-118.15777900884019
 20
-5.0
 11
-116.5560954524975
 21
-5.0
  0
LINE
  5
EC
100
AcDbEntity
  8
1
  6
CONTINUOUS
 62
             7
100
AcDbLine
 10
-118.5618151099078
 20
-4.51848852501487
 11
-118.15777900884019
 21
-5.0
  0
LINE
  5
EB
100
AcDbEntity
  8
1
  6
CONTINUOUS
 62
             7
100
AcDbLine
 10
-117.9439045475025
 20
-4.0
 11
-118.5618151099078
 21
-4.51848852501487
  0
LINE
  5
EA
100
AcDbEntity
  8
1
  6
CONTINUOUS
 62
             7
100
AcDbLine
 10
-118.7916284428435
 20
-4.71132480792082
 11
-118.3875923417758
 21
-5.19283628290596
  0
LINE
  5
E9
100
AcDbEntity
  8
1
  6
CONTINUOUS
 62
             7
100
AcDbLine
 10
-119.4095390052488
 20
-5.22981333293568
 11
-119.89799765625111
 21
-7.99999999999999
  0
LINE
  5
E8
100
AcDbEntity
  8
1
  6
CONTINUOUS
 62
             7
100
AcDbLine
 10
-119.4095390052488
 20
-5.22981333293568
 11
-118.7916284428435
 21
-4.71132480792082
  0
LINE
  5
E7
100
AcDbEntity
  8
1
  6
CONTINUOUS
 62
             7
100
AcDbLine
 10
-118.7546513928138
 20
-4.28867519207917
 11
-118.1367408304084
 21
-3.77018666706429
  0
LINE
  5
E6
100
AcDbEntity
  8
1
  6
CONTINUOUS
 62
             7
100
AcDbLine
 10
-119.1586874938814
 20
-3.80716371709403
 11
-118.7546513928138
 21
-4.28867519207917
  0
LINE
  5
E5
100
AcDbEntity
  8
1
  6
CONTINUOUS
 62
             7
100
AcDbLine
 10
-115.7083715571565
 20
-4.28867519207917
 11
-116.1124076582242
 21
-3.80716371709403
  0
LINE
  5
E4
100
AcDbEntity
  8
1
  6
CONTINUOUS
 62
             7
100
AcDbLine
 10
-115.0904609947512
 20
-3.77018666706429
 11
-114.60200234374889
 21
-1.0
  0
LINE
  5
E3
100
AcDbEntity
  8
1
  6
CONTINUOUS
 62
             7
100
AcDbLine
 10
-115.7083715571565
 20
-4.28867519207917
 11
-115.0904609947512
 21
-3.77018666706429
  0
LINE
  5
E2
100
AcDbEntity
  8
1
  6
CONTINUOUS
 62
             7
100
AcDbLine
 10
-118.1367408304084
 20
-3.77018666706429
 11
-117.77044790929619
 21
-1.69283628290596
  0
LINE
  5
E1
100
AcDbEntity
  8
1
  6
CONTINUOUS
 62
             7
100
AcDbLine
 10
-114.7153591100902
 20
-0.86490666646785
 11
-114.60200234374889
 21
-1.0
  0
LINE
  5
E0
100
AcDbEntity
  8
1
  6
CONTINUOUS
 62
             7
100
AcDbLine
 10
-115.74611473711199
 20
-1.72981333293568
 11
-116.1124076582242
 21
-3.80716371709403
  0
LINE
  5
DF
100
AcDbEntity
  8
1
  6
CONTINUOUS
 62
             7
100
AcDbLine
 10
-115.74611473711199
 20
-1.72981333293568
 11
-114.7153591100902
 21
-0.86490666646785
  0
LINE
  5
DE
100
AcDbEntity
  8
1
  6
CONTINUOUS
 62
             7
100
AcDbLine
 10
-114.90819539299621
 20
-0.63509333353215
 11
-115.9389510200179
 21
-1.5
  0
LINE
  5
DD
100
AcDbEntity
  8
1
  6
CONTINUOUS
 62
             7
100
AcDbLine
 10
-115.0215521593375
 20
-0.5
 11
-114.90819539299621
 21
-0.63509333353215
  0
LINE
  5
DC
100
AcDbEntity
  8
1
  6
CONTINUOUS
 62
             7
100
AcDbLine
 10
-118.0678319949948
 20
-0.5
 11
-115.0215521593375
 21
-0.5
  0
LINE
  5
DB
100
AcDbEntity
  8
1
  6
CONTINUOUS
 62
             7
100
AcDbLine
 10
-118.2508637266755
 20
-0.65358185854701
 11
-118.0678319949948
 21
-0.5
  0
LINE
  5
DA
100
AcDbEntity
  8
1
  6
CONTINUOUS
 62
             7
100
AcDbLine
 10
-117.5406345763605
 20
-1.5
 11
-115.9389510200179
 21
-1.5
  0
LINE
  5
D9
100
AcDbEntity
  8
1
  6
CONTINUOUS
 62
             7
100
AcDbLine
 10
-117.5406345763605
 20
-1.5
 11
-118.2508637266755
 21
-0.65358185854701
  0
LINE
  5
D8
100
AcDbEntity
  8
1
  6
CONTINUOUS
 62
             7
100
AcDbLine
 10
-118.4806770596111
 20
-0.84641814145298
 11
-117.77044790929619
 21
-1.69283628290596
  0
LINE
  5
D7
100
AcDbEntity
  8
1
  6
CONTINUOUS
 62
             7
100
AcDbLine
 10
-118.6637087912919
 20
-1.0
 11
-119.1586874938814
 21
-3.80716371709403
  0
LINE
  5
D6
100
AcDbEntity
  8
1
  6
CONTINUOUS
 62
             7
100
AcDbLine
 10
-118.6637087912919
 20
-1.0
 11
-118.4806770596111
 21
-0.84641814145298
  0
LINE
  5
D5
100
AcDbEntity
  8
0
  6
CONTINUOUS
 62
             7
100
AcDbLine
 10
-92.76112180764736
 20
14.80848888922026
 11
-92.50226889448035
 21
14.49999999999999
  0
LINE
  5
D4
100
AcDbEntity
  8
0
  6
CONTINUOUS
 62
             7
100
AcDbLine
 10
-92.76112180764736
 20
14.80848888922026
 11
-93.58523265823794
 21
14.1169777784405
  0
LINE
  5
D3
100
AcDbEntity
  8
0
  6
CONTINUOUS
 62
             7
100
AcDbLine
 10
-93.08251561249062
 20
15.19151111077973
 11
-93.34136852565763
 21
15.49999999999999
  0
LINE
  5
D2
100
AcDbEntity
  8
0
  6
CONTINUOUS
 62
             7
100
AcDbLine
 10
-93.90662646308121
 20
14.49999999999999
 11
-93.08251561249062
 21
15.19151111077973
  0
LINE
  5
D1
100
AcDbEntity
  8
0
  6
CONTINUOUS
 62
             7
100
AcDbLine
 10
-96.74533682563313
 20
14.49999999999999
 11
-93.90662646308121
 21
14.49999999999999
  0
LINE
  5
D0
100
AcDbEntity
  8
0
  6
CONTINUOUS
 62
             7
100
AcDbLine
 10
-96.74533682563313
 20
14.49999999999999
 11
-97.29972735277511
 21
15.16069690242162
  0
LINE
  5
CF
100
AcDbEntity
  8
0
  6
CONTINUOUS
 62
             7
100
AcDbLine
 10
-97.12835904719262
 20
14.17860619515673
 11
-97.621295928574
 21
11.38302222155949
  0
LINE
  5
CE
100
AcDbEntity
  8
0
  6
CONTINUOUS
 62
             7
100
AcDbLine
 10
-97.68274957433459
 20
14.83930309757837
 11
-97.12835904719262
 21
14.17860619515673
  0
LINE
  5
CD
100
AcDbEntity
  8
0
  6
CONTINUOUS
 62
             7
100
AcDbLine
 10
-94.87164095280738
 20
6.82139380484326
 11
-94.378704071426
 21
9.6169777784405
  0
LINE
  5
CC
100
AcDbEntity
  8
0
  6
CONTINUOUS
 62
             7
100
AcDbLine
 10
-94.87164095280738
 20
6.82139380484326
 11
-94.31725042566541
 21
6.16069690242162
  0
LINE
  5
CB
100
AcDbEntity
  8
0
  6
CONTINUOUS
 62
             7
100
AcDbLine
 10
-95.25466317436687
 20
6.49999999999999
 11
-94.70027264722492
 21
5.83930309757837
  0
LINE
  5
CA
100
AcDbEntity
  8
0
  6
CONTINUOUS
 62
             7
100
AcDbLine
 10
-98.91748438750938
 20
5.80848888922025
 11
-98.65863147434237
 21
5.49999999999999
  0
LINE
  5
C9
100
AcDbEntity
  8
0
  6
CONTINUOUS
 62
             7
100
AcDbLine
 10
-98.09337353691882
 20
6.49999999999999
 11
-95.25466317436687
 21
6.49999999999999
  0
LINE
  5
C8
100
AcDbEntity
  8
0
  6
CONTINUOUS
 62
             7
100
AcDbLine
 10
-98.09337353691882
 20
6.49999999999999
 11
-98.91748438750938
 21
5.80848888922025
  0
LINE
  5
C7
100
AcDbEntity
  8
0
  6
CONTINUOUS
 62
             7
100
AcDbLine
 10
-98.41476734176209
 20
6.88302222155949
 11
-97.9218304603807
 21
9.67860619515672
  0
LINE
  5
C6
100
AcDbEntity
  8
0
  6
CONTINUOUS
 62
             7
100
AcDbLine
 10
-98.41476734176209
 20
6.88302222155949
 11
-99.23887819235267
 21
6.19151111077974
  0
LINE
  5
C5
100
AcDbEntity
  8
0
  6
CONTINUOUS
 62
             7
100
AcDbLine
 10
-93.55459322083544
 20
10.30848888922026
 11
-93.29574030766844
 21
9.99999999999999
  0
LINE
  5
C4
100
AcDbEntity
  8
0
  6
CONTINUOUS
 62
             7
100
AcDbLine
 10
-94.378704071426
 20
9.6169777784405
 11
-93.55459322083544
 21
10.30848888922026
  0
LINE
  5
C3
100
AcDbEntity
  8
0
  6
CONTINUOUS
 62
             7
100
AcDbLine
 10
-94.0781695396193
 20
11.32139380484326
 11
-93.58523265823794
 21
14.1169777784405
  0
LINE
  5
C2
100
AcDbEntity
  8
0
  6
CONTINUOUS
 62
             7
100
AcDbLine
 10
-94.0781695396193
 20
11.32139380484326
 11
-93.52377901247732
 21
10.66069690242162
  0
LINE
  5
C1
100
AcDbEntity
  8
0
  6
CONTINUOUS
 62
             7
100
AcDbLine
 10
-98.45065248841743
 20
10.68710943808039
 11
-98.70822132078359
 21
10.97753248858405
  0
LINE
  5
C0
100
AcDbEntity
  8
0
  6
CONTINUOUS
 62
             7
100
AcDbLine
 10
-97.621295928574
 20
11.38302222155949
 11
-98.45065248841743
 21
10.68710943808039
  0
LINE
  5
BF
100
AcDbEntity
  8
0
  6
CONTINUOUS
 62
             7
100
AcDbLine
 10
-98.47622098752268
 20
10.33930309757837
 11
-98.88058667304003
 21
9.99999999999999
  0
LINE
  5
BE
100
AcDbEntity
  8
0
  6
CONTINUOUS
 62
             7
100
AcDbLine
 10
-98.47622098752268
 20
10.33930309757837
 11
-97.9218304603807
 21
9.67860619515672
  0
LINE
  5
BD
100
AcDbEntity
  8
0
  6
CONTINUOUS
 62
             7
100
AcDbLine
 10
-98.08711525985194
 20
14.49999999999999
 11
-98.70822132078359
 21
10.97753248858405
  0
LINE
  5
BC
100
AcDbEntity
  8
0
  6
CONTINUOUS
 62
             7
100
AcDbLine
 10
-97.93250186354155
 20
10.46918579164188
 11
-97.53880823882122
 21
9.99999999999999
  0
LINE
  5
BB
100
AcDbEntity
  8
0
  6
CONTINUOUS
 62
             7
100
AcDbLine
 10
-97.2999021237307
 20
10.99999999999999
 11
-97.93250186354155
 21
10.46918579164188
  0
LINE
  5
BA
100
AcDbEntity
  8
0
  6
CONTINUOUS
 62
             7
100
AcDbLine
 10
-94.46119176117878
 20
10.99999999999999
 11
-97.2999021237307
 21
10.99999999999999
  0
LINE
  5
B9
100
AcDbEntity
  8
0
  6
CONTINUOUS
 62
             7
100
AcDbLine
 10
-94.70009787626927
 20
9.99999999999999
 11
-97.53880823882122
 21
9.99999999999999
  0
LINE
  5
B8
100
AcDbEntity
  8
0
  6
CONTINUOUS
 62
             7
100
AcDbLine
 10
-94.06749813645845
 20
10.5308142083581
 11
-94.70009787626927
 21
9.99999999999999
  0
LINE
  5
B7
100
AcDbEntity
  8
0
  6
CONTINUOUS
 62
             7
100
AcDbLine
 10
-94.46119176117878
 20
10.99999999999999
 11
-94.06749813645845
 21
10.5308142083581
  0
LINE
  5
B6
100
AcDbEntity
  8
0
  6
CONTINUOUS
 62
             7
100
AcDbLine
 10
-96.89536166725773
 20
15.49999999999999
 11
-97.29972735277511
 21
15.16069690242162
  0
LINE
  5
B5
100
AcDbEntity
  8
0
  6
CONTINUOUS
 62
             7
100
AcDbLine
 10
-93.34136852565763
 20
15.49999999999999
 11
-96.89536166725773
 21
15.49999999999999
  0
LINE
  5
B4
100
AcDbEntity
  8
0
  6
CONTINUOUS
 62
             7
100
AcDbLine
 10
-95.10463833274227
 20
5.49999999999999
 11
-94.70027264722492
 21
5.83930309757837
  0
LINE
  5
B3
100
AcDbEntity
  8
0
  6
CONTINUOUS
 62
             7
100
AcDbLine
 10
-98.65863147434237
 20
5.49999999999999
 11
-95.10463833274227
 21
5.49999999999999
  0
LINE
  5
B2
100
AcDbEntity
  8
0
  6
CONTINUOUS
 62
             7
100
AcDbLine
 10
-93.91288474014806
 20
6.49999999999999
 11
-94.31725042566541
 21
6.16069690242162
  0
LINE
  5
B1
100
AcDbEntity
  8
0
  6
CONTINUOUS
 62
             7
100
AcDbLine
 10
-93.29574030766844
 20
9.99999999999999
 11
-93.91288474014806
 21
6.49999999999999
  0
LINE
  5
B0
100
AcDbEntity
  8
0
  6
CONTINUOUS
 62
             7
100
AcDbLine
 10
-93.11941332695997
 20
10.99999999999999
 11
-93.52377901247732
 21
10.66069690242162
  0
LINE
  5
AF
100
AcDbEntity
  8
0
  6
CONTINUOUS
 62
             7
100
AcDbLine
 10
-92.50226889448035
 20
14.49999999999999
 11
-93.11941332695997
 21
10.99999999999999
  0
LINE
  5
AE
100
AcDbEntity
  8
0
  6
CONTINUOUS
 62
             7
100
AcDbLine
 10
-99.49773110551968
 20
6.49999999999999
 11
-99.23887819235267
 21
6.19151111077974
  0
LINE
  5
AD
100
AcDbEntity
  8
0
  6
CONTINUOUS
 62
             7
100
AcDbLine
 10
-98.88058667304003
 20
9.99999999999999
 11
-99.49773110551968
 21
6.49999999999999
  0
LINE
  5
AC
100
AcDbEntity
  8
0
  6
CONTINUOUS
 62
             7
100
AcDbLine
 10
-98.08711525985194
 20
14.49999999999999
 11
-97.68274957433459
 21
14.83930309757837
  0
LINE
  5
AB
100
AcDbEntity
  8
0
  6
CONTINUOUS
 62
             7
100
AcDbLine
 10
-102.7611218076474
 20
14.80848888922026
 11
-102.50226889448039
 21
14.49999999999999
  0
LINE
  5
AA
100
AcDbEntity
  8
0
  6
CONTINUOUS
 62
             7
100
AcDbLine
 10
-102.7611218076474
 20
14.80848888922026
 11
-103.5852326582379
 21
14.1169777784405
  0
LINE
  5
A9
100
AcDbEntity
  8
0
  6
CONTINUOUS
 62
             7
100
AcDbLine
 10
-103.0825156124906
 20
15.19151111077973
 11
-103.3413685256576
 21
15.49999999999999
  0
LINE
  5
A8
100
AcDbEntity
  8
0
  6
CONTINUOUS
 62
             7
100
AcDbLine
 10
-103.9066264630812
 20
14.49999999999999
 11
-103.0825156124906
 21
15.19151111077973
  0
LINE
  5
A7
100
AcDbEntity
  8
0
  6
CONTINUOUS
 62
             7
100
AcDbLine
 10
-106.7453368256331
 20
14.49999999999999
 11
-103.9066264630812
 21
14.49999999999999
  0
LINE
  5
A6
100
AcDbEntity
  8
0
  6
CONTINUOUS
 62
             7
100
AcDbLine
 10
-106.7453368256331
 20
14.49999999999999
 11
-107.29972735277509
 21
15.16069690242162
  0
LINE
  5
A5
100
AcDbEntity
  8
0
  6
CONTINUOUS
 62
             7
100
AcDbLine
 10
-107.1283590471926
 20
14.17860619515673
 11
-107.621295928574
 21
11.38302222155949
  0
LINE
  5
A4
100
AcDbEntity
  8
0
  6
CONTINUOUS
 62
             7
100
AcDbLine
 10
-107.68274957433459
 20
14.83930309757837
 11
-107.1283590471926
 21
14.17860619515673
  0
LINE
  5
A3
100
AcDbEntity
  8
0
  6
CONTINUOUS
 62
             7
100
AcDbLine
 10
-104.8716409528074
 20
6.82139380484326
 11
-104.378704071426
 21
9.6169777784405
  0
LINE
  5
A2
100
AcDbEntity
  8
0
  6
CONTINUOUS
 62
             7
100
AcDbLine
 10
-104.8716409528074
 20
6.82139380484326
 11
-104.31725042566541
 21
6.16069690242162
  0
LINE
  5
A1
100
AcDbEntity
  8
0
  6
CONTINUOUS
 62
             7
100
AcDbLine
 10
-105.2546631743669
 20
6.49999999999999
 11
-104.70027264722491
 21
5.83930309757837
  0
LINE
  5
A0
100
AcDbEntity
  8
0
  6
CONTINUOUS
 62
             7
100
AcDbLine
 10
-108.9174843875094
 20
5.80848888922025
 11
-108.6586314743424
 21
5.49999999999999
  0
LINE
  5
9F
100
AcDbEntity
  8
0
  6
CONTINUOUS
 62
             7
100
AcDbLine
 10
-108.0933735369188
 20
6.49999999999999
 11
-105.2546631743669
 21
6.49999999999999
  0
LINE
  5
9E
100
AcDbEntity
  8
0
  6
CONTINUOUS
 62
             7
100
AcDbLine
 10
-108.0933735369188
 20
6.49999999999999
 11
-108.9174843875094
 21
5.80848888922025
  0
LINE
  5
9D
100
AcDbEntity
  8
0
  6
CONTINUOUS
 62
             7
100
AcDbLine
 10
-108.4147673417621
 20
6.88302222155949
 11
-107.9218304603807
 21
9.67860619515672
  0
LINE
  5
9C
100
AcDbEntity
  8
0
  6
CONTINUOUS
 62
             7
100
AcDbLine
 10
-108.4147673417621
 20
6.88302222155949
 11
-109.2388781923527
 21
6.19151111077974
  0
LINE
  5
9B
100
AcDbEntity
  8
0
  6
CONTINUOUS
 62
             7
100
AcDbLine
 10
-103.5545932208354
 20
10.30848888922026
 11
-103.2957403076684
 21
9.99999999999999
  0
LINE
  5
9A
100
AcDbEntity
  8
0
  6
CONTINUOUS
 62
             7
100
AcDbLine
 10
-104.378704071426
 20
9.6169777784405
 11
-103.5545932208354
 21
10.30848888922026
  0
LINE
  5
99
100
AcDbEntity
  8
0
  6
CONTINUOUS
 62
             7
100
AcDbLine
 10
-104.0781695396193
 20
11.32139380484326
 11
-103.5852326582379
 21
14.1169777784405
  0
LINE
  5
98
100
AcDbEntity
  8
0
  6
CONTINUOUS
 62
             7
100
AcDbLine
 10
-104.0781695396193
 20
11.32139380484326
 11
-103.52377901247741
 21
10.66069690242162
  0
LINE
  5
97
100
AcDbEntity
  8
0
  6
CONTINUOUS
 62
             7
100
AcDbLine
 10
-108.4506524884174
 20
10.68710943808039
 11
-108.70822132078359
 21
10.97753248858405
  0
LINE
  5
96
100
AcDbEntity
  8
0
  6
CONTINUOUS
 62
             7
100
AcDbLine
 10
-107.621295928574
 20
11.38302222155949
 11
-108.4506524884174
 21
10.68710943808039
  0
LINE
  5
95
100
AcDbEntity
  8
0
  6
CONTINUOUS
 62
             7
100
AcDbLine
 10
-108.47622098752269
 20
10.33930309757837
 11
-108.88058667304
 21
9.99999999999999
  0
LINE
  5
94
100
AcDbEntity
  8
0
  6
CONTINUOUS
 62
             7
100
AcDbLine
 10
-108.47622098752269
 20
10.33930309757837
 11
-107.9218304603807
 21
9.67860619515672
  0
LINE
  5
93
100
AcDbEntity
  8
0
  6
CONTINUOUS
 62
             7
100
AcDbLine
 10
-108.0871152598519
 20
14.49999999999999
 11
-108.70822132078359
 21
10.97753248858405
  0
LINE
  5
92
100
AcDbEntity
  8
0
  6
CONTINUOUS
 62
             7
100
AcDbLine
 10
-107.9325018635416
 20
10.46918579164188
 11
-107.5388082388212
 21
9.99999999999999
  0
LINE
  5
91
100
AcDbEntity
  8
0
  6
CONTINUOUS
 62
             7
100
AcDbLine
 10
-107.2999021237307
 20
10.99999999999999
 11
-107.9325018635416
 21
10.46918579164188
  0
LINE
  5
90
100
AcDbEntity
  8
0
  6
CONTINUOUS
 62
             7
100
AcDbLine
 10
-104.4611917611788
 20
10.99999999999999
 11
-107.2999021237307
 21
10.99999999999999
  0
LINE
  5
8F
100
AcDbEntity
  8
0
  6
CONTINUOUS
 62
             7
100
AcDbLine
 10
-104.7000978762693
 20
9.99999999999999
 11
-107.5388082388212
 21
9.99999999999999
  0
LINE
  5
8E
100
AcDbEntity
  8
0
  6
CONTINUOUS
 62
             7
100
AcDbLine
 10
-104.0674981364585
 20
10.5308142083581
 11
-104.7000978762693
 21
9.99999999999999
  0
LINE
  5
8D
100
AcDbEntity
  8
0
  6
CONTINUOUS
 62
             7
100
AcDbLine
 10
-104.4611917611788
 20
10.99999999999999
 11
-104.0674981364585
 21
10.5308142083581
  0
LINE
  5
8C
100
AcDbEntity
  8
0
  6
CONTINUOUS
 62
             7
100
AcDbLine
 10
-106.8953616672577
 20
15.49999999999999
 11
-107.29972735277509
 21
15.16069690242162
  0
LINE
  5
8B
100
AcDbEntity
  8
0
  6
CONTINUOUS
 62
             7
100
AcDbLine
 10
-103.3413685256576
 20
15.49999999999999
 11
-106.8953616672577
 21
15.49999999999999
  0
LINE
  5
8A
100
AcDbEntity
  8
0
  6
CONTINUOUS
 62
             7
100
AcDbLine
 10
-105.1046383327423
 20
5.49999999999999
 11
-104.70027264722491
 21
5.83930309757837
  0
LINE
  5
89
100
AcDbEntity
  8
0
  6
CONTINUOUS
 62
             7
100
AcDbLine
 10
-108.6586314743424
 20
5.49999999999999
 11
-105.1046383327423
 21
5.49999999999999
  0
LINE
  5
88
100
AcDbEntity
  8
0
  6
CONTINUOUS
 62
             7
100
AcDbLine
 10
-103.9128847401481
 20
6.49999999999999
 11
-104.31725042566541
 21
6.16069690242162
  0
LINE
  5
87
100
AcDbEntity
  8
0
  6
CONTINUOUS
 62
             7
100
AcDbLine
 10
-103.2957403076684
 20
9.99999999999999
 11
-103.9128847401481
 21
6.49999999999999
  0
LINE
  5
86
100
AcDbEntity
  8
0
  6
CONTINUOUS
 62
             7
100
AcDbLine
 10
-103.11941332696
 20
10.99999999999999
 11
-103.52377901247741
 21
10.66069690242162
  0
LINE
  5
85
100
AcDbEntity
  8
0
  6
CONTINUOUS
 62
             7
100
AcDbLine
 10
-102.50226889448039
 20
14.49999999999999
 11
-103.11941332696
 21
10.99999999999999
  0
LINE
  5
84
100
AcDbEntity
  8
0
  6
CONTINUOUS
 62
             7
100
AcDbLine
 10
-109.4977311055197
 20
6.49999999999999
 11
-109.2388781923527
 21
6.19151111077974
  0
LINE
  5
83
100
AcDbEntity
  8
0
  6
CONTINUOUS
 62
             7
100
AcDbLine
 10
-108.88058667304
 20
9.99999999999999
 11
-109.4977311055197
 21
6.49999999999999
  0
LINE
  5
82
100
AcDbEntity
  8
0
  6
CONTINUOUS
 62
             7
100
AcDbLine
 10
-108.0871152598519
 20
14.49999999999999
 11
-107.68274957433459
 21
14.83930309757837
  0
LINE
  5
81
100
AcDbEntity
  8
0
  6
CONTINUOUS
 62
             7
100
AcDbLine
 10
-112.7611218076474
 20
14.80848888922026
 11
-112.50226889448039
 21
14.49999999999999
  0
LINE
  5
80
100
AcDbEntity
  8
0
  6
CONTINUOUS
 62
             7
100
AcDbLine
 10
-112.7611218076474
 20
14.80848888922026
 11
-113.5852326582379
 21
14.1169777784405
  0
LINE
  5
7F
100
AcDbEntity
  8
0
  6
CONTINUOUS
 62
             7
100
AcDbLine
 10
-113.0825156124906
 20
15.19151111077973
 11
-113.3413685256576
 21
15.49999999999999
  0
LINE
  5
7E
100
AcDbEntity
  8
0
  6
CONTINUOUS
 62
             7
100
AcDbLine
 10
-113.9066264630812
 20
14.49999999999999
 11
-113.0825156124906
 21
15.19151111077973
  0
LINE
  5
7D
100
AcDbEntity
  8
0
  6
CONTINUOUS
 62
             7
100
AcDbLine
 10
-116.7453368256331
 20
14.49999999999999
 11
-113.9066264630812
 21
14.49999999999999
  0
LINE
  5
7C
100
AcDbEntity
  8
0
  6
CONTINUOUS
 62
             7
100
AcDbLine
 10
-116.7453368256331
 20
14.49999999999999
 11
-117.29972735277509
 21
15.16069690242162
  0
LINE
  5
7B
100
AcDbEntity
  8
0
  6
CONTINUOUS
 62
             7
100
AcDbLine
 10
-117.1283590471926
 20
14.17860619515673
 11
-117.621295928574
 21
11.38302222155949
  0
LINE
  5
7A
100
AcDbEntity
  8
0
  6
CONTINUOUS
 62
             7
100
AcDbLine
 10
-117.68274957433459
 20
14.83930309757837
 11
-117.1283590471926
 21
14.17860619515673
  0
LINE
  5
79
100
AcDbEntity
  8
0
  6
CONTINUOUS
 62
             7
100
AcDbLine
 10
-114.8716409528074
 20
6.82139380484326
 11
-114.378704071426
 21
9.6169777784405
  0
LINE
  5
78
100
AcDbEntity
  8
0
  6
CONTINUOUS
 62
             7
100
AcDbLine
 10
-114.8716409528074
 20
6.82139380484326
 11
-114.31725042566541
 21
6.16069690242162
  0
LINE
  5
77
100
AcDbEntity
  8
0
  6
CONTINUOUS
 62
             7
100
AcDbLine
 10
-115.2546631743669
 20
6.49999999999999
 11
-114.70027264722491
 21
5.83930309757837
  0
LINE
  5
76
100
AcDbEntity
  8
0
  6
CONTINUOUS
 62
             7
100
AcDbLine
 10
-118.9174843875094
 20
5.80848888922025
 11
-118.6586314743424
 21
5.49999999999999
  0
LINE
  5
75
100
AcDbEntity
  8
0
  6
CONTINUOUS
 62
             7
100
AcDbLine
 10
-118.0933735369188
 20
6.49999999999999
 11
-115.2546631743669
 21
6.49999999999999
  0
LINE
  5
74
100
AcDbEntity
  8
0
  6
CONTINUOUS
 62
             7
100
AcDbLine
 10
-118.0933735369188
 20
6.49999999999999
 11
-118.9174843875094
 21
5.80848888922025
  0
LINE
  5
73
100
AcDbEntity
  8
0
  6
CONTINUOUS
 62
             7
100
AcDbLine
 10
-118.4147673417621
 20
6.88302222155949
 11
-117.9218304603807
 21
9.67860619515672
  0
LINE
  5
72
100
AcDbEntity
  8
0
  6
CONTINUOUS
 62
             7
100
AcDbLine
 10
-118.4147673417621
 20
6.88302222155949
 11
-119.2388781923527
 21
6.19151111077974
  0
LINE
  5
71
100
AcDbEntity
  8
0
  6
CONTINUOUS
 62
             7
100
AcDbLine
 10
-113.5545932208354
 20
10.30848888922026
 11
-113.2957403076684
 21
9.99999999999999
  0
LINE
  5
70
100
AcDbEntity
  8
0
  6
CONTINUOUS
 62
             7
100
AcDbLine
 10
-114.378704071426
 20
9.6169777784405
 11
-113.5545932208354
 21
10.30848888922026
  0
LINE
  5
6F
100
AcDbEntity
  8
0
  6
CONTINUOUS
 62
             7
100
AcDbLine
 10
-114.0781695396193
 20
11.32139380484326
 11
-113.5852326582379
 21
14.1169777784405
  0
LINE
  5
6E
100
AcDbEntity
  8
0
  6
CONTINUOUS
 62
             7
100
AcDbLine
 10
-114.0781695396193
 20
11.32139380484326
 11
-113.52377901247741
 21
10.66069690242162
  0
LINE
  5
6D
100
AcDbEntity
  8
0
  6
CONTINUOUS
 62
             7
100
AcDbLine
 10
-118.4506524884174
 20
10.68710943808039
 11
-118.70822132078359
 21
10.97753248858405
  0
LINE
  5
6C
100
AcDbEntity
  8
0
  6
CONTINUOUS
 62
             7
100
AcDbLine
 10
-117.621295928574
 20
11.38302222155949
 11
-118.4506524884174
 21
10.68710943808039
  0
LINE
  5
6B
100
AcDbEntity
  8
0
  6
CONTINUOUS
 62
             7
100
AcDbLine
 10
-118.47622098752269
 20
10.33930309757837
 11
-118.88058667304
 21
9.99999999999999
  0
LINE
  5
6A
100
AcDbEntity
  8
0
  6
CONTINUOUS
 62
             7
100
AcDbLine
 10
-118.47622098752269
 20
10.33930309757837
 11
-117.9218304603807
 21
9.67860619515672
  0
LINE
  5
69
100
AcDbEntity
  8
0
  6
CONTINUOUS
 62
             7
100
AcDbLine
 10
-118.0871152598519
 20
14.49999999999999
 11
-118.70822132078359
 21
10.97753248858405
  0
LINE
  5
68
100
AcDbEntity
  8
0
  6
CONTINUOUS
 62
             7
100
AcDbLine
 10
-117.9325018635416
 20
10.46918579164188
 11
-117.5388082388212
 21
9.99999999999999
  0
LINE
  5
67
100
AcDbEntity
  8
0
  6
CONTINUOUS
 62
             7
100
AcDbLine
 10
-117.2999021237307
 20
10.99999999999999
 11
-117.9325018635416
 21
10.46918579164188
  0
LINE
  5
66
100
AcDbEntity
  8
0
  6
CONTINUOUS
 62
             7
100
AcDbLine
 10
-114.4611917611788
 20
10.99999999999999
 11
-117.2999021237307
 21
10.99999999999999
  0
LINE
  5
65
100
AcDbEntity
  8
0
  6
CONTINUOUS
 62
             7
100
AcDbLine
 10
-114.7000978762693
 20
9.99999999999999
 11
-117.5388082388212
 21
9.99999999999999
  0
LINE
  5
64
100
AcDbEntity
  8
0
  6
CONTINUOUS
 62
             7
100
AcDbLine
 10
-114.0674981364585
 20
10.5308142083581
 11
-114.7000978762693
 21
9.99999999999999
  0
LINE
  5
63
100
AcDbEntity
  8
0
  6
CONTINUOUS
 62
             7
100
AcDbLine
 10
-114.4611917611788
 20
10.99999999999999
 11
-114.0674981364585
 21
10.5308142083581
  0
LINE
  5
62
100
AcDbEntity
  8
0
  6
CONTINUOUS
 62
             7
100
AcDbLine
 10
-116.8953616672577
 20
15.49999999999999
 11
-117.29972735277509
 21
15.16069690242162
  0
LINE
  5
61
100
AcDbEntity
  8
0
  6
CONTINUOUS
 62
             7
100
AcDbLine
 10
-113.3413685256576
 20
15.49999999999999
 11
-116.8953616672577
 21
15.49999999999999
  0
LINE
  5
60
100
AcDbEntity
  8
0
  6
CONTINUOUS
 62
             7
100
AcDbLine
 10
-115.1046383327423
 20
5.49999999999999
 11
-114.70027264722491
 21
5.83930309757837
  0
LINE
  5
5F
100
AcDbEntity
  8
0
  6
CONTINUOUS
 62
             7
100
AcDbLine
 10
-118.6586314743424
 20
5.49999999999999
 11
-115.1046383327423
 21
5.49999999999999
  0
LINE
  5
5E
100
AcDbEntity
  8
0
  6
CONTINUOUS
 62
             7
100
AcDbLine
 10
-113.9128847401481
 20
6.49999999999999
 11
-114.31725042566541
 21
6.16069690242162
  0
LINE
  5
5D
100
AcDbEntity
  8
0
  6
CONTINUOUS
 62
             7
100
AcDbLine
 10
-113.2957403076684
 20
9.99999999999999
 11
-113.9128847401481
 21
6.49999999999999
  0
LINE
  5
5C
100
AcDbEntity
  8
0
  6
CONTINUOUS
 62
             7
100
AcDbLine
 10
-113.11941332696
 20
10.99999999999999
 11
-113.52377901247741
 21
10.66069690242162
  0
LINE
  5
5B
100
AcDbEntity
  8
0
  6
CONTINUOUS
 62
             7
100
AcDbLine
 10
-112.50226889448039
 20
14.49999999999999
 11
-113.11941332696
 21
10.99999999999999
  0
LINE
  5
5A
100
AcDbEntity
  8
0
  6
CONTINUOUS
 62
             7
100
AcDbLine
 10
-119.4977311055197
 20
6.49999999999999
 11
-119.2388781923527
 21
6.19151111077974
  0
LINE
  5
59
100
AcDbEntity
  8
0
  6
CONTINUOUS
 62
             7
100
AcDbLine
 10
-118.88058667304
 20
9.99999999999999
 11
-119.4977311055197
 21
6.49999999999999
  0
LINE
  5
58
100
AcDbEntity
  8
0
  6
CONTINUOUS
 62
             7
100
AcDbLine
 10
-118.0871152598519
 20
14.49999999999999
 11
-117.68274957433459
 21
14.83930309757837
  0
LINE
  5
57
100
AcDbEntity
  8
0
  6
CONTINUOUS
 62
             7
100
AcDbLine
 10
-122.7611218076474
 20
14.80848888922026
 11
-122.50226889448039
 21
14.49999999999999
  0
LINE
  5
56
100
AcDbEntity
  8
0
  6
CONTINUOUS
 62
             7
100
AcDbLine
 10
-122.7611218076474
 20
14.80848888922026
 11
-123.5852326582379
 21
14.1169777784405
  0
LINE
  5
55
100
AcDbEntity
  8
0
  6
CONTINUOUS
 62
             7
100
AcDbLine
 10
-123.0825156124906
 20
15.19151111077973
 11
-123.3413685256576
 21
15.49999999999999
  0
LINE
  5
54
100
AcDbEntity
  8
0
  6
CONTINUOUS
 62
             7
100
AcDbLine
 10
-123.9066264630812
 20
14.49999999999999
 11
-123.0825156124906
 21
15.19151111077973
  0
LINE
  5
53
100
AcDbEntity
  8
0
  6
CONTINUOUS
 62
             7
100
AcDbLine
 10
-126.7453368256331
 20
14.49999999999999
 11
-123.9066264630812
 21
14.49999999999999
  0
LINE
  5
52
100
AcDbEntity
  8
0
  6
CONTINUOUS
 62
             7
100
AcDbLine
 10
-126.7453368256331
 20
14.49999999999999
 11
-127.29972735277509
 21
15.16069690242162
  0
LINE
  5
51
100
AcDbEntity
  8
0
  6
CONTINUOUS
 62
             7
100
AcDbLine
 10
-127.1283590471926
 20
14.17860619515673
 11
-127.621295928574
 21
11.38302222155949
  0
LINE
  5
50
100
AcDbEntity
  8
0
  6
CONTINUOUS
 62
             7
100
AcDbLine
 10
-127.68274957433459
 20
14.83930309757837
 11
-127.1283590471926
 21
14.17860619515673
  0
LINE
  5
4F
100
AcDbEntity
  8
0
  6
CONTINUOUS
 62
             7
100
AcDbLine
 10
-124.8716409528074
 20
6.82139380484326
 11
-124.378704071426
 21
9.6169777784405
  0
LINE
  5
4E
100
AcDbEntity
  8
0
  6
CONTINUOUS
 62
             7
100
AcDbLine
 10
-124.8716409528074
 20
6.82139380484326
 11
-124.31725042566541
 21
6.16069690242162
  0
LINE
  5
4D
100
AcDbEntity
  8
0
  6
CONTINUOUS
 62
             7
100
AcDbLine
 10
-125.2546631743669
 20
6.49999999999999
 11
-124.70027264722491
 21
5.83930309757837
  0
LINE
  5
4C
100
AcDbEntity
  8
0
  6
CONTINUOUS
 62
             7
100
AcDbLine
 10
-128.9174843875094
 20
5.80848888922025
 11
-128.6586314743424
 21
5.49999999999999
  0
LINE
  5
4B
100
AcDbEntity
  8
0
  6
CONTINUOUS
 62
             7
100
AcDbLine
 10
-128.09337353691879
 20
6.49999999999999
 11
-125.2546631743669
 21
6.49999999999999
  0
LINE
  5
4A
100
AcDbEntity
  8
0
  6
CONTINUOUS
 62
             7
100
AcDbLine
 10
-128.09337353691879
 20
6.49999999999999
 11
-128.9174843875094
 21
5.80848888922025
  0
LINE
  5
49
100
AcDbEntity
  8
0
  6
CONTINUOUS
 62
             7
100
AcDbLine
 10
-128.41476734176209
 20
6.88302222155949
 11
-127.9218304603807
 21
9.67860619515672
  0
LINE
  5
48
100
AcDbEntity
  8
0
  6
CONTINUOUS
 62
             7
100
AcDbLine
 10
-128.41476734176209
 20
6.88302222155949
 11
-129.2388781923527
 21
6.19151111077974
  0
LINE
  5
47
100
AcDbEntity
  8
0
  6
CONTINUOUS
 62
             7
100
AcDbLine
 10
-123.5545932208354
 20
10.30848888922026
 11
-123.2957403076684
 21
9.99999999999999
  0
LINE
  5
46
100
AcDbEntity
  8
0
  6
CONTINUOUS
 62
             7
100
AcDbLine
 10
-124.378704071426
 20
9.6169777784405
 11
-123.5545932208354
 21
10.30848888922026
  0
LINE
  5
45
100
AcDbEntity
  8
0
  6
CONTINUOUS
 62
             7
100
AcDbLine
 10
-124.0781695396193
 20
11.32139380484326
 11
-123.5852326582379
 21
14.1169777784405
  0
LINE
  5
44
100
AcDbEntity
  8
0
  6
CONTINUOUS
 62
             7
100
AcDbLine
 10
-124.0781695396193
 20
11.32139380484326
 11
-123.52377901247731
 21
10.66069690242162
  0
LINE
  5
43
100
AcDbEntity
  8
0
  6
CONTINUOUS
 62
             7
100
AcDbLine
 10
-128.4506524884174
 20
10.68710943808039
 11
-128.70822132078359
 21
10.97753248858405
  0
LINE
  5
42
100
AcDbEntity
  8
0
  6
CONTINUOUS
 62
             7
100
AcDbLine
 10
-127.621295928574
 20
11.38302222155949
 11
-128.4506524884174
 21
10.68710943808039
  0
LINE
  5
41
100
AcDbEntity
  8
0
  6
CONTINUOUS
 62
             7
100
AcDbLine
 10
-128.47622098752271
 20
10.33930309757837
 11
-128.88058667304
 21
9.99999999999999
  0
LINE
  5
40
100
AcDbEntity
  8
0
  6
CONTINUOUS
 62
             7
100
AcDbLine
 10
-128.47622098752271
 20
10.33930309757837
 11
-127.9218304603807
 21
9.67860619515672
  0
LINE
  5
3F
100
AcDbEntity
  8
0
  6
CONTINUOUS
 62
             7
100
AcDbLine
 10
-128.08711525985191
 20
14.49999999999999
 11
-128.70822132078359
 21
10.97753248858405
  0
LINE
  5
3E
100
AcDbEntity
  8
0
  6
CONTINUOUS
 62
             7
100
AcDbLine
 10
-127.9325018635416
 20
10.46918579164188
 11
-127.5388082388212
 21
9.99999999999999
  0
LINE
  5
3D
100
AcDbEntity
  8
0
  6
CONTINUOUS
 62
             7
100
AcDbLine
 10
-127.2999021237307
 20
10.99999999999999
 11
-127.9325018635416
 21
10.46918579164188
  0
LINE
  5
3C
100
AcDbEntity
  8
0
  6
CONTINUOUS
 62
             7
100
AcDbLine
 10
-124.4611917611788
 20
10.99999999999999
 11
-127.2999021237307
 21
10.99999999999999
  0
LINE
  5
3B
100
AcDbEntity
  8
0
  6
CONTINUOUS
 62
             7
100
AcDbLine
 10
-124.7000978762693
 20
9.99999999999999
 11
-127.5388082388212
 21
9.99999999999999
  0
LINE
  5
3A
100
AcDbEntity
  8
0
  6
CONTINUOUS
 62
             7
100
AcDbLine
 10
-124.0674981364585
 20
10.5308142083581
 11
-124.7000978762693
 21
9.99999999999999
  0
LINE
  5
39
100
AcDbEntity
  8
0
  6
CONTINUOUS
 62
             7
100
AcDbLine
 10
-124.4611917611788
 20
10.99999999999999
 11
-124.0674981364585
 21
10.5308142083581
  0
LINE
  5
38
100
AcDbEntity
  8
0
  6
CONTINUOUS
 62
             7
100
AcDbLine
 10
-126.8953616672577
 20
15.49999999999999
 11
-127.29972735277509
 21
15.16069690242162
  0
LINE
  5
37
100
AcDbEntity
  8
0
  6
CONTINUOUS
 62
             7
100
AcDbLine
 10
-123.3413685256576
 20
15.49999999999999
 11
-126.8953616672577
 21
15.49999999999999
  0
LINE
  5
36
100
AcDbEntity
  8
0
  6
CONTINUOUS
 62
             7
100
AcDbLine
 10
-125.1046383327423
 20
5.49999999999999
 11
-124.70027264722491
 21
5.83930309757837
  0
LINE
  5
35
100
AcDbEntity
  8
0
  6
CONTINUOUS
 62
             7
100
AcDbLine
 10
-128.6586314743424
 20
5.49999999999999
 11
-125.1046383327423
 21
5.49999999999999
  0
LINE
  5
34
100
AcDbEntity
  8
0
  6
CONTINUOUS
 62
             7
100
AcDbLine
 10
-123.9128847401481
 20
6.49999999999999
 11
-124.31725042566541
 21
6.16069690242162
  0
LINE
  5
33
100
AcDbEntity
  8
0
  6
CONTINUOUS
 62
             7
100
AcDbLine
 10
-123.2957403076684
 20
9.99999999999999
 11
-123.9128847401481
 21
6.49999999999999
  0
LINE
  5
32
100
AcDbEntity
  8
0
  6
CONTINUOUS
 62
             7
100
AcDbLine
 10
-123.11941332696
 20
10.99999999999999
 11
-123.52377901247731
 21
10.66069690242162
  0
LINE
  5
31
100
AcDbEntity
  8
0
  6
CONTINUOUS
 62
             7
100
AcDbLine
 10
-122.50226889448039
 20
14.49999999999999
 11
-123.11941332696
 21
10.99999999999999
  0
LINE
  5
30
100
AcDbEntity
  8
0
  6
CONTINUOUS
 62
             7
100
AcDbLine
 10
-129.4977311055197
 20
6.49999999999999
 11
-129.2388781923527
 21
6.19151111077974
  0
LINE
  5
2F
100
AcDbEntity
  8
0
  6
CONTINUOUS
 62
             7
100
AcDbLine
 10
-128.88058667304
 20
9.99999999999999
 11
-129.4977311055197
 21
6.49999999999999
  0
LINE
  5
2E
100
AcDbEntity
  8
0
  6
CONTINUOUS
 62
             7
100
AcDbLine
 10
-128.08711525985191
 20
14.49999999999999
 11
-127.68274957433459
 21
14.83930309757837
  0
LINE
  5
2D
100
AcDbEntity
  8
1
  6
CONTINUOUS
 62
             7
100
AcDbLine
 10
-61.5
 20
-22.0
 11
-61.5
 21
21.99999999999999
  0
LINE
  5
2C
100
AcDbEntity
  8
1
  6
CONTINUOUS
 62
             7
100
AcDbLine
 10
-150.5
 20
22.0
 11
-150.5
 21
-22.00000000000001
  0
LINE
  5
2B
100
AcDbEntity
  8
1
  6
CONTINUOUS
 62
             7
100
AcDbLine
 10
-61.5
 20
21.99999999999999
 11
-150.5
 21
22.0
  0
LINE
  5
2A
100
AcDbEntity
  8
1
  6
CONTINUOUS
 62
             7
100
AcDbLine
 10
-150.5
 20
-22.00000000000001
 11
-61.5
 21
-22.0
  0
LINE
  5
29
100
AcDbEntity
  8
1
  6
CONTINUOUS
 62
             7
100
AcDbLine
 10
-154.0
 20
-23.0
 11
-154.0
 21
23.0
  0
LINE
  5
28
100
AcDbEntity
  8
1
  6
CONTINUOUS
 62
             7
100
AcDbLine
 10
-58.0
 20
-23.0
 11
-58.0
 21
23.0
  0
ENDSEC
  0
SECTION
  2
OBJECTS
  0
DICTIONARY
  5
19
100
AcDbDictionary
  3
ACAD_GROUP
350
1A
  3
ACAD_MLINESTYLE
350
1B
  0
DICTIONARY
  5
1A
102
{ACAD_REACTORS
330
19
102
}
100
AcDbDictionary
  0
DICTIONARY
  5
1B
102
{ACAD_REACTORS
330
19
102
}
100
AcDbDictionary
  3
STANDARD
350
1C
  0
MLINESTYLE
  5
1C
102
{ACAD_REACTORS
330
1B
102
}
100
AcDbMlineStyle
  2
STANDARD
 70
             0
  3

 62
             0
 51
90.0
 52
90.0
 71
             2
 49
0.5
 62
           256
  6
BYLAYER
 49
-0.5
 62
           256
  6
BYLAYER
  0
ENDSEC
  0
EOF
