  0
SECTION
  2
HEADER
  9
$ACADVER
  1
AC1014
  9
$ACADMAINTVER
 70
             0
  9
$DWGCODEPAGE
  3
ANSI_1252
  9
$INSBASE
 10
0.0
 20
0.0
 30
0.0
  9
$EXTMIN
 10
1.00000000000000E+20
 20
1.00000000000000E+20
 30
1.00000000000000E+20
  9
$EXTMAX
 10
-1.00000000000000E+20
 20
-1.00000000000000E+20
 30
-1.00000000000000E+20
  9
$LIMMIN
 10
0.0
 20
0.0
  9
$LIMMAX
 10
0.0
 20
0.0
  9
$ORTHOMODE
 70
             0
  9
$REGENMODE
 70
             1
  9
$FILLMODE
 70
             1
  9
$QTEXTMODE
 70
             0
  9
$MIRRTEXT
 70
             1
  9
$DRAGMODE
 70
             2
  9
$LTSCALE
 40
1.0
  9
$OSMODE
 70
             0
  9
$ATTMODE
 70
             1
  9
$TEXTSIZE
 40
0.2
  9
$TRACEWID
 40
0.05
  9
$TEXTSTYLE
  7
STANDARD
  9
$CLAYER
  8
0
  9
$CELTYPE
  6
CONTINUOUS
  9
$CECOLOR
 62
           256
  9
$CELTSCALE
 40
1.0
  9
$DELOBJ
 70
             1
  9
$DISPSILH
 70
             0
  9
$DIMSCALE
 40
1.0
  9
$DIMASZ
 40
0.18
  9
$DIMEXO
 40
0.0625
  9
$DIMDLI
 40
0.38
  9
$DIMRND
 40
0.0
  9
$DIMDLE
 40
0.0
  9
$DIMEXE
 40
0.18
  9
$DIMTP
 40
0.0
  9
$DIMTM
 40
0.0
  9
$DIMTXT
 40
0.18
  9
$DIMCEN
 40
0.09
  9
$DIMTSZ
 40
0.0
  9
$DIMTOL
 70
             0
  9
$DIMLIM
 70
             0
  9
$DIMTIH
 70
             1
  9
$DIMTOH
 70
             1
  9
$DIMSE1
 70
             0
  9
$DIMSE2
 70
             0
  9
$DIMTAD
 70
             0
  9
$DIMZIN
 70
             0
  9
$DIMBLK
  1

  9
$DIMASO
 70
             1
  9
$DIMSHO
 70
             1
  9
$DIMPOST
  1

  9
$DIMAPOST
  1

  9
$DIMALT
 70
             0
  9
$DIMALTD
 70
             2
  9
$DIMALTF
 40
25.4
  9
$DIMLFAC
 40
1.0
  9
$DIMTOFL
 70
             0
  9
$DIMTVP
 40
0.0
  9
$DIMTIX
 70
             0
  9
$DIMSOXD
 70
             0
  9
$DIMSAH
 70
             0
  9
$DIMBLK1
  1

  9
$DIMBLK2
  1

  9
$DIMSTYLE
  2
STANDARD
  9
$DIMCLRD
 70
             0
  9
$DIMCLRE
 70
             0
  9
$DIMCLRT
 70
             0
  9
$DIMTFAC
 40
1.0
  9
$DIMGAP
 40
0.09
  9
$DIMJUST
 70
             0
  9
$DIMSD1
 70
             0
  9
$DIMSD2
 70
             0
  9
$DIMTOLJ
 70
             1
  9
$DIMTZIN
 70
             0
  9
$DIMALTZ
 70
             0
  9
$DIMALTTZ
 70
             0
  9
$DIMFIT
 70
             3
  9
$DIMUPT
 70
             0
  9
$DIMUNIT
 70
             2
  9
$DIMDEC
 70
             4
  9
$DIMTDEC
 70
             4
  9
$DIMALTU
 70
             2
  9
$DIMALTTD
 70
             2
  9
$DIMTXSTY
  7
STANDARD
  9
$DIMAUNIT
 70
             0
  9
$LUNITS
 70
             2
  9
$LUPREC
 70
             4
  9
$SKETCHINC
 40
0.1
  9
$FILLETRAD
 40
0.0
  9
$AUNITS
 70
             0
  9
$AUPREC
 70
             0
  9
$MENU
  1
acad
  9
$ELEVATION
 40
0.0
  9
$PELEVATION
 40
0.0
  9
$THICKNESS
 40
0.0
  9
$LIMCHECK
 70
             0
  9
$BLIPMODE
 70
             1
  9
$CHAMFERA
 40
0.0
  9
$CHAMFERB
 40
0.0
  9
$CHAMFERC
 40
0.0
  9
$CHAMFERD
 40
0.0
  9
$SKPOLY
 70
             0
  9
$TDCREATE
 40
0.000000000
  9
$TDUPDATE
 40
0.000000000
  9
$TDINDWG
 40
0.0000000000
  9
$TDUSRTIMER
 40
0.0000000000
  9
$USRTIMER
 70
             1
  9
$ANGBASE
 50
0.0
  9
$ANGDIR
 70
             0
  9
$PDMODE
 70
             0
  9
$PDSIZE
 40
0.0
  9
$PLINEWID
 40
0.0
  9
$COORDS
 70
             0
  9
$SPLFRAME
 70
             0
  9
$SPLINETYPE
 70
             6
  9
$SPLINESEGS
 70
             8
  9
$ATTDIA
 70
             0
  9
$ATTREQ
 70
             1
  9
$HANDLING
 70
             1
  9
$HANDSEED
  5
5DF
  9
$SURFTAB1
 70
             6
  9
$SURFTAB2
 70
             6
  9
$SURFTYPE
 70
             6
  9
$SURFU
 70
             6
  9
$SURFV
 70
             6
  9
$UCSNAME
  2

  9
$UCSORG
 10
0.0
 20
0.0
 30
0.0
  9
$UCSXDIR
 10
1.0
 20
0.0
 30
0.0
  9
$UCSYDIR
 10
0.0
 20
1.0
 30
0.0
  9
$PUCSNAME
  2

  9
$PUCSORG
 10
0.0
 20
0.0
 30
0.0
  9
$PUCSXDIR
 10
1.0
 20
0.0
 30
0.0
  9
$PUCSYDIR
 10
0.0
 20
1.0
 30
0.0
  9
$USERI1
 70
             0
  9
$USERI2
 70
             0
  9
$USERI3
 70
             0
  9
$USERI4
 70
             0
  9
$USERI5
 70
             0
  9
$USERR1
 40
11.6
  9
$USERR2
 40
0.0
  9
$USERR3
 40
0.0
  9
$USERR4
 40
0.0
  9
$USERR5
 40
0.0
  9
$WORLDVIEW
 70
             1
  9
$SHADEDGE
 70
             3
  9
$SHADEDIF
 70
            70
  9
$TILEMODE
 70
             1
  9
$MAXACTVP
 70
            16
  9
$PINSBASE
 10
0.0
 20
0.0
 30
0.0
  9
$PLIMCHECK
 70
             0
  9
$PEXTMIN
 10
1.00000000000000E+20
 20
1.00000000000000E+20
 30
1.00000000000000E+20
  9
$PEXTMAX
 10
-1.00000000000000E+20
 20
-1.00000000000000E+20
 30
-1.00000000000000E+20
  9
$PLIMMIN
 10
0.0
 20
0.0
  9
$PLIMMAX
 10
12.0
 20
9.0
  9
$UNITMODE
 70
             0
  9
$VISRETAIN
 70
             0
  9
$PLINEGEN
 70
             1
  9
$PSLTSCALE
 70
             0
  9
$TREEDEPTH
 70
          3020
  9
$PICKSTYLE
 70
             1
  9
$CMLSTYLE
  2
STANDARD
  9
$CMLJUST
 70
             0
  9
$CMLSCALE
 40
1.0
  9
$PROXYGRAPHICS
 70
             0
  9
$MEASUREMENT
 70
             1
  0
ENDSEC
  0
SECTION
  2
CLASSES
  0
CLASS
  1
LWPOLYLINE
  2
AcDbPolyline
  3
"AutoCAD"
 90
        0
280
             0
281
             1
  0
CLASS
  1
IMAGE
  2
AcDbRasterImage
  3
ISM
 90
      127
280
             0
281
             1
  0
CLASS
  1
OLE2FRAME
  2
AcDbOle2Frame
  3
""
 90
        0
280
             0
281
             1
  0
CLASS
  1
HATCH
  2
AcDbHatch
  3
"ACAD_SEDONA"
 90
        0
280
             0
281
             1
  0
CLASS
  1
DICTIONARYVAR
  2
AcDbDictionaryVar
  3
"AutoCAD"
 90
        0
280
             0
281
             0
  0
CLASS
  1
RASTERVARIABLES
  2
AcDbRasterVariables
  3
ISM
 90
        0
280
             0
281
             0
  0
CLASS
  1
IMAGEDEF
  2
AcDbRasterImageDef
  3
ISM
 90
        0
280
             0
281
             0
  0
CLASS
  1
IMAGEDEF_REACTOR
  2
AcDbRasterImageDefReactor
  3
ISM
 90
        1
280
             0
281
             0
  0
CLASS
  1
IDBUFFER
  2
AcDbIdBuffer
  3
"Acad"
 90
        0
280
             0
281
             0
  0
CLASS
  1
SPATIAL_FILTER
  2
AcDbSpatialFilter
  3
"Acad"
 90
        0
280
             0
281
             0
  0
CLASS
  1
XRECORD
  2
AcDbXrecord
  3
"<Built In>"
 90
        0
280
             0
281
             0
  0
CLASS
  1
SORTENTSTABLE
  2
AcDbSortentsTable
  3
"AutoCAD"
 90
        0
280
             0
281
             0
  0
CLASS
  1
LAYER_INDEX
  2
AcDbLayerIndex
  3
"Acad"
 90
        0
280
             0
281
             0
  0
CLASS
  1
SPATIAL_INDEX
  2
AcDbSpatialIndex
  3
"Acad"
 90
        0
280
             0
281
             0
  0
CLASS
  1
OBJECT_PTR
  2
CAseDLPNTableRecord
  3
"ASE-LPNTableRecord"
 90
        1
280
             0
281
             0
  0
CLASS
  1
LAYOUT
  2
AcDbLayout
  3
"AutoCAD 2000"
 90
        1
280
             0
281
             0
  0
CLASS
  1
PLOTSETTINGS
  2
AcDbPlotSettings
  3
"AutoCAD 2000"
 90
        1
280
             0
281
             0
  0
CLASS
  1
ACDBDICTIONARYWDFLT
  2
AcDbDictionaryWithDefault
  3
"AutoCAD 2000"
 90
        1
280
             0
281
             0
  0
CLASS
  1
ACDBPLACEHOLDER
  2
AcDbPlaceHolder
  3
"AutoCAD 2000"
 90
        1
280
             0
281
             0
  0
ENDSEC
  0
SECTION
  2
TABLES
  0
TABLE
  2
VPORT
  5
7
100
AcDbSymbolTable
 70
             1
  0
VPORT
  5
15
100
AcDbSymbolTableRecord
100
AcDbViewportTableRecord
  2
*ACTIVE
 70
             0
 10
0.0
 20
0.0
 11
1.0
 21
1.0
 12
62.50000000000006
 22
0.00000000000001
 13
0.0
 23
0.0
 14
1.0
 24
1.0
 15
0.0
 25
0.0
 16
0.0
 26
0.0
 36
1.0
 17
0.0
 27
0.0
 37
0.0
 40
151.68356545961018
 41
1.60267857142857
 42
50.0
 43
0.0
 44
0.0
 50
0.0
 51
0.0
 71
             0
 72
           100
 73
             1
 74
             1
 75
             0
 76
             0
 77
             0
 78
             0
  0
ENDTAB
  0
TABLE
  2
LTYPE
  5
4
100
AcDbSymbolTable
 70
            10
  0
LTYPE
  5
11
100
AcDbSymbolTableRecord
100
AcDbLinetypeTableRecord
  2
BYBLOCK
 70
            64
  3

 72
            65
 73
             0
 40
0.0
  0
LTYPE
  5
12
100
AcDbSymbolTableRecord
100
AcDbLinetypeTableRecord
  2
BYLAYER
 70
            64
  3

 72
            65
 73
             0
 40
0.0
  0
LTYPE
  5
13
100
AcDbSymbolTableRecord
100
AcDbLinetypeTableRecord
  2
CONTINUOUS
 70
            64
  3
Solid line
 72
            65
 73
             0
 40
0.0
  0
LTYPE
  5
1D
100
AcDbSymbolTableRecord
100
AcDbLinetypeTableRecord
  2
DASHED
 70
            64
  3
Dashed
 72
            65
 73
             2
 40
15.0
 49
12.0
 74
             0
 49
-3.0
 74
             0
  0
LTYPE
  5
1E
100
AcDbSymbolTableRecord
100
AcDbLinetypeTableRecord
  2
DOTTED
 70
            64
  3
Dotted
 72
            65
 73
             2
 40
3.5
 49
0.5
 74
             0
 49
-3.0
 74
             0
  0
LTYPE
  5
1F
100
AcDbSymbolTableRecord
100
AcDbLinetypeTableRecord
  2
DOT_CENTER
 70
            64
  3
Dot_Center
 72
            65
 73
             4
 40
2.0
 49
1.25
 74
             0
 49
-0.25
 74
             0
 49
0.25
 74
             0
 49
-0.25
 74
             0
  0
LTYPE
  5
20
100
AcDbSymbolTableRecord
100
AcDbLinetypeTableRecord
  2
LONG_DASHED
 70
            64
  3
Long_Dashed
 72
            65
 73
             2
 40
2.0
 49
1.5
 74
             0
 49
-0.5
 74
             0
  0
LTYPE
  5
21
100
AcDbSymbolTableRecord
100
AcDbLinetypeTableRecord
  2
DASH_CENTER
 70
            64
  3
Dash_Center
 72
            65
 73
             4
 40
36.0
 49
24.0
 74
             0
 49
-3.0
 74
             0
 49
6.0
 74
             0
 49
-3.0
 74
             0
  0
LTYPE
  5
22
100
AcDbSymbolTableRecord
100
AcDbLinetypeTableRecord
  2
PHANTOM
 70
            64
  3
Phantom
 72
            65
 73
             6
 40
2.5
 49
1.25
 74
             0
 49
-0.25
 74
             0
 49
0.25
 74
             0
 49
-0.25
 74
             0
 49
0.25
 74
             0
 49
-0.25
 74
             0
  0
LTYPE
  5
23
100
AcDbSymbolTableRecord
100
AcDbLinetypeTableRecord
  2
CENTER_DASH_DASH
 70
            64
  3
Center_Dash_Dash
 72
            65
 73
             6
 40
22.0
 49
12.0
 74
             0
 49
-3.0
 74
             0
 49
0.5
 74
             0
 49
-3.0
 74
             0
 49
0.5
 74
             0
 49
-3.0
 74
             0
  0
ENDTAB
  0
TABLE
  2
LAYER
  5
2
100
AcDbSymbolTable
 70
             2
  0
LAYER
  5
14
100
AcDbSymbolTableRecord
100
AcDbLayerTableRecord
  2
0
 70
             0
 62
             7
  6
CONTINUOUS
  0
LAYER
  5
24
100
AcDbSymbolTableRecord
100
AcDbLayerTableRecord
  2
1
 70
             0
 62
             7
  6
CONTINUOUS
  0
ENDTAB
  0
TABLE
  2
STYLE
  5
3
100
AcDbSymbolTable
 70
             1
  0
STYLE
  5
17
100
AcDbSymbolTableRecord
100
AcDbTextStyleTableRecord
  2
STANDARD
 70
             0
 40
0.0
 41
1.0
 50
0.0
 71
             0
 42
0.0
  3
txt
  4

  0
ENDTAB
  0
TABLE
  2
VIEW
  5
5
100
AcDbSymbolTable
 70
             0
  0
ENDTAB
  0
TABLE
  2
UCS
  5
6
100
AcDbSymbolTable
 70
             0
  0
ENDTAB
  0
TABLE
  2
APPID
  5
8
100
AcDbSymbolTable
 70
             1
  0
APPID
  5
16
100
AcDbSymbolTableRecord
100
AcDbRegAppTableRecord
  2
ACAD
 70
             0
  0
ENDTAB
  0
TABLE
  2
DIMSTYLE
  5
9
100
AcDbSymbolTable
 70
             1
  0
DIMSTYLE
105
18
100
AcDbSymbolTableRecord
100
AcDbDimStyleTableRecord
  2
STANDARD
 70
             0
  3

  4

  5

  6

  7

 40
1.0
 41
0.18
 42
0.0625
 43
0.38
 44
0.18
 45
0.0
 46
0.0
 47
0.0
 48
0.0
 71
             0
 72
             0
 73
             1
 74
             1
 75
             0
 76
             0
 77
             0
 78
             0
140
0.18
141
0.09
142
0.0
143
25.4
144
1.0
145
0.0
146
1.0
147
0.09
170
             0
171
             2
172
             0
173
             0
174
             0
175
             0
176
             0
177
             0
178
             0
270
             2
271
             4
272
             4
273
             2
274
             2
275
             0
280
             0
281
             0
282
             0
283
             1
284
             0
285
             0
286
             0
287
             0
288
             0
340
17
  0
ENDTAB
  0
TABLE
  2
BLOCK_RECORD
  5
1
100
AcDbSymbolTable
 70
             0
  0
BLOCK_RECORD
  5
A
100
AcDbSymbolTableRecord
100
AcDbBlockTableRecord
  2
*MODEL_SPACE
  0
BLOCK_RECORD
  5
B
100
AcDbSymbolTableRecord
100
AcDbBlockTableRecord
  2
*PAPER_SPACE
  0
ENDTAB
  0
ENDSEC
  0
SECTION
  2
BLOCKS
  0
BLOCK
  5
D
100
AcDbEntity
  8
0
100
AcDbBlockBegin
  2
*MODEL_SPACE
 70
             0
 10
0.0
 20
0.0
 30
0.0
  3
*MODEL_SPACE
  1

  0
ENDBLK
  5
E
100
AcDbEntity
  8
0
100
AcDbBlockEnd
  0
BLOCK
  5
F
100
AcDbEntity
 67
             1
  8
0
100
AcDbBlockBegin
  2
*PAPER_SPACE
 70
             0
 10
0.0
 20
0.0
 30
0.0
  3
*PAPER_SPACE
  1

  0
ENDBLK
  5
10
100
AcDbEntity
 67
             1
  8
0
100
AcDbBlockEnd
  0
ENDSEC
  0
SECTION
  2
ENTITIES
  0
ARC
  5
5DD
100
AcDbEntity
  8
1
  6
CONTINUOUS
 62
             7
100
AcDbCircle
 10
-37.0
 20
37.50000000000001
 40
0.99999999999999
100
AcDbArc
 50
90.0
 51
-179.9999999999996
  0
ARC
  5
5DC
100
AcDbEntity
  8
1
  6
CONTINUOUS
 62
             7
100
AcDbCircle
 10
37.0
 20
37.50000000000001
 40
1.0
100
AcDbArc
 50
-0.00000000000041
 51
90.0
  0
ARC
  5
5DB
100
AcDbEntity
  8
1
  6
CONTINUOUS
 62
             7
100
AcDbCircle
 10
37.0
 20
-14.0
 40
1.0
100
AcDbArc
 50
-90.0
 51
0.0
  0
ARC
  5
5DA
100
AcDbEntity
  8
1
  6
CONTINUOUS
 62
             7
100
AcDbCircle
 10
-37.0
 20
-14.0
 40
1.0
100
AcDbArc
 50
180.0
 51
-90.0
  0
ARC
  5
5D9
100
AcDbEntity
  8
1
  6
CONTINUOUS
 62
             7
100
AcDbCircle
 10
39.0
 20
-16.99999999999989
 40
2.0
100
AcDbArc
 50
-90.0
 51
0.0
  0
ARC
  5
5D8
100
AcDbEntity
  8
1
  6
CONTINUOUS
 62
             7
100
AcDbCircle
 10
-39.0
 20
-16.99999999999989
 40
2.0
100
AcDbArc
 50
180.0
 51
-90.0
  0
ARC
  5
5D7
100
AcDbEntity
  8
1
  6
CONTINUOUS
 62
             7
100
AcDbCircle
 10
-41.0
 20
-37.99999999999994
 40
2.0
100
AcDbArc
 50
180.0
 51
-90.0
  0
ARC
  5
5D6
100
AcDbEntity
  8
1
  6
CONTINUOUS
 62
             7
100
AcDbCircle
 10
-39.0
 20
38.5
 40
2.0
100
AcDbArc
 50
90.0
 51
180.0
  0
ARC
  5
5D5
100
AcDbEntity
  8
1
  6
CONTINUOUS
 62
             7
100
AcDbCircle
 10
-41.0
 20
40.5
 40
2.0
100
AcDbArc
 50
89.9999999999998
 51
-179.9999999999998
  0
ARC
  5
5D4
100
AcDbEntity
  8
1
  6
CONTINUOUS
 62
             7
100
AcDbCircle
 10
39.0
 20
38.5
 40
2.0
100
AcDbArc
 50
-0.0000000000002
 51
90.0
  0
ARC
  5
5D3
100
AcDbEntity
  8
1
  6
CONTINUOUS
 62
             7
100
AcDbCircle
 10
41.0
 20
40.5
 40
2.0
100
AcDbArc
 50
-0.0000000000002
 51
90.0
  0
ARC
  5
5D2
100
AcDbEntity
  8
1
  6
CONTINUOUS
 62
             7
100
AcDbCircle
 10
41.0
 20
-37.99999999999994
 40
2.0
100
AcDbArc
 50
-90.0
 51
0.0
  0
ARC
  5
5D1
100
AcDbEntity
  8
0
  6
CONTINUOUS
 62
             7
100
AcDbCircle
 10
166.32205450853181
 20
38.68860009363267
 40
0.19999999999997
100
AcDbArc
 50
-69.44395478040843
 51
0.0
  0
ARC
  5
5D0
100
AcDbEntity
  8
0
  6
CONTINUOUS
 62
             7
100
AcDbCircle
 10
166.32205450853181
 20
36.91139990636682
 40
0.1999999999999
100
AcDbArc
 50
0.0
 51
69.44395478041201
  0
ARC
  5
5CF
100
AcDbEntity
  8
0
  6
CONTINUOUS
 62
             7
100
AcDbCircle
 10
167.32205450853181
 20
38.68860009363267
 40
0.19999999999997
100
AcDbArc
 50
-69.44395478040843
 51
0.0
  0
ARC
  5
5CE
100
AcDbEntity
  8
0
  6
CONTINUOUS
 62
             7
100
AcDbCircle
 10
167.32205450853181
 20
36.91139990636682
 40
0.1999999999999
100
AcDbArc
 50
0.0
 51
69.44395478041201
  0
ARC
  5
5CD
100
AcDbEntity
  8
0
  6
CONTINUOUS
 62
             7
100
AcDbCircle
 10
166.32205450853181
 20
30.28860009363271
 40
0.2
100
AcDbArc
 50
-69.44395478041129
 51
0.0
  0
ARC
  5
5CC
100
AcDbEntity
  8
0
  6
CONTINUOUS
 62
             7
100
AcDbCircle
 10
166.32205450853181
 20
28.51139990636684
 40
0.1999999999999
100
AcDbArc
 50
0.0
 51
69.44395478041345
  0
ARC
  5
5CB
100
AcDbEntity
  8
0
  6
CONTINUOUS
 62
             7
100
AcDbCircle
 10
167.32205450853181
 20
30.28860009363271
 40
0.2
100
AcDbArc
 50
-69.44395478041129
 51
0.0
  0
ARC
  5
5CA
100
AcDbEntity
  8
0
  6
CONTINUOUS
 62
             7
100
AcDbCircle
 10
167.32205450853181
 20
28.51139990636684
 40
0.1999999999999
100
AcDbArc
 50
0.0
 51
69.44395478041345
  0
ARC
  5
5C9
100
AcDbEntity
  8
0
  6
CONTINUOUS
 62
             7
100
AcDbCircle
 10
166.32205450853181
 20
21.8886000936327
 40
0.19999999999997
100
AcDbArc
 50
-69.44395478040843
 51
0.0
  0
ARC
  5
5C8
100
AcDbEntity
  8
0
  6
CONTINUOUS
 62
             7
100
AcDbCircle
 10
166.32205450853181
 20
20.11139990636687
 40
0.1999999999999
100
AcDbArc
 50
0.0
 51
69.44395478041129
  0
ARC
  5
5C7
100
AcDbEntity
  8
0
  6
CONTINUOUS
 62
             7
100
AcDbCircle
 10
167.32205450853181
 20
21.8886000936327
 40
0.19999999999997
100
AcDbArc
 50
-69.44395478040843
 51
0.0
  0
ARC
  5
5C6
100
AcDbEntity
  8
0
  6
CONTINUOUS
 62
             7
100
AcDbCircle
 10
167.32205450853181
 20
20.11139990636687
 40
0.1999999999999
100
AcDbArc
 50
0.0
 51
69.44395478041129
  0
ARC
  5
5C5
100
AcDbEntity
  8
0
  6
CONTINUOUS
 62
             7
100
AcDbCircle
 10
166.32205450853181
 20
13.48860009363273
 40
0.19999999999998
100
AcDbArc
 50
-69.44395478040934
 51
0.0
  0
ARC
  5
5C4
100
AcDbEntity
  8
0
  6
CONTINUOUS
 62
             7
100
AcDbCircle
 10
166.32205450853181
 20
11.71139990636687
 40
0.1999999999999
100
AcDbArc
 50
0.0
 51
69.44395478041254
  0
ARC
  5
5C3
100
AcDbEntity
  8
0
  6
CONTINUOUS
 62
             7
100
AcDbCircle
 10
167.32205450853181
 20
13.48860009363273
 40
0.19999999999998
100
AcDbArc
 50
-69.44395478040934
 51
0.0
  0
ARC
  5
5C2
100
AcDbEntity
  8
0
  6
CONTINUOUS
 62
             7
100
AcDbCircle
 10
167.32205450853181
 20
11.71139990636687
 40
0.1999999999999
100
AcDbArc
 50
0.0
 51
69.44395478041254
  0
ARC
  5
5C1
100
AcDbEntity
  8
0
  6
CONTINUOUS
 62
             7
100
AcDbCircle
 10
166.32205450853181
 20
5.08860009363276
 40
0.19999999999998
100
AcDbArc
 50
-69.44395478040987
 51
0.0
  0
ARC
  5
5C0
100
AcDbEntity
  8
0
  6
CONTINUOUS
 62
             7
100
AcDbCircle
 10
166.32205450853181
 20
3.31139990636689
 40
0.1999999999999
100
AcDbArc
 50
0.0
 51
69.44395478041274
  0
ARC
  5
5BF
100
AcDbEntity
  8
0
  6
CONTINUOUS
 62
             7
100
AcDbCircle
 10
167.32205450853181
 20
5.08860009363276
 40
0.19999999999998
100
AcDbArc
 50
-69.44395478040987
 51
0.0
  0
ARC
  5
5BE
100
AcDbEntity
  8
0
  6
CONTINUOUS
 62
             7
100
AcDbCircle
 10
167.32205450853181
 20
3.31139990636689
 40
0.1999999999999
100
AcDbArc
 50
0.0
 51
69.44395478041274
  0
ARC
  5
5BD
100
AcDbEntity
  8
0
  6
CONTINUOUS
 62
             7
100
AcDbCircle
 10
166.32205450853181
 20
-3.31139990636723
 40
0.19999999999998
100
AcDbArc
 50
-69.4439547804091
 51
0.0
  0
ARC
  5
5BC
100
AcDbEntity
  8
0
  6
CONTINUOUS
 62
             7
100
AcDbCircle
 10
166.32205450853181
 20
-5.08860009363308
 40
0.1999999999999
100
AcDbArc
 50
0.0
 51
69.44395478041201
  0
ARC
  5
5BB
100
AcDbEntity
  8
0
  6
CONTINUOUS
 62
             7
100
AcDbCircle
 10
167.32205450853181
 20
-3.31139990636723
 40
0.19999999999998
100
AcDbArc
 50
-69.4439547804091
 51
0.0
  0
ARC
  5
5BA
100
AcDbEntity
  8
0
  6
CONTINUOUS
 62
             7
100
AcDbCircle
 10
167.32205450853181
 20
-5.08860009363308
 40
0.1999999999999
100
AcDbArc
 50
0.0
 51
69.44395478041201
  0
ARC
  5
5B9
100
AcDbEntity
  8
0
  6
CONTINUOUS
 62
             7
100
AcDbCircle
 10
166.32205450853181
 20
-11.71139990636719
 40
0.19999999999999
100
AcDbArc
 50
-69.44395478041041
 51
0.0
  0
ARC
  5
5B8
100
AcDbEntity
  8
0
  6
CONTINUOUS
 62
             7
100
AcDbCircle
 10
166.32205450853181
 20
-13.48860009363307
 40
0.1999999999999
100
AcDbArc
 50
0.0
 51
69.44395478041433
  0
ARC
  5
5B7
100
AcDbEntity
  8
0
  6
CONTINUOUS
 62
             7
100
AcDbCircle
 10
167.32205450853181
 20
-11.71139990636719
 40
0.19999999999999
100
AcDbArc
 50
-69.44395478041041
 51
0.0
  0
ARC
  5
5B6
100
AcDbEntity
  8
0
  6
CONTINUOUS
 62
             7
100
AcDbCircle
 10
167.32205450853181
 20
-13.48860009363307
 40
0.1999999999999
100
AcDbArc
 50
0.0
 51
69.44395478041433
  0
ARC
  5
5B5
100
AcDbEntity
  8
0
  6
CONTINUOUS
 62
             7
100
AcDbCircle
 10
166.32205450853181
 20
-20.11139990636717
 40
0.2
100
AcDbArc
 50
-69.44395478041164
 51
0.0
  0
ARC
  5
5B4
100
AcDbEntity
  8
0
  6
CONTINUOUS
 62
             7
100
AcDbCircle
 10
166.32205450853181
 20
-21.88860009363302
 40
0.1999999999999
100
AcDbArc
 50
0.0
 51
69.44395478041129
  0
ARC
  5
5B3
100
AcDbEntity
  8
0
  6
CONTINUOUS
 62
             7
100
AcDbCircle
 10
167.32205450853181
 20
-20.11139990636717
 40
0.2
100
AcDbArc
 50
-69.44395478041164
 51
0.0
  0
ARC
  5
5B2
100
AcDbEntity
  8
0
  6
CONTINUOUS
 62
             7
100
AcDbCircle
 10
167.32205450853181
 20
-21.88860009363302
 40
0.1999999999999
100
AcDbArc
 50
0.0
 51
69.44395478041129
  0
ARC
  5
5B1
100
AcDbEntity
  8
0
  6
CONTINUOUS
 62
             7
100
AcDbCircle
 10
166.32205450853181
 20
-28.51139990636713
 40
0.20000000000002
100
AcDbArc
 50
-69.44395478041416
 51
0.0
  0
ARC
  5
5B0
100
AcDbEntity
  8
0
  6
CONTINUOUS
 62
             7
100
AcDbCircle
 10
166.32205450853181
 20
-30.28860009363301
 40
0.1999999999999
100
AcDbArc
 50
0.0
 51
69.44395478041452
  0
ARC
  5
5AF
100
AcDbEntity
  8
0
  6
CONTINUOUS
 62
             7
100
AcDbCircle
 10
167.32205450853181
 20
-28.51139990636713
 40
0.20000000000002
100
AcDbArc
 50
-69.44395478041416
 51
0.0
  0
ARC
  5
5AE
100
AcDbEntity
  8
0
  6
CONTINUOUS
 62
             7
100
AcDbCircle
 10
167.32205450853181
 20
-30.28860009363301
 40
0.1999999999999
100
AcDbArc
 50
0.0
 51
69.44395478041452
  0
ARC
  5
5AD
100
AcDbEntity
  8
0
  6
CONTINUOUS
 62
             7
100
AcDbCircle
 10
166.32205450853181
 20
-36.91139990636715
 40
0.19999999999997
100
AcDbArc
 50
-69.44395478040843
 51
0.0
  0
ARC
  5
5AC
100
AcDbEntity
  8
0
  6
CONTINUOUS
 62
             7
100
AcDbCircle
 10
166.32205450853181
 20
-38.68860009363297
 40
0.1999999999999
100
AcDbArc
 50
0.0
 51
69.44395478040843
  0
ARC
  5
5AB
100
AcDbEntity
  8
0
  6
CONTINUOUS
 62
             7
100
AcDbCircle
 10
167.32205450853181
 20
-36.91139990636715
 40
0.19999999999997
100
AcDbArc
 50
-69.44395478040843
 51
0.0
  0
ARC
  5
5AA
100
AcDbEntity
  8
0
  6
CONTINUOUS
 62
             7
100
AcDbCircle
 10
167.32205450853181
 20
-38.68860009363297
 40
0.1999999999999
100
AcDbArc
 50
0.0
 51
69.44395478040843
  0
ARC
  5
5A9
100
AcDbEntity
  8
1
  6
CONTINUOUS
 62
             7
100
AcDbCircle
 10
168.50000000000011
 20
-47.25
 40
1.0
100
AcDbArc
 50
0.0
 51
90.0
  0
ARC
  5
5A8
100
AcDbEntity
  8
1
  6
CONTINUOUS
 62
             7
100
AcDbCircle
 10
168.50000000000011
 20
-50.75
 40
1.0
100
AcDbArc
 50
-90.0
 51
0.0
  0
ARC
  5
5A7
100
AcDbEntity
  8
1
  6
CONTINUOUS
 62
             7
100
AcDbCircle
 10
159.60000000000011
 20
-51.89999999999998
 40
1.2
100
AcDbArc
 50
-90.0
 51
0.0
  0
ARC
  5
5A6
100
AcDbEntity
  8
1
  6
CONTINUOUS
 62
             7
100
AcDbCircle
 10
136.00000000000011
 20
-51.89999999999998
 40
1.20000000000002
100
AcDbArc
 50
180.0
 51
-90.0
  0
ARC
  5
5A5
100
AcDbEntity
  8
1
  6
CONTINUOUS
 62
             7
100
AcDbCircle
 10
168.50000000000011
 20
47.25000000000001
 40
1.0
100
AcDbArc
 50
-90.0
 51
0.0
  0
ARC
  5
5A4
100
AcDbEntity
  8
1
  6
CONTINUOUS
 62
             7
100
AcDbCircle
 10
168.50000000000011
 20
50.75000000000001
 40
1.0
100
AcDbArc
 50
0.0
 51
90.0
  0
ARC
  5
5A3
100
AcDbEntity
  8
1
  6
CONTINUOUS
 62
             7
100
AcDbCircle
 10
159.60000000000011
 20
51.90000000000001
 40
1.19999999999999
100
AcDbArc
 50
0.0
 51
90.0
  0
ARC
  5
5A2
100
AcDbEntity
  8
1
  6
CONTINUOUS
 62
             7
100
AcDbCircle
 10
136.00000000000011
 20
51.90000000000001
 40
1.2
100
AcDbArc
 50
90.0
 51
180.0
  0
CIRCLE
  5
5A1
100
AcDbEntity
  8
1
  6
CONTINUOUS
 62
             7
100
AcDbCircle
 10
155.50000000000011
 20
37.73500000000011
 40
0.24500000000009
  0
CIRCLE
  5
5A0
100
AcDbEntity
  8
1
  6
CONTINUOUS
 62
             7
100
AcDbCircle
 10
-21.19999999999999
 20
13.40000000000001
 40
0.90000000000003
  0
CIRCLE
  5
59F
100
AcDbEntity
  8
1
  6
CONTINUOUS
 62
             7
100
AcDbCircle
 10
-7.69999999999999
 20
13.40000000000001
 40
0.90000000000001
  0
CIRCLE
  5
59E
100
AcDbEntity
  8
1
  6
CONTINUOUS
 62
             7
100
AcDbCircle
 10
5.80000000000001
 20
13.40000000000001
 40
0.90000000000001
  0
CIRCLE
  5
59D
100
AcDbEntity
  8
1
  6
CONTINUOUS
 62
             7
100
AcDbCircle
 10
19.30000000000002
 20
13.40000000000001
 40
0.9
  0
CIRCLE
  5
59C
100
AcDbEntity
  8
1
  6
CONTINUOUS
 62
             7
100
AcDbCircle
 10
-2.0
 20
-1.7999999999999
 40
0.70000000000002
  0
CIRCLE
  5
59B
100
AcDbEntity
  8
1
  6
CONTINUOUS
 62
             7
100
AcDbCircle
 10
7.0
 20
-1.7999999999999
 40
0.70000000000002
  0
CIRCLE
  5
59A
100
AcDbEntity
  8
1
  6
CONTINUOUS
 62
             7
100
AcDbCircle
 10
16.0
 20
-1.7999999999999
 40
0.70000000000002
  0
CIRCLE
  5
599
100
AcDbEntity
  8
1
  6
CONTINUOUS
 62
             7
100
AcDbCircle
 10
25.0
 20
-1.7999999999999
 40
0.70000000000002
  0
ARC
  5
598
100
AcDbEntity
  8
1
  6
CONTINUOUS
 62
             7
100
AcDbCircle
 10
47.00000000000003
 20
47.00000000000001
 40
1.0
100
AcDbArc
 50
0.0
 51
90.0
  0
ARC
  5
597
100
AcDbEntity
  8
1
  6
CONTINUOUS
 62
             7
100
AcDbCircle
 10
-46.99999999999999
 20
47.00000000000001
 40
1.0
100
AcDbArc
 50
90.0
 51
180.0
  0
ARC
  5
596
100
AcDbEntity
  8
1
  6
CONTINUOUS
 62
             7
100
AcDbCircle
 10
-46.99999999999999
 20
-46.99999999999999
 40
1.0
100
AcDbArc
 50
180.0
 51
-90.0
  0
ARC
  5
595
100
AcDbEntity
  8
1
  6
CONTINUOUS
 62
             7
100
AcDbCircle
 10
47.00000000000003
 20
-47.0
 40
1.0
100
AcDbArc
 50
-90.0
 51
0.0
  0
ARC
  5
594
100
AcDbEntity
  8
1
  6
CONTINUOUS
 62
             7
100
AcDbCircle
 10
63.50000000000003
 20
47.19809375960234
 40
0.5
100
AcDbArc
 50
94.00000000000382
 51
180.0
  0
ARC
  5
593
100
AcDbEntity
  8
1
  6
CONTINUOUS
 62
             7
100
AcDbCircle
 10
63.50000000000003
 20
-47.19809375960232
 40
0.5
100
AcDbArc
 50
180.0
 51
-94.00000000000388
  0
ARC
  5
592
100
AcDbEntity
  8
1
  6
CONTINUOUS
 62
             7
100
AcDbCircle
 10
105.0000000000001
 20
-36.99999999999998
 40
1.0
100
AcDbArc
 50
-90.0
 51
90.0
  0
ARC
  5
591
100
AcDbEntity
  8
1
  6
CONTINUOUS
 62
             7
100
AcDbCircle
 10
92.50000000000011
 20
-36.99999999999998
 40
1.0
100
AcDbArc
 50
90.0
 51
-90.0
  0
ARC
  5
590
100
AcDbEntity
  8
1
  6
CONTINUOUS
 62
             7
100
AcDbCircle
 10
124.5000000000001
 20
-40.49999999999998
 40
1.0
100
AcDbArc
 50
-90.0
 51
90.0
  0
ARC
  5
58F
100
AcDbEntity
  8
1
  6
CONTINUOUS
 62
             7
100
AcDbCircle
 10
112.0000000000001
 20
-40.49999999999998
 40
1.0
100
AcDbArc
 50
90.0
 51
-90.0
  0
ARC
  5
58E
100
AcDbEntity
  8
1
  6
CONTINUOUS
 62
             7
100
AcDbCircle
 10
112.0000000000001
 20
-36.99999999999998
 40
1.0
100
AcDbArc
 50
90.0
 51
-90.0
  0
ARC
  5
58D
100
AcDbEntity
  8
1
  6
CONTINUOUS
 62
             7
100
AcDbCircle
 10
124.5000000000001
 20
-36.99999999999998
 40
1.0
100
AcDbArc
 50
-90.0
 51
90.0
  0
ARC
  5
58C
100
AcDbEntity
  8
1
  6
CONTINUOUS
 62
             7
100
AcDbCircle
 10
144.00000000000011
 20
-36.99999999999998
 40
1.0
100
AcDbArc
 50
-90.0
 51
90.0
  0
ARC
  5
58B
100
AcDbEntity
  8
1
  6
CONTINUOUS
 62
             7
100
AcDbCircle
 10
131.50000000000011
 20
-36.99999999999998
 40
1.0
100
AcDbArc
 50
90.0
 51
-90.0
  0
ARC
  5
58A
100
AcDbEntity
  8
1
  6
CONTINUOUS
 62
             7
100
AcDbCircle
 10
92.50000000000011
 20
-40.49999999999998
 40
1.0
100
AcDbArc
 50
90.0
 51
-90.0
  0
ARC
  5
589
100
AcDbEntity
  8
1
  6
CONTINUOUS
 62
             7
100
AcDbCircle
 10
105.0000000000001
 20
-40.49999999999998
 40
1.0
100
AcDbArc
 50
-90.0
 51
90.0
  0
ARC
  5
588
100
AcDbEntity
  8
1
  6
CONTINUOUS
 62
             7
100
AcDbCircle
 10
131.50000000000011
 20
-40.49999999999998
 40
1.0
100
AcDbArc
 50
90.0
 51
-90.0
  0
ARC
  5
587
100
AcDbEntity
  8
1
  6
CONTINUOUS
 62
             7
100
AcDbCircle
 10
144.00000000000011
 20
-40.49999999999998
 40
1.0
100
AcDbArc
 50
-90.0
 51
90.0
  0
ARC
  5
586
100
AcDbEntity
  8
1
  6
CONTINUOUS
 62
             7
100
AcDbCircle
 10
155.50000000000011
 20
38.40000000000002
 40
0.14000000000067
100
AcDbArc
 50
-173.24367296948913
 51
-6.7563270305752
  0
ARC
  5
585
100
AcDbEntity
  8
1
  6
CONTINUOUS
 62
             7
100
AcDbCircle
 10
155.50000000000011
 20
39.5899999999999
 40
0.27999999999963
100
AcDbArc
 50
-6.75632703055262
 51
-173.24367296946929
  0
ARC
  5
584
100
AcDbEntity
  8
1
  6
CONTINUOUS
 62
             7
100
AcDbCircle
 10
157.58626933040969
 20
37.20999999999991
 40
0.2099999999999
100
AcDbArc
 50
-90.0
 51
30.00000000001367
  0
ARC
  5
583
100
AcDbEntity
  8
1
  6
CONTINUOUS
 62
             7
100
AcDbCircle
 10
153.4137306695892
 20
37.20999999999991
 40
0.21000000000034
100
AcDbArc
 50
149.99999999998246
 51
-90.0
  0
ARC
  5
582
100
AcDbEntity
  8
1
  6
CONTINUOUS
 62
             7
100
AcDbCircle
 10
155.50000000000011
 20
40.82352447854372
 40
0.20999999999949
100
AcDbArc
 50
30.00000000011308
 51
149.99999999997223
  0
ARC
  5
581
100
AcDbEntity
  8
1
  6
CONTINUOUS
 62
             7
100
AcDbCircle
 10
40.5
 20
-29.49999999999994
 40
0.5
100
AcDbArc
 50
-90.0
 51
90.0
  0
ARC
  5
580
100
AcDbEntity
  8
1
  6
CONTINUOUS
 62
             7
100
AcDbCircle
 10
-40.5
 20
-29.49999999999994
 40
0.5
100
AcDbArc
 50
90.0
 51
-90.0
  0
ARC
  5
57F
100
AcDbEntity
  8
0
  6
CONTINUOUS
 62
             7
100
AcDbCircle
 10
168.26117465015619
 20
39.54999999999974
 40
1.00000000000002
100
AcDbArc
 50
16.95776330000413
 51
90.0
  0
ARC
  5
57E
100
AcDbEntity
  8
0
  6
CONTINUOUS
 62
             7
100
AcDbCircle
 10
162.52205450853171
 20
37.79999999999974
 40
6.99999999999999
100
AcDbArc
 50
-16.95776330000396
 51
16.95776330000418
  0
ARC
  5
57D
100
AcDbEntity
  8
0
  6
CONTINUOUS
 62
             7
100
AcDbCircle
 10
168.26117465015619
 20
36.04999999999974
 40
1.0
100
AcDbArc
 50
-90.0
 51
-16.95776330000258
  0
ARC
  5
57C
100
AcDbEntity
  8
0
  6
CONTINUOUS
 62
             7
100
AcDbCircle
 10
168.26117465015619
 20
31.14999999999978
 40
1.00000000000001
100
AcDbArc
 50
16.95776330000258
 51
90.0
  0
ARC
  5
57B
100
AcDbEntity
  8
0
  6
CONTINUOUS
 62
             7
100
AcDbCircle
 10
162.52205450853171
 20
29.39999999999978
 40
7.0
100
AcDbArc
 50
-16.95776330000407
 51
16.95776330000396
  0
ARC
  5
57A
100
AcDbEntity
  8
0
  6
CONTINUOUS
 62
             7
100
AcDbCircle
 10
168.26117465015619
 20
27.64999999999978
 40
1.0
100
AcDbArc
 50
-90.0
 51
-16.95776330000335
  0
ARC
  5
579
100
AcDbEntity
  8
0
  6
CONTINUOUS
 62
             7
100
AcDbCircle
 10
168.26117465015619
 20
22.74999999999978
 40
1.00000000000002
100
AcDbArc
 50
16.95776330000452
 51
90.0
  0
ARC
  5
578
100
AcDbEntity
  8
0
  6
CONTINUOUS
 62
             7
100
AcDbCircle
 10
162.52205450853171
 20
20.99999999999978
 40
6.99999999999999
100
AcDbArc
 50
-16.95776330000393
 51
16.95776330000424
  0
ARC
  5
577
100
AcDbEntity
  8
0
  6
CONTINUOUS
 62
             7
100
AcDbCircle
 10
168.26117465015619
 20
19.24999999999978
 40
0.99999999999999
100
AcDbArc
 50
-90.0
 51
-16.95776330000238
  0
ARC
  5
576
100
AcDbEntity
  8
0
  6
CONTINUOUS
 62
             7
100
AcDbCircle
 10
168.26117465015619
 20
14.3499999999998
 40
1.00000000000001
100
AcDbArc
 50
16.95776330000345
 51
90.0
  0
ARC
  5
575
100
AcDbEntity
  8
0
  6
CONTINUOUS
 62
             7
100
AcDbCircle
 10
162.52205450853171
 20
12.5999999999998
 40
7.0
100
AcDbArc
 50
-16.95776330000401
 51
16.95776330000409
  0
ARC
  5
574
100
AcDbEntity
  8
0
  6
CONTINUOUS
 62
             7
100
AcDbCircle
 10
168.26117465015619
 20
10.8499999999998
 40
1.0
100
AcDbArc
 50
-90.0
 51
-16.95776330000297
  0
ARC
  5
573
100
AcDbEntity
  8
0
  6
CONTINUOUS
 62
             7
100
AcDbCircle
 10
168.26117465015619
 20
5.94999999999983
 40
1.00000000000001
100
AcDbArc
 50
16.95776330000335
 51
90.0
  0
ARC
  5
572
100
AcDbEntity
  8
0
  6
CONTINUOUS
 62
             7
100
AcDbCircle
 10
162.52205450853171
 20
4.19999999999983
 40
7.0
100
AcDbArc
 50
-16.95776330000407
 51
16.95776330000407
  0
ARC
  5
571
100
AcDbEntity
  8
0
  6
CONTINUOUS
 62
             7
100
AcDbCircle
 10
168.26117465015619
 20
2.44999999999983
 40
1.0
100
AcDbArc
 50
-90.0
 51
-16.95776330000335
  0
ARC
  5
570
100
AcDbEntity
  8
0
  6
CONTINUOUS
 62
             7
100
AcDbCircle
 10
168.26117465015619
 20
-2.45000000000015
 40
1.00000000000001
100
AcDbArc
 50
16.95776330000335
 51
90.0
  0
ARC
  5
56F
100
AcDbEntity
  8
0
  6
CONTINUOUS
 62
             7
100
AcDbCircle
 10
162.52205450853171
 20
-4.20000000000015
 40
7.0
100
AcDbArc
 50
-16.95776330000413
 51
16.95776330000407
  0
ARC
  5
56E
100
AcDbEntity
  8
0
  6
CONTINUOUS
 62
             7
100
AcDbCircle
 10
168.26117465015619
 20
-5.95000000000015
 40
1.0
100
AcDbArc
 50
-90.0
 51
-16.95776330000374
  0
ARC
  5
56D
100
AcDbEntity
  8
0
  6
CONTINUOUS
 62
             7
100
AcDbCircle
 10
168.26117465015619
 20
-10.85000000000014
 40
1.00000000000001
100
AcDbArc
 50
16.95776330000355
 51
90.0
  0
ARC
  5
56C
100
AcDbEntity
  8
0
  6
CONTINUOUS
 62
             7
100
AcDbCircle
 10
162.52205450853171
 20
-12.60000000000014
 40
6.99999999999999
100
AcDbArc
 50
-16.95776330000393
 51
16.9577633000041
  0
ARC
  5
56B
100
AcDbEntity
  8
0
  6
CONTINUOUS
 62
             7
100
AcDbCircle
 10
168.26117465015619
 20
-14.35000000000014
 40
1.0
100
AcDbArc
 50
-90.0
 51
-16.95776330000238
  0
ARC
  5
56A
100
AcDbEntity
  8
0
  6
CONTINUOUS
 62
             7
100
AcDbCircle
 10
168.26117465015619
 20
-19.2500000000001
 40
1.00000000000001
100
AcDbArc
 50
16.95776330000238
 51
90.0
  0
ARC
  5
569
100
AcDbEntity
  8
0
  6
CONTINUOUS
 62
             7
100
AcDbCircle
 10
162.52205450853171
 20
-21.0000000000001
 40
7.0
100
AcDbArc
 50
-16.95776330000418
 51
16.95776330000393
  0
ARC
  5
568
100
AcDbEntity
  8
0
  6
CONTINUOUS
 62
             7
100
AcDbCircle
 10
168.26117465015619
 20
-22.7500000000001
 40
1.0
100
AcDbArc
 50
-90.0
 51
-16.95776330000413
  0
ARC
  5
567
100
AcDbEntity
  8
0
  6
CONTINUOUS
 62
             7
100
AcDbCircle
 10
168.26117465015619
 20
-27.65000000000008
 40
1.0
100
AcDbArc
 50
16.95776330000179
 51
90.0
  0
ARC
  5
566
100
AcDbEntity
  8
0
  6
CONTINUOUS
 62
             7
100
AcDbCircle
 10
162.52205450853171
 20
-29.40000000000008
 40
7.0
100
AcDbArc
 50
-16.95776330000424
 51
16.95776330000385
  0
ARC
  5
565
100
AcDbEntity
  8
0
  6
CONTINUOUS
 62
             7
100
AcDbCircle
 10
168.26117465015619
 20
-31.15000000000008
 40
1.0
100
AcDbArc
 50
-90.0
 51
-16.95776330000452
  0
ARC
  5
564
100
AcDbEntity
  8
0
  6
CONTINUOUS
 62
             7
100
AcDbCircle
 10
168.26117465015619
 20
-36.05000000000005
 40
1.00000000000001
100
AcDbArc
 50
16.95776330000219
 51
90.0
  0
ARC
  5
563
100
AcDbEntity
  8
0
  6
CONTINUOUS
 62
             7
100
AcDbCircle
 10
162.52205450853171
 20
-37.80000000000005
 40
7.0
100
AcDbArc
 50
-16.95776330000413
 51
16.9577633000039
  0
ARC
  5
562
100
AcDbEntity
  8
0
  6
CONTINUOUS
 62
             7
100
AcDbCircle
 10
168.26117465015619
 20
-39.55000000000005
 40
1.0
100
AcDbArc
 50
-90.0
 51
-16.95776330000374
  0
ARC
  5
561
100
AcDbEntity
  8
1
  6
CONTINUOUS
 62
             7
100
AcDbCircle
 10
166.90000000000009
 20
-46.09999999999998
 40
0.60000000000002
100
AcDbArc
 50
0.00000000000068
 51
90.0
  0
ARC
  5
560
100
AcDbEntity
  8
1
  6
CONTINUOUS
 62
             7
100
AcDbCircle
 10
166.90000000000009
 20
46.09999999999999
 40
0.59999999999998
100
AcDbArc
 50
-90.0
 51
0.0
  0
LINE
  5
55F
100
AcDbEntity
  8
1
  6
CONTINUOUS
 62
             7
100
AcDbLine
 10
74.50000000000013
 20
-47.99999999999998
 11
74.50000000000013
 21
48.00000000000001
  0
LINE
  5
55E
100
AcDbEntity
  8
1
  6
CONTINUOUS
 62
             7
100
AcDbLine
 10
73.00000000000013
 20
48.00000000000001
 11
74.50000000000013
 21
48.00000000000001
  0
LINE
  5
55D
100
AcDbEntity
  8
1
  6
CONTINUOUS
 62
             7
100
AcDbLine
 10
73.00000000000013
 20
-47.99999999999998
 11
74.50000000000013
 21
-47.99999999999998
  0
LINE
  5
55C
100
AcDbEntity
  8
1
  6
CONTINUOUS
 62
             7
100
AcDbLine
 10
-5.49999999999999
 20
-47.99999999999999
 11
5.50000000000001
 21
-47.99999999999999
  0
LINE
  5
55B
100
AcDbEntity
  8
1
  6
CONTINUOUS
 62
             7
100
AcDbLine
 10
-5.49999999999999
 20
48.00000000000001
 11
5.50000000000001
 21
48.00000000000001
  0
LINE
  5
55A
100
AcDbEntity
  8
1
  6
CONTINUOUS
 62
             7
100
AcDbLine
 10
-5.49999999999999
 20
-47.99999999999999
 11
-46.99999999999999
 21
-48.0
  0
LINE
  5
559
100
AcDbEntity
  8
1
  6
CONTINUOUS
 62
             7
100
AcDbLine
 10
5.50000000000001
 20
48.00000000000001
 11
47.00000000000003
 21
48.00000000000001
  0
LINE
  5
558
100
AcDbEntity
  8
1
  6
CONTINUOUS
 62
             7
100
AcDbLine
 10
-2.49999999999999
 20
-46.60000000000001
 11
-5.49999999999999
 21
-46.60000000000001
  0
LINE
  5
557
100
AcDbEntity
  8
1
  6
CONTINUOUS
 62
             7
100
AcDbLine
 10
5.50000000000001
 20
-47.99999999999999
 11
5.50000000000001
 21
-46.60000000000001
  0
LINE
  5
556
100
AcDbEntity
  8
1
  6
CONTINUOUS
 62
             7
100
AcDbLine
 10
-5.49999999999999
 20
-47.99999999999999
 11
-5.49999999999999
 21
-46.60000000000001
  0
LINE
  5
555
100
AcDbEntity
  8
1
  6
CONTINUOUS
 62
             7
100
AcDbLine
 10
2.50000000000001
 20
-46.60000000000001
 11
-2.49999999999999
 21
-46.60000000000001
  0
LINE
  5
554
100
AcDbEntity
  8
1
  6
CONTINUOUS
 62
             7
100
AcDbLine
 10
5.50000000000001
 20
-46.60000000000001
 11
2.50000000000001
 21
-46.60000000000001
  0
LINE
  5
553
100
AcDbEntity
  8
1
  6
CONTINUOUS
 62
             7
100
AcDbLine
 10
2.50000000000001
 20
46.60000000000003
 11
5.50000000000001
 21
46.60000000000003
  0
LINE
  5
552
100
AcDbEntity
  8
1
  6
CONTINUOUS
 62
             7
100
AcDbLine
 10
-2.49999999999999
 20
46.60000000000003
 11
2.50000000000001
 21
46.60000000000003
  0
LINE
  5
551
100
AcDbEntity
  8
1
  6
CONTINUOUS
 62
             7
100
AcDbLine
 10
-5.49999999999999
 20
46.60000000000003
 11
-5.49999999999999
 21
48.00000000000001
  0
LINE
  5
550
100
AcDbEntity
  8
1
  6
CONTINUOUS
 62
             7
100
AcDbLine
 10
5.50000000000001
 20
46.60000000000003
 11
5.50000000000001
 21
48.00000000000001
  0
LINE
  5
54F
100
AcDbEntity
  8
1
  6
CONTINUOUS
 62
             7
100
AcDbLine
 10
-5.49999999999999
 20
46.60000000000003
 11
-2.49999999999999
 21
46.60000000000003
  0
LINE
  5
54E
100
AcDbEntity
  8
1
  6
CONTINUOUS
 62
             7
100
AcDbLine
 10
-46.99999999999999
 20
48.00000000000001
 11
-5.49999999999999
 21
48.00000000000001
  0
LINE
  5
54D
100
AcDbEntity
  8
1
  6
CONTINUOUS
 62
             7
100
AcDbLine
 10
47.00000000000003
 20
-48.0
 11
5.50000000000001
 21
-47.99999999999999
  0
LINE
  5
54C
100
AcDbEntity
  8
1
  6
CONTINUOUS
 62
             7
100
AcDbLine
 10
-47.99999999999999
 20
-46.99999999999999
 11
-47.99999999999999
 21
47.00000000000001
  0
LINE
  5
54B
100
AcDbEntity
  8
1
  6
CONTINUOUS
 62
             7
100
AcDbLine
 10
48.00000000000003
 20
47.00000000000001
 11
48.00000000000003
 21
-47.0
  0
LINE
  5
54A
100
AcDbEntity
  8
1
  6
CONTINUOUS
 62
             7
100
AcDbLine
 10
-45.99999999999999
 20
44.50000000000001
 11
46.00000000000003
 21
44.50000000000001
  0
LINE
  5
549
100
AcDbEntity
  8
1
  6
CONTINUOUS
 62
             7
100
AcDbLine
 10
46.00000000000003
 20
44.50000000000001
 11
46.00000000000003
 21
-44.49999999999999
  0
LINE
  5
548
100
AcDbEntity
  8
1
  6
CONTINUOUS
 62
             7
100
AcDbLine
 10
-45.99999999999999
 20
-44.49999999999999
 11
-45.99999999999999
 21
44.50000000000001
  0
LINE
  5
547
100
AcDbEntity
  8
1
  6
CONTINUOUS
 62
             7
100
AcDbLine
 10
63.46512176312793
 20
47.69687578473225
 11
67.80000000000003
 21
48.00000000000001
  0
LINE
  5
546
100
AcDbEntity
  8
1
  6
CONTINUOUS
 62
             7
100
AcDbLine
 10
67.80000000000003
 20
-47.99999999999999
 11
63.46512176312793
 21
-47.69687578473223
  0
LINE
  5
545
100
AcDbEntity
  8
1
  6
CONTINUOUS
 62
             7
100
AcDbLine
 10
63.00000000000003
 20
47.19809375960234
 11
63.00000000000003
 21
-47.19809375960232
  0
LINE
  5
544
100
AcDbEntity
  8
1
  6
CONTINUOUS
 62
             7
100
AcDbLine
 10
67.80000000000003
 20
-47.99999999999999
 11
67.80000000000003
 21
-46.60000000000001
  0
LINE
  5
543
100
AcDbEntity
  8
1
  6
CONTINUOUS
 62
             7
100
AcDbLine
 10
67.80000000000003
 20
46.60000000000003
 11
67.80000000000003
 21
48.00000000000001
  0
LINE
  5
542
100
AcDbEntity
  8
1
  6
CONTINUOUS
 62
             7
100
AcDbLine
 10
67.80000000000003
 20
-46.60000000000001
 11
67.80000000000003
 21
46.60000000000003
  0
LINE
  5
541
100
AcDbEntity
  8
1
  6
CONTINUOUS
 62
             7
100
AcDbLine
 10
86.00000000000011
 20
45.50000000000001
 11
160.50000000000011
 21
45.50000000000001
  0
LINE
  5
540
100
AcDbEntity
  8
1
  6
CONTINUOUS
 62
             7
100
AcDbLine
 10
86.00000000000011
 20
45.00000000000001
 11
86.00000000000011
 21
45.50000000000001
  0
LINE
  5
53F
100
AcDbEntity
  8
1
  6
CONTINUOUS
 62
             7
100
AcDbLine
 10
75.00000000000013
 20
45.00000000000001
 11
86.00000000000011
 21
45.00000000000001
  0
LINE
  5
53E
100
AcDbEntity
  8
1
  6
CONTINUOUS
 62
             7
100
AcDbLine
 10
75.00000000000013
 20
45.50000000000001
 11
86.00000000000011
 21
45.50000000000001
  0
LINE
  5
53D
100
AcDbEntity
  8
1
  6
CONTINUOUS
 62
             7
100
AcDbLine
 10
75.00000000000013
 20
45.00000000000001
 11
75.00000000000013
 21
45.50000000000001
  0
LINE
  5
53C
100
AcDbEntity
  8
1
  6
CONTINUOUS
 62
             7
100
AcDbLine
 10
165.50000000000011
 20
-34.28017974028714
 11
165.50000000000011
 21
-41.31982025971283
  0
LINE
  5
53B
100
AcDbEntity
  8
1
  6
CONTINUOUS
 62
             7
100
AcDbLine
 10
165.50000000000011
 20
-25.88017974028716
 11
165.50000000000011
 21
-32.91982025971284
  0
LINE
  5
53A
100
AcDbEntity
  8
1
  6
CONTINUOUS
 62
             7
100
AcDbLine
 10
165.50000000000011
 20
-17.48017974028718
 11
165.50000000000011
 21
-24.51982025971287
  0
LINE
  5
539
100
AcDbEntity
  8
1
  6
CONTINUOUS
 62
             7
100
AcDbLine
 10
165.50000000000011
 20
-9.08017974028709
 11
165.50000000000011
 21
-16.1198202597129
  0
LINE
  5
538
100
AcDbEntity
  8
1
  6
CONTINUOUS
 62
             7
100
AcDbLine
 10
165.50000000000011
 20
-0.68017974028712
 11
165.50000000000011
 21
-7.71982025971292
  0
LINE
  5
537
100
AcDbEntity
  8
1
  6
CONTINUOUS
 62
             7
100
AcDbLine
 10
165.50000000000011
 20
7.71982025971292
 11
165.50000000000011
 21
0.68017974028706
  0
LINE
  5
536
100
AcDbEntity
  8
1
  6
CONTINUOUS
 62
             7
100
AcDbLine
 10
165.50000000000011
 20
16.11982025971281
 11
165.50000000000011
 21
9.08017974028711
  0
LINE
  5
535
100
AcDbEntity
  8
1
  6
CONTINUOUS
 62
             7
100
AcDbLine
 10
165.50000000000011
 20
24.51982025971282
 11
165.50000000000011
 21
17.48017974028711
  0
LINE
  5
534
100
AcDbEntity
  8
1
  6
CONTINUOUS
 62
             7
100
AcDbLine
 10
165.50000000000011
 20
32.91982025971292
 11
165.50000000000011
 21
25.88017974028712
  0
LINE
  5
533
100
AcDbEntity
  8
1
  6
CONTINUOUS
 62
             7
100
AcDbLine
 10
165.50000000000011
 20
41.31982025971293
 11
165.50000000000011
 21
34.28017974028712
  0
LINE
  5
532
100
AcDbEntity
  8
1
  6
CONTINUOUS
 62
             7
100
AcDbLine
 10
68.00000000000013
 20
48.00000000000001
 11
73.00000000000013
 21
48.00000000000001
  0
LINE
  5
531
100
AcDbEntity
  8
1
  6
CONTINUOUS
 62
             7
100
AcDbLine
 10
62.69999999999993
 20
47.00000000000001
 11
62.69999999999993
 21
48.00000000000001
  0
LINE
  5
530
100
AcDbEntity
  8
1
  6
CONTINUOUS
 62
             7
100
AcDbLine
 10
68.00000000000013
 20
-47.99999999999998
 11
73.00000000000013
 21
-47.99999999999998
  0
LINE
  5
52F
100
AcDbEntity
  8
1
  6
CONTINUOUS
 62
             7
100
AcDbLine
 10
62.69999999999993
 20
-46.99999999999998
 11
62.69999999999993
 21
-47.99999999999998
  0
LINE
  5
52E
100
AcDbEntity
  8
1
  6
CONTINUOUS
 62
             7
100
AcDbLine
 10
68.00000000000013
 20
-47.99999999999998
 11
68.00000000000013
 21
48.00000000000001
  0
LINE
  5
52D
100
AcDbEntity
  8
1
  6
CONTINUOUS
 62
             7
100
AcDbLine
 10
62.69999999999993
 20
48.00000000000001
 11
68.00000000000013
 21
48.00000000000001
  0
LINE
  5
52C
100
AcDbEntity
  8
1
  6
CONTINUOUS
 62
             7
100
AcDbLine
 10
62.69999999999993
 20
-47.99999999999998
 11
68.00000000000013
 21
-47.99999999999998
  0
LINE
  5
52B
100
AcDbEntity
  8
1
  6
CONTINUOUS
 62
             7
100
AcDbLine
 10
62.69999999999993
 20
-46.99999999999998
 11
63.00000000000013
 21
-46.70000000000002
  0
LINE
  5
52A
100
AcDbEntity
  8
1
  6
CONTINUOUS
 62
             7
100
AcDbLine
 10
62.69999999999993
 20
47.00000000000001
 11
63.00000000000013
 21
46.70000000000012
  0
LINE
  5
529
100
AcDbEntity
  8
1
  6
CONTINUOUS
 62
             7
100
AcDbLine
 10
73.00000000000013
 20
-45.79999999999993
 11
73.00000000000013
 21
48.00000000000001
  0
LINE
  5
528
100
AcDbEntity
  8
1
  6
CONTINUOUS
 62
             7
100
AcDbLine
 10
73.00000000000013
 20
-47.99999999999998
 11
73.00000000000013
 21
-45.79999999999993
  0
LINE
  5
527
100
AcDbEntity
  8
1
  6
CONTINUOUS
 62
             7
100
AcDbLine
 10
74.50000000000013
 20
45.50000000000001
 11
75.00000000000013
 21
45.50000000000001
  0
LINE
  5
526
100
AcDbEntity
  8
1
  6
CONTINUOUS
 62
             7
100
AcDbLine
 10
160.50000000000011
 20
-45.49999999999998
 11
74.50000000000013
 21
-45.49999999999998
  0
LINE
  5
525
100
AcDbEntity
  8
1
  6
CONTINUOUS
 62
             7
100
AcDbLine
 10
162.00000000000011
 20
44.00000000000001
 11
160.50000000000011
 21
45.50000000000001
  0
LINE
  5
524
100
AcDbEntity
  8
1
  6
CONTINUOUS
 62
             7
100
AcDbLine
 10
160.50000000000011
 20
-45.49999999999998
 11
162.00000000000011
 21
-43.99999999999998
  0
LINE
  5
523
100
AcDbEntity
  8
1
  6
CONTINUOUS
 62
             7
100
AcDbLine
 10
173.00000000000011
 20
-43.49999999999998
 11
172.50000000000011
 21
-43.99999999999998
  0
LINE
  5
522
100
AcDbEntity
  8
1
  6
CONTINUOUS
 62
             7
100
AcDbLine
 10
173.00000000000011
 20
43.50000000000001
 11
172.50000000000011
 21
44.00000000000001
  0
LINE
  5
521
100
AcDbEntity
  8
1
  6
CONTINUOUS
 62
             7
100
AcDbLine
 10
105.0000000000001
 20
-37.99999999999998
 11
92.50000000000011
 21
-37.99999999999998
  0
LINE
  5
520
100
AcDbEntity
  8
1
  6
CONTINUOUS
 62
             7
100
AcDbLine
 10
92.50000000000011
 20
-35.99999999999998
 11
105.0000000000001
 21
-35.99999999999998
  0
LINE
  5
51F
100
AcDbEntity
  8
1
  6
CONTINUOUS
 62
             7
100
AcDbLine
 10
124.5000000000001
 20
-41.49999999999998
 11
112.0000000000001
 21
-41.49999999999998
  0
LINE
  5
51E
100
AcDbEntity
  8
1
  6
CONTINUOUS
 62
             7
100
AcDbLine
 10
112.0000000000001
 20
-39.49999999999998
 11
124.5000000000001
 21
-39.49999999999998
  0
LINE
  5
51D
100
AcDbEntity
  8
1
  6
CONTINUOUS
 62
             7
100
AcDbLine
 10
112.0000000000001
 20
-35.99999999999998
 11
124.5000000000001
 21
-35.99999999999998
  0
LINE
  5
51C
100
AcDbEntity
  8
1
  6
CONTINUOUS
 62
             7
100
AcDbLine
 10
124.5000000000001
 20
-37.99999999999998
 11
112.0000000000001
 21
-37.99999999999998
  0
LINE
  5
51B
100
AcDbEntity
  8
1
  6
CONTINUOUS
 62
             7
100
AcDbLine
 10
144.00000000000011
 20
-37.99999999999998
 11
131.50000000000011
 21
-37.99999999999998
  0
LINE
  5
51A
100
AcDbEntity
  8
1
  6
CONTINUOUS
 62
             7
100
AcDbLine
 10
131.50000000000011
 20
-35.99999999999998
 11
144.00000000000011
 21
-35.99999999999998
  0
LINE
  5
519
100
AcDbEntity
  8
1
  6
CONTINUOUS
 62
             7
100
AcDbLine
 10
92.50000000000011
 20
-39.49999999999998
 11
105.0000000000001
 21
-39.49999999999998
  0
LINE
  5
518
100
AcDbEntity
  8
1
  6
CONTINUOUS
 62
             7
100
AcDbLine
 10
105.0000000000001
 20
-41.49999999999998
 11
92.50000000000011
 21
-41.49999999999998
  0
LINE
  5
517
100
AcDbEntity
  8
1
  6
CONTINUOUS
 62
             7
100
AcDbLine
 10
131.50000000000011
 20
-39.49999999999998
 11
144.00000000000011
 21
-39.49999999999998
  0
LINE
  5
516
100
AcDbEntity
  8
1
  6
CONTINUOUS
 62
             7
100
AcDbLine
 10
144.00000000000011
 20
-41.49999999999998
 11
131.50000000000011
 21
-41.49999999999998
  0
LINE
  5
515
100
AcDbEntity
  8
1
  6
CONTINUOUS
 62
             7
100
AcDbLine
 10
86.00000000000011
 20
35.00000000000001
 11
158.00000000000011
 21
35.00000000000001
  0
LINE
  5
514
100
AcDbEntity
  8
1
  6
CONTINUOUS
 62
             7
100
AcDbLine
 10
87.50000000000011
 20
-34.99999999999998
 11
158.00000000000011
 21
-34.99999999999998
  0
LINE
  5
513
100
AcDbEntity
  8
1
  6
CONTINUOUS
 62
             7
100
AcDbLine
 10
158.00000000000011
 20
-34.99999999999998
 11
158.00000000000011
 21
35.00000000000001
  0
LINE
  5
512
100
AcDbEntity
  8
1
  6
CONTINUOUS
 62
             7
100
AcDbLine
 10
86.00000000000011
 20
35.00000000000001
 11
86.00000000000011
 21
-33.49999999999998
  0
LINE
  5
511
100
AcDbEntity
  8
1
  6
CONTINUOUS
 62
             7
100
AcDbLine
 10
171.00000000000011
 20
44.00000000000001
 11
162.50000000000011
 21
44.00000000000001
  0
LINE
  5
510
100
AcDbEntity
  8
1
  6
CONTINUOUS
 62
             7
100
AcDbLine
 10
173.00000000000011
 20
-34.14926675332546
 11
171.50000000000011
 21
-34.1754493507178
  0
LINE
  5
50F
100
AcDbEntity
  8
1
  6
CONTINUOUS
 62
             7
100
AcDbLine
 10
171.00000000000011
 20
-43.99999999999998
 11
162.50000000000011
 21
-43.99999999999998
  0
LINE
  5
50E
100
AcDbEntity
  8
1
  6
CONTINUOUS
 62
             7
100
AcDbLine
 10
171.00000000000011
 20
-41.41582311681802
 11
171.50000000000011
 21
-41.42455064928217
  0
LINE
  5
50D
100
AcDbEntity
  8
1
  6
CONTINUOUS
 62
             7
100
AcDbLine
 10
172.50000000000011
 20
45.50000000000001
 11
160.50000000000011
 21
45.50000000000001
  0
LINE
  5
50C
100
AcDbEntity
  8
1
  6
CONTINUOUS
 62
             7
100
AcDbLine
 10
173.00000000000011
 20
45.00000000000001
 11
172.50000000000011
 21
45.50000000000001
  0
LINE
  5
50B
100
AcDbEntity
  8
1
  6
CONTINUOUS
 62
             7
100
AcDbLine
 10
173.00000000000011
 20
43.50000000000001
 11
173.00000000000011
 21
45.00000000000001
  0
LINE
  5
50A
100
AcDbEntity
  8
1
  6
CONTINUOUS
 62
             7
100
AcDbLine
 10
173.00000000000011
 20
-44.99999999999998
 11
173.00000000000011
 21
-43.49999999999998
  0
LINE
  5
509
100
AcDbEntity
  8
1
  6
CONTINUOUS
 62
             7
100
AcDbLine
 10
172.50000000000011
 20
-45.49999999999998
 11
173.00000000000011
 21
-44.99999999999998
  0
LINE
  5
508
100
AcDbEntity
  8
1
  6
CONTINUOUS
 62
             7
100
AcDbLine
 10
160.50000000000011
 20
-45.49999999999998
 11
172.50000000000011
 21
-45.49999999999998
  0
LINE
  5
507
100
AcDbEntity
  8
1
  6
CONTINUOUS
 62
             7
100
AcDbLine
 10
171.00000000000011
 20
-34.18417688318195
 11
166.1220545085317
 21
-34.26932173845187
  0
LINE
  5
506
100
AcDbEntity
  8
1
  6
CONTINUOUS
 62
             7
100
AcDbLine
 10
171.50000000000011
 20
-41.42455064928217
 11
173.00000000000011
 21
-41.4507332466745
  0
LINE
  5
505
100
AcDbEntity
  8
1
  6
CONTINUOUS
 62
             7
100
AcDbLine
 10
171.50000000000011
 20
-33.02455064928218
 11
173.00000000000011
 21
-33.05073324667453
  0
LINE
  5
504
100
AcDbEntity
  8
1
  6
CONTINUOUS
 62
             7
100
AcDbLine
 10
171.00000000000011
 20
-25.78417688318197
 11
165.50000000000011
 21
-25.88017974028716
  0
LINE
  5
503
100
AcDbEntity
  8
1
  6
CONTINUOUS
 62
             7
100
AcDbLine
 10
171.00000000000011
 20
-33.01582311681803
 11
171.50000000000011
 21
-33.02455064928218
  0
LINE
  5
502
100
AcDbEntity
  8
1
  6
CONTINUOUS
 62
             7
100
AcDbLine
 10
173.00000000000011
 20
-25.74926675332549
 11
171.50000000000011
 21
-25.77544935071782
  0
LINE
  5
501
100
AcDbEntity
  8
1
  6
CONTINUOUS
 62
             7
100
AcDbLine
 10
173.00000000000011
 20
-17.34926675332551
 11
171.50000000000011
 21
-17.37544935071784
  0
LINE
  5
500
100
AcDbEntity
  8
1
  6
CONTINUOUS
 62
             7
100
AcDbLine
 10
171.00000000000011
 20
-24.61582311681806
 11
171.50000000000011
 21
-24.62455064928221
  0
LINE
  5
4FF
100
AcDbEntity
  8
1
  6
CONTINUOUS
 62
             7
100
AcDbLine
 10
171.00000000000011
 20
-17.38417688318188
 11
165.50000000000011
 21
-17.48017974028718
  0
LINE
  5
4FE
100
AcDbEntity
  8
1
  6
CONTINUOUS
 62
             7
100
AcDbLine
 10
171.50000000000011
 20
-24.62455064928221
 11
173.00000000000011
 21
-24.65073324667455
  0
LINE
  5
4FD
100
AcDbEntity
  8
1
  6
CONTINUOUS
 62
             7
100
AcDbLine
 10
171.50000000000011
 20
-16.22455064928224
 11
173.00000000000011
 21
-16.25073324667446
  0
LINE
  5
4FC
100
AcDbEntity
  8
1
  6
CONTINUOUS
 62
             7
100
AcDbLine
 10
171.00000000000011
 20
-8.9841768831819
 11
165.50000000000011
 21
-9.08017974028709
  0
LINE
  5
4FB
100
AcDbEntity
  8
1
  6
CONTINUOUS
 62
             7
100
AcDbLine
 10
171.00000000000011
 20
-16.21582311681809
 11
171.50000000000011
 21
-16.22455064928224
  0
LINE
  5
4FA
100
AcDbEntity
  8
1
  6
CONTINUOUS
 62
             7
100
AcDbLine
 10
173.00000000000011
 20
-8.94926675332553
 11
171.50000000000011
 21
-8.97544935071775
  0
LINE
  5
4F9
100
AcDbEntity
  8
1
  6
CONTINUOUS
 62
             7
100
AcDbLine
 10
173.00000000000011
 20
-0.54926675332555
 11
171.50000000000011
 21
-0.57544935071778
  0
LINE
  5
4F8
100
AcDbEntity
  8
1
  6
CONTINUOUS
 62
             7
100
AcDbLine
 10
171.00000000000011
 20
-7.81582311681811
 11
171.50000000000011
 21
-7.82455064928214
  0
LINE
  5
4F7
100
AcDbEntity
  8
1
  6
CONTINUOUS
 62
             7
100
AcDbLine
 10
171.00000000000011
 20
-0.58417688318193
 11
165.50000000000011
 21
-0.68017974028712
  0
LINE
  5
4F6
100
AcDbEntity
  8
1
  6
CONTINUOUS
 62
             7
100
AcDbLine
 10
171.50000000000011
 20
-7.82455064928214
 11
173.00000000000011
 21
-7.85073324667448
  0
LINE
  5
4F5
100
AcDbEntity
  8
1
  6
CONTINUOUS
 62
             7
100
AcDbLine
 10
171.50000000000011
 20
0.57544935071783
 11
173.00000000000011
 21
0.5492667533255
  0
LINE
  5
4F4
100
AcDbEntity
  8
1
  6
CONTINUOUS
 62
             7
100
AcDbLine
 10
171.00000000000011
 20
7.81582311681801
 11
165.50000000000011
 21
7.71982025971292
  0
LINE
  5
4F3
100
AcDbEntity
  8
1
  6
CONTINUOUS
 62
             7
100
AcDbLine
 10
171.00000000000011
 20
0.58417688318198
 11
171.50000000000011
 21
0.57544935071783
  0
LINE
  5
4F2
100
AcDbEntity
  8
1
  6
CONTINUOUS
 62
             7
100
AcDbLine
 10
173.00000000000011
 20
7.85073324667451
 11
171.50000000000011
 21
7.82455064928222
  0
LINE
  5
4F1
100
AcDbEntity
  8
1
  6
CONTINUOUS
 62
             7
100
AcDbLine
 10
173.00000000000011
 20
16.25073324667451
 11
171.50000000000011
 21
16.22455064928221
  0
LINE
  5
4F0
100
AcDbEntity
  8
1
  6
CONTINUOUS
 62
             7
100
AcDbLine
 10
171.00000000000011
 20
8.98417688318202
 11
171.50000000000011
 21
8.97544935071781
  0
LINE
  5
4EF
100
AcDbEntity
  8
1
  6
CONTINUOUS
 62
             7
100
AcDbLine
 10
171.00000000000011
 20
16.21582311681802
 11
165.50000000000011
 21
16.11982025971281
  0
LINE
  5
4EE
100
AcDbEntity
  8
1
  6
CONTINUOUS
 62
             7
100
AcDbLine
 10
171.50000000000011
 20
8.97544935071781
 11
173.00000000000011
 21
8.94926675332552
  0
LINE
  5
4ED
100
AcDbEntity
  8
1
  6
CONTINUOUS
 62
             7
100
AcDbLine
 10
171.50000000000011
 20
17.37544935071782
 11
173.00000000000011
 21
17.34926675332541
  0
LINE
  5
4EC
100
AcDbEntity
  8
1
  6
CONTINUOUS
 62
             7
100
AcDbLine
 10
171.00000000000011
 20
24.61582311681812
 11
165.50000000000011
 21
24.51982025971282
  0
LINE
  5
4EB
100
AcDbEntity
  8
1
  6
CONTINUOUS
 62
             7
100
AcDbLine
 10
171.00000000000011
 20
17.38417688318191
 11
171.50000000000011
 21
17.37544935071782
  0
LINE
  5
4EA
100
AcDbEntity
  8
1
  6
CONTINUOUS
 62
             7
100
AcDbLine
 10
173.00000000000011
 20
24.65073324667452
 11
171.50000000000011
 21
24.62455064928211
  0
LINE
  5
4E9
100
AcDbEntity
  8
1
  6
CONTINUOUS
 62
             7
100
AcDbLine
 10
173.00000000000011
 20
33.05073324667443
 11
171.50000000000011
 21
33.02455064928221
  0
LINE
  5
4E8
100
AcDbEntity
  8
1
  6
CONTINUOUS
 62
             7
100
AcDbLine
 10
171.00000000000011
 20
25.78417688318191
 11
171.50000000000011
 21
25.77544935071782
  0
LINE
  5
4E7
100
AcDbEntity
  8
1
  6
CONTINUOUS
 62
             7
100
AcDbLine
 10
171.00000000000011
 20
33.01582311681811
 11
165.50000000000011
 21
32.91982025971292
  0
LINE
  5
4E6
100
AcDbEntity
  8
1
  6
CONTINUOUS
 62
             7
100
AcDbLine
 10
171.50000000000011
 20
25.77544935071782
 11
173.00000000000011
 21
25.74926675332542
  0
LINE
  5
4E5
100
AcDbEntity
  8
1
  6
CONTINUOUS
 62
             7
100
AcDbLine
 10
171.50000000000011
 20
34.17544935071781
 11
173.00000000000011
 21
34.14926675332551
  0
LINE
  5
4E4
100
AcDbEntity
  8
1
  6
CONTINUOUS
 62
             7
100
AcDbLine
 10
171.00000000000011
 20
41.41582311681812
 11
165.50000000000011
 21
41.31982025971293
  0
LINE
  5
4E3
100
AcDbEntity
  8
1
  6
CONTINUOUS
 62
             7
100
AcDbLine
 10
171.00000000000011
 20
34.18417688318191
 11
171.50000000000011
 21
34.17544935071781
  0
LINE
  5
4E2
100
AcDbEntity
  8
1
  6
CONTINUOUS
 62
             7
100
AcDbLine
 10
173.00000000000011
 20
41.4507332466744
 11
171.50000000000011
 21
41.42455064928221
  0
LINE
  5
4E1
100
AcDbEntity
  8
1
  6
CONTINUOUS
 62
             7
100
AcDbLine
 10
173.00000000000011
 20
41.4507332466744
 11
173.00000000000011
 21
43.50000000000001
  0
LINE
  5
4E0
100
AcDbEntity
  8
1
  6
CONTINUOUS
 62
             7
100
AcDbLine
 10
171.00000000000011
 20
41.41582311681812
 11
171.00000000000011
 21
44.00000000000001
  0
LINE
  5
4DF
100
AcDbEntity
  8
1
  6
CONTINUOUS
 62
             7
100
AcDbLine
 10
172.50000000000011
 20
44.00000000000001
 11
171.00000000000011
 21
44.00000000000001
  0
LINE
  5
4DE
100
AcDbEntity
  8
1
  6
CONTINUOUS
 62
             7
100
AcDbLine
 10
171.50000000000011
 20
41.42455064928221
 11
171.00000000000011
 21
41.41582311681812
  0
LINE
  5
4DD
100
AcDbEntity
  8
1
  6
CONTINUOUS
 62
             7
100
AcDbLine
 10
173.00000000000011
 20
33.05073324667443
 11
173.00000000000011
 21
34.14926675332551
  0
LINE
  5
4DC
100
AcDbEntity
  8
1
  6
CONTINUOUS
 62
             7
100
AcDbLine
 10
171.00000000000011
 20
33.01582311681811
 11
171.00000000000011
 21
34.18417688318191
  0
LINE
  5
4DB
100
AcDbEntity
  8
1
  6
CONTINUOUS
 62
             7
100
AcDbLine
 10
171.50000000000011
 20
33.02455064928221
 11
171.00000000000011
 21
33.01582311681811
  0
LINE
  5
4DA
100
AcDbEntity
  8
1
  6
CONTINUOUS
 62
             7
100
AcDbLine
 10
165.50000000000011
 20
34.28017974028712
 11
171.00000000000011
 21
34.18417688318191
  0
LINE
  5
4D9
100
AcDbEntity
  8
1
  6
CONTINUOUS
 62
             7
100
AcDbLine
 10
173.00000000000011
 20
24.65073324667452
 11
173.00000000000011
 21
25.74926675332542
  0
LINE
  5
4D8
100
AcDbEntity
  8
1
  6
CONTINUOUS
 62
             7
100
AcDbLine
 10
171.00000000000011
 20
24.61582311681812
 11
171.00000000000011
 21
25.78417688318191
  0
LINE
  5
4D7
100
AcDbEntity
  8
1
  6
CONTINUOUS
 62
             7
100
AcDbLine
 10
171.50000000000011
 20
24.62455064928211
 11
171.00000000000011
 21
24.61582311681812
  0
LINE
  5
4D6
100
AcDbEntity
  8
1
  6
CONTINUOUS
 62
             7
100
AcDbLine
 10
165.50000000000011
 20
25.88017974028712
 11
171.00000000000011
 21
25.78417688318191
  0
LINE
  5
4D5
100
AcDbEntity
  8
1
  6
CONTINUOUS
 62
             7
100
AcDbLine
 10
173.00000000000011
 20
16.25073324667451
 11
173.00000000000011
 21
17.34926675332541
  0
LINE
  5
4D4
100
AcDbEntity
  8
1
  6
CONTINUOUS
 62
             7
100
AcDbLine
 10
171.00000000000011
 20
16.21582311681802
 11
171.00000000000011
 21
17.38417688318191
  0
LINE
  5
4D3
100
AcDbEntity
  8
1
  6
CONTINUOUS
 62
             7
100
AcDbLine
 10
171.50000000000011
 20
16.22455064928221
 11
171.00000000000011
 21
16.21582311681802
  0
LINE
  5
4D2
100
AcDbEntity
  8
1
  6
CONTINUOUS
 62
             7
100
AcDbLine
 10
165.50000000000011
 20
17.48017974028711
 11
171.00000000000011
 21
17.38417688318191
  0
LINE
  5
4D1
100
AcDbEntity
  8
1
  6
CONTINUOUS
 62
             7
100
AcDbLine
 10
173.00000000000011
 20
7.85073324667451
 11
173.00000000000011
 21
8.94926675332552
  0
LINE
  5
4D0
100
AcDbEntity
  8
1
  6
CONTINUOUS
 62
             7
100
AcDbLine
 10
171.00000000000011
 20
7.81582311681801
 11
171.00000000000011
 21
8.98417688318202
  0
LINE
  5
4CF
100
AcDbEntity
  8
1
  6
CONTINUOUS
 62
             7
100
AcDbLine
 10
171.50000000000011
 20
7.82455064928222
 11
171.00000000000011
 21
7.81582311681801
  0
LINE
  5
4CE
100
AcDbEntity
  8
1
  6
CONTINUOUS
 62
             7
100
AcDbLine
 10
165.50000000000011
 20
9.08017974028711
 11
171.00000000000011
 21
8.98417688318202
  0
LINE
  5
4CD
100
AcDbEntity
  8
1
  6
CONTINUOUS
 62
             7
100
AcDbLine
 10
173.00000000000011
 20
-0.54926675332555
 11
173.00000000000011
 21
0.5492667533255
  0
LINE
  5
4CC
100
AcDbEntity
  8
1
  6
CONTINUOUS
 62
             7
100
AcDbLine
 10
171.00000000000011
 20
-0.58417688318193
 11
171.00000000000011
 21
0.58417688318198
  0
LINE
  5
4CB
100
AcDbEntity
  8
1
  6
CONTINUOUS
 62
             7
100
AcDbLine
 10
171.50000000000011
 20
-0.57544935071778
 11
171.00000000000011
 21
-0.58417688318193
  0
LINE
  5
4CA
100
AcDbEntity
  8
1
  6
CONTINUOUS
 62
             7
100
AcDbLine
 10
165.50000000000011
 20
0.68017974028706
 11
171.00000000000011
 21
0.58417688318198
  0
LINE
  5
4C9
100
AcDbEntity
  8
1
  6
CONTINUOUS
 62
             7
100
AcDbLine
 10
173.00000000000011
 20
-8.94926675332553
 11
173.00000000000011
 21
-7.85073324667448
  0
LINE
  5
4C8
100
AcDbEntity
  8
1
  6
CONTINUOUS
 62
             7
100
AcDbLine
 10
171.00000000000011
 20
-8.9841768831819
 11
171.00000000000011
 21
-7.81582311681811
  0
LINE
  5
4C7
100
AcDbEntity
  8
1
  6
CONTINUOUS
 62
             7
100
AcDbLine
 10
171.50000000000011
 20
-8.97544935071775
 11
171.00000000000011
 21
-8.9841768831819
  0
LINE
  5
4C6
100
AcDbEntity
  8
1
  6
CONTINUOUS
 62
             7
100
AcDbLine
 10
165.50000000000011
 20
-7.71982025971292
 11
171.00000000000011
 21
-7.81582311681811
  0
LINE
  5
4C5
100
AcDbEntity
  8
1
  6
CONTINUOUS
 62
             7
100
AcDbLine
 10
173.00000000000011
 20
-17.34926675332551
 11
173.00000000000011
 21
-16.25073324667446
  0
LINE
  5
4C4
100
AcDbEntity
  8
1
  6
CONTINUOUS
 62
             7
100
AcDbLine
 10
171.00000000000011
 20
-17.38417688318188
 11
171.00000000000011
 21
-16.21582311681809
  0
LINE
  5
4C3
100
AcDbEntity
  8
1
  6
CONTINUOUS
 62
             7
100
AcDbLine
 10
171.50000000000011
 20
-17.37544935071784
 11
171.00000000000011
 21
-17.38417688318188
  0
LINE
  5
4C2
100
AcDbEntity
  8
1
  6
CONTINUOUS
 62
             7
100
AcDbLine
 10
165.50000000000011
 20
-16.1198202597129
 11
171.00000000000011
 21
-16.21582311681809
  0
LINE
  5
4C1
100
AcDbEntity
  8
1
  6
CONTINUOUS
 62
             7
100
AcDbLine
 10
173.00000000000011
 20
-25.74926675332549
 11
173.00000000000011
 21
-24.65073324667455
  0
LINE
  5
4C0
100
AcDbEntity
  8
1
  6
CONTINUOUS
 62
             7
100
AcDbLine
 10
171.00000000000011
 20
-25.78417688318197
 11
171.00000000000011
 21
-24.61582311681806
  0
LINE
  5
4BF
100
AcDbEntity
  8
1
  6
CONTINUOUS
 62
             7
100
AcDbLine
 10
171.50000000000011
 20
-25.77544935071782
 11
171.00000000000011
 21
-25.78417688318197
  0
LINE
  5
4BE
100
AcDbEntity
  8
1
  6
CONTINUOUS
 62
             7
100
AcDbLine
 10
165.50000000000011
 20
-24.51982025971287
 11
171.00000000000011
 21
-24.61582311681806
  0
LINE
  5
4BD
100
AcDbEntity
  8
1
  6
CONTINUOUS
 62
             7
100
AcDbLine
 10
173.00000000000011
 20
-34.14926675332546
 11
173.00000000000011
 21
-33.05073324667453
  0
LINE
  5
4BC
100
AcDbEntity
  8
1
  6
CONTINUOUS
 62
             7
100
AcDbLine
 10
171.00000000000011
 20
-34.18417688318195
 11
171.00000000000011
 21
-33.01582311681803
  0
LINE
  5
4BB
100
AcDbEntity
  8
1
  6
CONTINUOUS
 62
             7
100
AcDbLine
 10
171.50000000000011
 20
-34.1754493507178
 11
171.00000000000011
 21
-34.18417688318195
  0
LINE
  5
4BA
100
AcDbEntity
  8
1
  6
CONTINUOUS
 62
             7
100
AcDbLine
 10
165.50000000000011
 20
-32.91982025971284
 11
171.00000000000011
 21
-33.01582311681803
  0
LINE
  5
4B9
100
AcDbEntity
  8
1
  6
CONTINUOUS
 62
             7
100
AcDbLine
 10
173.00000000000011
 20
-43.49999999999998
 11
173.00000000000011
 21
-41.4507332466745
  0
LINE
  5
4B8
100
AcDbEntity
  8
1
  6
CONTINUOUS
 62
             7
100
AcDbLine
 10
171.00000000000011
 20
-43.99999999999998
 11
171.00000000000011
 21
-41.41582311681802
  0
LINE
  5
4B7
100
AcDbEntity
  8
1
  6
CONTINUOUS
 62
             7
100
AcDbLine
 10
172.50000000000011
 20
-43.99999999999998
 11
171.00000000000011
 21
-43.99999999999998
  0
LINE
  5
4B6
100
AcDbEntity
  8
1
  6
CONTINUOUS
 62
             7
100
AcDbLine
 10
165.50000000000011
 20
-41.31982025971283
 11
166.1220545085317
 21
-41.33067826154823
  0
LINE
  5
4B5
100
AcDbEntity
  8
1
  6
CONTINUOUS
 62
             7
100
AcDbLine
 10
166.1220545085317
 20
-34.26932173845187
 11
166.1220545085317
 21
-41.33067826154823
  0
LINE
  5
4B4
100
AcDbEntity
  8
1
  6
CONTINUOUS
 62
             7
100
AcDbLine
 10
166.1220545085317
 20
-34.26932173845187
 11
165.50000000000011
 21
-34.28017974028714
  0
LINE
  5
4B3
100
AcDbEntity
  8
1
  6
CONTINUOUS
 62
             7
100
AcDbLine
 10
166.1220545085317
 20
-41.33067826154823
 11
171.00000000000011
 21
-41.41582311681802
  0
LINE
  5
4B2
100
AcDbEntity
  8
1
  6
CONTINUOUS
 62
             7
100
AcDbLine
 10
162.50000000000011
 20
-34.33254493507184
 11
162.50000000000011
 21
-41.26745506492833
  0
LINE
  5
4B1
100
AcDbEntity
  8
1
  6
CONTINUOUS
 62
             7
100
AcDbLine
 10
165.50000000000011
 20
-34.28017974028714
 11
162.50000000000011
 21
-34.33254493507184
  0
LINE
  5
4B0
100
AcDbEntity
  8
1
  6
CONTINUOUS
 62
             7
100
AcDbLine
 10
165.50000000000011
 20
-41.31982025971283
 11
162.50000000000011
 21
-41.26745506492833
  0
LINE
  5
4AF
100
AcDbEntity
  8
1
  6
CONTINUOUS
 62
             7
100
AcDbLine
 10
165.50000000000011
 20
-32.91982025971284
 11
162.50000000000011
 21
-32.86745506492834
  0
LINE
  5
4AE
100
AcDbEntity
  8
1
  6
CONTINUOUS
 62
             7
100
AcDbLine
 10
162.50000000000011
 20
-25.93254493507186
 11
162.50000000000011
 21
-32.86745506492834
  0
LINE
  5
4AD
100
AcDbEntity
  8
1
  6
CONTINUOUS
 62
             7
100
AcDbLine
 10
166.1220545085317
 20
-25.86932173845189
 11
166.1220545085317
 21
-32.93067826154825
  0
LINE
  5
4AC
100
AcDbEntity
  8
1
  6
CONTINUOUS
 62
             7
100
AcDbLine
 10
165.50000000000011
 20
-25.88017974028716
 11
162.50000000000011
 21
-25.93254493507186
  0
LINE
  5
4AB
100
AcDbEntity
  8
1
  6
CONTINUOUS
 62
             7
100
AcDbLine
 10
166.1220545085317
 20
-17.46932173845191
 11
166.1220545085317
 21
-24.53067826154826
  0
LINE
  5
4AA
100
AcDbEntity
  8
1
  6
CONTINUOUS
 62
             7
100
AcDbLine
 10
162.50000000000011
 20
-17.53254493507188
 11
162.50000000000011
 21
-24.46745506492837
  0
LINE
  5
4A9
100
AcDbEntity
  8
1
  6
CONTINUOUS
 62
             7
100
AcDbLine
 10
165.50000000000011
 20
-24.51982025971287
 11
162.50000000000011
 21
-24.46745506492837
  0
LINE
  5
4A8
100
AcDbEntity
  8
1
  6
CONTINUOUS
 62
             7
100
AcDbLine
 10
165.50000000000011
 20
-17.48017974028718
 11
162.50000000000011
 21
-17.53254493507188
  0
LINE
  5
4A7
100
AcDbEntity
  8
1
  6
CONTINUOUS
 62
             7
100
AcDbLine
 10
166.1220545085317
 20
-9.06932173845193
 11
166.1220545085317
 21
-16.13067826154828
  0
LINE
  5
4A6
100
AcDbEntity
  8
1
  6
CONTINUOUS
 62
             7
100
AcDbLine
 10
165.50000000000011
 20
-9.08017974028709
 11
162.50000000000011
 21
-9.13254493507191
  0
LINE
  5
4A5
100
AcDbEntity
  8
1
  6
CONTINUOUS
 62
             7
100
AcDbLine
 10
162.50000000000011
 20
-9.13254493507191
 11
162.50000000000011
 21
-16.0674550649284
  0
LINE
  5
4A4
100
AcDbEntity
  8
1
  6
CONTINUOUS
 62
             7
100
AcDbLine
 10
165.50000000000011
 20
-16.1198202597129
 11
162.50000000000011
 21
-16.0674550649284
  0
LINE
  5
4A3
100
AcDbEntity
  8
1
  6
CONTINUOUS
 62
             7
100
AcDbLine
 10
166.1220545085317
 20
-0.66932173845196
 11
166.1220545085317
 21
-7.73067826154831
  0
LINE
  5
4A2
100
AcDbEntity
  8
1
  6
CONTINUOUS
 62
             7
100
AcDbLine
 10
162.50000000000011
 20
-0.73254493507193
 11
162.50000000000011
 21
-7.66745506492842
  0
LINE
  5
4A1
100
AcDbEntity
  8
1
  6
CONTINUOUS
 62
             7
100
AcDbLine
 10
165.50000000000011
 20
-0.68017974028712
 11
162.50000000000011
 21
-0.73254493507193
  0
LINE
  5
4A0
100
AcDbEntity
  8
1
  6
CONTINUOUS
 62
             7
100
AcDbLine
 10
165.50000000000011
 20
-7.71982025971292
 11
162.50000000000011
 21
-7.66745506492842
  0
LINE
  5
49F
100
AcDbEntity
  8
1
  6
CONTINUOUS
 62
             7
100
AcDbLine
 10
166.1220545085317
 20
7.73067826154801
 11
166.1220545085317
 21
0.66932173845167
  0
LINE
  5
49E
100
AcDbEntity
  8
1
  6
CONTINUOUS
 62
             7
100
AcDbLine
 10
165.50000000000011
 20
7.71982025971292
 11
162.50000000000011
 21
7.66745506492802
  0
LINE
  5
49D
100
AcDbEntity
  8
1
  6
CONTINUOUS
 62
             7
100
AcDbLine
 10
162.50000000000011
 20
7.66745506492802
 11
162.50000000000011
 21
0.73254493507156
  0
LINE
  5
49C
100
AcDbEntity
  8
1
  6
CONTINUOUS
 62
             7
100
AcDbLine
 10
165.50000000000011
 20
0.68017974028706
 11
162.50000000000011
 21
0.73254493507156
  0
LINE
  5
49B
100
AcDbEntity
  8
1
  6
CONTINUOUS
 62
             7
100
AcDbLine
 10
165.50000000000011
 20
9.08017974028711
 11
162.50000000000011
 21
9.13254493507151
  0
LINE
  5
49A
100
AcDbEntity
  8
1
  6
CONTINUOUS
 62
             7
100
AcDbLine
 10
162.50000000000011
 20
16.06745506492801
 11
162.50000000000011
 21
9.13254493507151
  0
LINE
  5
499
100
AcDbEntity
  8
1
  6
CONTINUOUS
 62
             7
100
AcDbLine
 10
165.50000000000011
 20
16.11982025971281
 11
162.50000000000011
 21
16.06745506492801
  0
LINE
  5
498
100
AcDbEntity
  8
1
  6
CONTINUOUS
 62
             7
100
AcDbLine
 10
166.1220545085317
 20
16.13067826154801
 11
166.1220545085317
 21
9.06932173845162
  0
LINE
  5
497
100
AcDbEntity
  8
1
  6
CONTINUOUS
 62
             7
100
AcDbLine
 10
162.50000000000011
 20
24.46745506492802
 11
162.50000000000011
 21
17.53254493507151
  0
LINE
  5
496
100
AcDbEntity
  8
1
  6
CONTINUOUS
 62
             7
100
AcDbLine
 10
165.50000000000011
 20
17.48017974028711
 11
162.50000000000011
 21
17.53254493507151
  0
LINE
  5
495
100
AcDbEntity
  8
1
  6
CONTINUOUS
 62
             7
100
AcDbLine
 10
165.50000000000011
 20
24.51982025971282
 11
162.50000000000011
 21
24.46745506492802
  0
LINE
  5
494
100
AcDbEntity
  8
1
  6
CONTINUOUS
 62
             7
100
AcDbLine
 10
166.1220545085317
 20
24.53067826154802
 11
166.1220545085317
 21
17.46932173845161
  0
LINE
  5
493
100
AcDbEntity
  8
1
  6
CONTINUOUS
 62
             7
100
AcDbLine
 10
166.1220545085317
 20
32.93067826154793
 11
166.1220545085317
 21
25.86932173845162
  0
LINE
  5
492
100
AcDbEntity
  8
1
  6
CONTINUOUS
 62
             7
100
AcDbLine
 10
165.50000000000011
 20
32.91982025971292
 11
162.50000000000011
 21
32.86745506492802
  0
LINE
  5
491
100
AcDbEntity
  8
1
  6
CONTINUOUS
 62
             7
100
AcDbLine
 10
162.50000000000011
 20
32.86745506492802
 11
162.50000000000011
 21
25.93254493507152
  0
LINE
  5
490
100
AcDbEntity
  8
1
  6
CONTINUOUS
 62
             7
100
AcDbLine
 10
165.50000000000011
 20
25.88017974028712
 11
162.50000000000011
 21
25.93254493507152
  0
LINE
  5
48F
100
AcDbEntity
  8
1
  6
CONTINUOUS
 62
             7
100
AcDbLine
 10
166.1220545085317
 20
41.3306782615479
 11
166.1220545085317
 21
34.26932173845161
  0
LINE
  5
48E
100
AcDbEntity
  8
1
  6
CONTINUOUS
 62
             7
100
AcDbLine
 10
162.50000000000011
 20
41.267455064928
 11
162.50000000000011
 21
34.33254493507143
  0
LINE
  5
48D
100
AcDbEntity
  8
1
  6
CONTINUOUS
 62
             7
100
AcDbLine
 10
165.50000000000011
 20
41.31982025971293
 11
162.50000000000011
 21
41.267455064928
  0
LINE
  5
48C
100
AcDbEntity
  8
1
  6
CONTINUOUS
 62
             7
100
AcDbLine
 10
165.50000000000011
 20
34.28017974028712
 11
162.50000000000011
 21
34.33254493507143
  0
LINE
  5
48B
100
AcDbEntity
  8
1
  6
CONTINUOUS
 62
             7
100
AcDbLine
 10
158.5000000000002
 20
36.00000000000001
 11
158.5000000000002
 21
42.00000000000001
  0
LINE
  5
48A
100
AcDbEntity
  8
1
  6
CONTINUOUS
 62
             7
100
AcDbLine
 10
152.5000000000002
 20
36.00000000000001
 11
158.5000000000002
 21
36.00000000000001
  0
LINE
  5
489
100
AcDbEntity
  8
1
  6
CONTINUOUS
 62
             7
100
AcDbLine
 10
152.5000000000002
 20
42.00000000000001
 11
152.5000000000002
 21
36.00000000000001
  0
LINE
  5
488
100
AcDbEntity
  8
1
  6
CONTINUOUS
 62
             7
100
AcDbLine
 10
158.5000000000002
 20
42.00000000000001
 11
152.5000000000002
 21
42.00000000000001
  0
LINE
  5
487
100
AcDbEntity
  8
1
  6
CONTINUOUS
 62
             7
100
AcDbLine
 10
155.3609722339842
 20
38.38352941176483
 11
155.22194446796911
 21
39.55705882352952
  0
LINE
  5
486
100
AcDbEntity
  8
1
  6
CONTINUOUS
 62
             7
100
AcDbLine
 10
155.77805553203021
 20
39.55705882352952
 11
155.63902776601469
 21
38.38352941176483
  0
LINE
  5
485
100
AcDbEntity
  8
1
  6
CONTINUOUS
 62
             7
100
AcDbLine
 10
157.52564755214519
 20
37.24500000000002
 11
155.50000000000011
 21
40.75352447854381
  0
LINE
  5
484
100
AcDbEntity
  8
1
  6
CONTINUOUS
 62
             7
100
AcDbLine
 10
153.4743524478541
 20
37.24500000000002
 11
157.52564755214519
 21
37.24500000000002
  0
LINE
  5
483
100
AcDbEntity
  8
1
  6
CONTINUOUS
 62
             7
100
AcDbLine
 10
155.50000000000011
 20
40.75352447854381
 11
153.4743524478541
 21
37.24500000000002
  0
LINE
  5
482
100
AcDbEntity
  8
1
  6
CONTINUOUS
 62
             7
100
AcDbLine
 10
157.76813466520471
 20
37.31500000000013
 11
155.6818653347942
 21
40.92852447854382
  0
LINE
  5
481
100
AcDbEntity
  8
1
  6
CONTINUOUS
 62
             7
100
AcDbLine
 10
153.4137306695892
 20
37.00000000000001
 11
157.58626933040969
 21
37.00000000000001
  0
LINE
  5
480
100
AcDbEntity
  8
1
  6
CONTINUOUS
 62
             7
100
AcDbLine
 10
155.31813466520541
 20
40.92852447854382
 11
153.23186533479421
 21
37.31500000000013
  0
LINE
  5
47F
100
AcDbEntity
  8
1
  6
CONTINUOUS
 62
             7
100
AcDbLine
 10
160.50000000000011
 20
45.50000000000001
 11
160.50000000000011
 21
-45.49999999999998
  0
LINE
  5
47E
100
AcDbEntity
  8
1
  6
CONTINUOUS
 62
             7
100
AcDbLine
 10
162.50000000000011
 20
44.00000000000001
 11
162.00000000000011
 21
44.00000000000001
  0
LINE
  5
47D
100
AcDbEntity
  8
1
  6
CONTINUOUS
 62
             7
100
AcDbLine
 10
162.50000000000011
 20
-43.99999999999998
 11
162.00000000000011
 21
-43.99999999999998
  0
LINE
  5
47C
100
AcDbEntity
  8
1
  6
CONTINUOUS
 62
             7
100
AcDbLine
 10
86.00000000000011
 20
-33.49999999999998
 11
87.50000000000011
 21
-34.99999999999998
  0
LINE
  5
47B
100
AcDbEntity
  8
1
  6
CONTINUOUS
 62
             7
100
AcDbLine
 10
-13.0
 20
-22.49999999999983
 11
-7.0
 21
-22.49999999999983
  0
LINE
  5
47A
100
AcDbEntity
  8
1
  6
CONTINUOUS
 62
             7
100
AcDbLine
 10
-38.0
 20
37.5
 11
-38.0
 21
-14.0
  0
LINE
  5
479
100
AcDbEntity
  8
1
  6
CONTINUOUS
 62
             7
100
AcDbLine
 10
37.0
 20
38.5
 11
-37.0
 21
38.5
  0
LINE
  5
478
100
AcDbEntity
  8
1
  6
CONTINUOUS
 62
             7
100
AcDbLine
 10
38.0
 20
-14.0
 11
38.0
 21
37.5
  0
LINE
  5
477
100
AcDbEntity
  8
1
  6
CONTINUOUS
 62
             7
100
AcDbLine
 10
-37.0
 20
-15.0
 11
37.0
 21
-15.0
  0
LINE
  5
476
100
AcDbEntity
  8
1
  6
CONTINUOUS
 62
             7
100
AcDbLine
 10
-10.0
 20
-26.07526077778238
 11
-13.0
 21
-22.49999999999983
  0
LINE
  5
475
100
AcDbEntity
  8
1
  6
CONTINUOUS
 62
             7
100
AcDbLine
 10
-7.0
 20
-22.49999999999983
 11
-10.0
 21
-26.07526077778238
  0
LINE
  5
474
100
AcDbEntity
  8
1
  6
CONTINUOUS
 62
             7
100
AcDbLine
 10
-27.0
 20
-25.49999999999972
 11
-33.0
 21
-25.49999999999972
  0
LINE
  5
473
100
AcDbEntity
  8
1
  6
CONTINUOUS
 62
             7
100
AcDbLine
 10
-33.0
 20
-25.49999999999972
 11
-30.0
 21
-21.92473922221723
  0
LINE
  5
472
100
AcDbEntity
  8
1
  6
CONTINUOUS
 62
             7
100
AcDbLine
 10
-30.0
 20
-21.92473922221723
 11
-27.0
 21
-25.49999999999972
  0
LINE
  5
471
100
AcDbEntity
  8
1
  6
CONTINUOUS
 62
             7
100
AcDbLine
 10
-41.0
 20
38.5
 11
-41.0
 21
-16.99999999999989
  0
LINE
  5
470
100
AcDbEntity
  8
1
  6
CONTINUOUS
 62
             7
100
AcDbLine
 10
-39.0
 20
-18.99999999999989
 11
39.0
 21
-18.99999999999989
  0
LINE
  5
46F
100
AcDbEntity
  8
1
  6
CONTINUOUS
 62
             7
100
AcDbLine
 10
41.0
 20
-16.99999999999989
 11
41.0
 21
38.49999999999999
  0
LINE
  5
46E
100
AcDbEntity
  8
1
  6
CONTINUOUS
 62
             7
100
AcDbLine
 10
43.0
 20
-37.99999999999994
 11
43.0
 21
40.49999999999999
  0
LINE
  5
46D
100
AcDbEntity
  8
1
  6
CONTINUOUS
 62
             7
100
AcDbLine
 10
-39.0
 20
40.5
 11
39.0
 21
40.5
  0
LINE
  5
46C
100
AcDbEntity
  8
1
  6
CONTINUOUS
 62
             7
100
AcDbLine
 10
41.0
 20
42.5
 11
-40.99999999999999
 21
42.5
  0
LINE
  5
46B
100
AcDbEntity
  8
1
  6
CONTINUOUS
 62
             7
100
AcDbLine
 10
-40.5
 20
-28.99999999999994
 11
40.5
 21
-28.99999999999994
  0
LINE
  5
46A
100
AcDbEntity
  8
1
  6
CONTINUOUS
 62
             7
100
AcDbLine
 10
40.5
 20
-29.99999999999994
 11
-40.5
 21
-29.99999999999994
  0
LINE
  5
469
100
AcDbEntity
  8
1
  6
CONTINUOUS
 62
             7
100
AcDbLine
 10
-41.0
 20
-39.99999999999994
 11
41.0
 21
-39.99999999999994
  0
LINE
  5
468
100
AcDbEntity
  8
1
  6
CONTINUOUS
 62
             7
100
AcDbLine
 10
-43.0
 20
-37.99999999999994
 11
-43.0
 21
40.49999999999999
  0
LINE
  5
467
100
AcDbEntity
  8
1
  6
CONTINUOUS
 62
             7
100
AcDbLine
 10
-22.17842344171311
 20
14.5
 11
-20.6141487750275
 21
23.37144247806269
  0
LINE
  5
466
100
AcDbEntity
  8
1
  6
CONTINUOUS
 62
             7
100
AcDbLine
 10
-24.56193062690147
 20
12.5
 11
-23.44678147861907
 21
13.43572123903135
  0
LINE
  5
465
100
AcDbEntity
  8
1
  6
CONTINUOUS
 62
             7
100
AcDbLine
 10
-31.66991691010168
 20
12.5
 11
-24.56193062690147
 21
12.5
  0
LINE
  5
464
100
AcDbEntity
  8
1
  6
CONTINUOUS
 62
             7
100
AcDbLine
 10
-33.34811617245617
 20
14.5
 11
-32.57329530224757
 21
13.5766044443119
  0
LINE
  5
463
100
AcDbEntity
  8
1
  6
CONTINUOUS
 62
             7
100
AcDbLine
 10
-18.65188382754377
 20
34.5
 11
-20.21181179317119
 21
25.65320888862379
  0
LINE
  5
462
100
AcDbEntity
  8
1
  6
CONTINUOUS
 62
             7
100
AcDbLine
 10
-20.33008308989827
 20
36.5
 11
-19.55526221968967
 21
35.5766044443119
  0
LINE
  5
461
100
AcDbEntity
  8
1
  6
CONTINUOUS
 62
             7
100
AcDbLine
 10
-27.43806937309847
 20
36.5
 11
-20.33008308989827
 21
36.5
  0
LINE
  5
460
100
AcDbEntity
  8
1
  6
CONTINUOUS
 62
             7
100
AcDbLine
 10
-29.82157655828701
 20
34.5
 11
-28.70642741000467
 21
35.43572123903135
  0
LINE
  5
45F
100
AcDbEntity
  8
1
  6
CONTINUOUS
 62
             7
100
AcDbLine
 10
-31.38585122497261
 20
25.62855752193731
 11
-30.55709407014257
 21
24.64088320528055
  0
LINE
  5
45E
100
AcDbEntity
  8
1
  6
CONTINUOUS
 62
             7
100
AcDbLine
 10
-31.38585122497261
 20
25.62855752193731
 11
-29.82157655828701
 21
34.5
  0
LINE
  5
45D
100
AcDbEntity
  8
1
  6
CONTINUOUS
 62
             7
100
AcDbLine
 10
-30.55709407014257
 20
24.64088320528055
 11
-29.35065130014289
 21
25.65320888862379
  0
LINE
  5
45C
100
AcDbEntity
  8
1
  6
CONTINUOUS
 62
             7
100
AcDbLine
 10
-29.35065130014289
 20
25.65320888862379
 11
-27.81339149420597
 21
34.37144247806269
  0
LINE
  5
45B
100
AcDbEntity
  8
1
  6
CONTINUOUS
 62
             7
100
AcDbLine
 10
-29.22209377820559
 20
25.5
 11
-30.42853654820527
 21
24.48767431665677
  0
LINE
  5
45A
100
AcDbEntity
  8
1
  6
CONTINUOUS
 62
             7
100
AcDbLine
 10
-30.42853654820527
 20
24.48767431665677
 11
-29.5997793933754
 21
23.5
  0
LINE
  5
459
100
AcDbEntity
  8
1
  6
CONTINUOUS
 62
             7
100
AcDbLine
 10
-29.5997793933754
 20
23.5
 11
-22.77790622179441
 21
23.5
  0
LINE
  5
458
100
AcDbEntity
  8
1
  6
CONTINUOUS
 62
             7
100
AcDbLine
 10
-29.75298828199919
 20
23.37144247806269
 11
-30.58174543682907
 21
24.35911679471946
  0
LINE
  5
457
100
AcDbEntity
  8
1
  6
CONTINUOUS
 62
             7
100
AcDbLine
 10
-29.75298828199919
 20
23.37144247806269
 11
-31.29024808793599
 21
14.65320888862379
  0
LINE
  5
456
100
AcDbEntity
  8
1
  6
CONTINUOUS
 62
             7
100
AcDbLine
 10
-30.58174543682907
 20
24.35911679471946
 11
-31.78818820682881
 21
23.34679111137622
  0
LINE
  5
455
100
AcDbEntity
  8
1
  6
CONTINUOUS
 62
             7
100
AcDbLine
 10
-31.78818820682881
 20
23.34679111137622
 11
-33.34811617245617
 21
14.5
  0
LINE
  5
454
100
AcDbEntity
  8
1
  6
CONTINUOUS
 62
             7
100
AcDbLine
 10
-22.40022060662471
 20
25.5
 11
-21.57146345179467
 21
24.51232568334325
  0
LINE
  5
453
100
AcDbEntity
  8
1
  6
CONTINUOUS
 62
             7
100
AcDbLine
 10
-22.40022060662471
 20
25.5
 11
-29.22209377820559
 21
25.5
  0
LINE
  5
452
100
AcDbEntity
  8
1
  6
CONTINUOUS
 62
             7
100
AcDbLine
 10
-21.57146345179467
 20
24.51232568334325
 11
-22.77790622179441
 21
23.5
  0
LINE
  5
451
100
AcDbEntity
  8
1
  6
CONTINUOUS
 62
             7
100
AcDbLine
 10
-22.64934869985711
 20
23.34679111137622
 11
-21.44290592985738
 21
24.35911679471946
  0
LINE
  5
450
100
AcDbEntity
  8
1
  6
CONTINUOUS
 62
             7
100
AcDbLine
 10
-21.44290592985738
 20
24.35911679471946
 11
-20.6141487750275
 21
23.37144247806269
  0
LINE
  5
44F
100
AcDbEntity
  8
1
  6
CONTINUOUS
 62
             7
100
AcDbLine
 10
-22.24701171800086
 20
25.62855752193731
 11
-21.41825456317088
 21
24.64088320528055
  0
LINE
  5
44E
100
AcDbEntity
  8
1
  6
CONTINUOUS
 62
             7
100
AcDbLine
 10
-21.41825456317088
 20
24.64088320528055
 11
-20.21181179317119
 21
25.65320888862379
  0
LINE
  5
44D
100
AcDbEntity
  8
1
  6
CONTINUOUS
 62
             7
100
AcDbLine
 10
-20.8383094340013
 20
34.5
 11
-19.55526221968967
 21
35.5766044443119
  0
LINE
  5
44C
100
AcDbEntity
  8
1
  6
CONTINUOUS
 62
             7
100
AcDbLine
 10
-19.42670469775237
 20
35.42339555568811
 11
-20.70975191206401
 21
34.34679111137621
  0
LINE
  5
44B
100
AcDbEntity
  8
1
  6
CONTINUOUS
 62
             7
100
AcDbLine
 10
-20.70975191206401
 20
34.34679111137621
 11
-22.24701171800086
 21
25.62855752193731
  0
LINE
  5
44A
100
AcDbEntity
  8
1
  6
CONTINUOUS
 62
             7
100
AcDbLine
 10
-19.42670469775237
 20
35.42339555568811
 11
-18.65188382754377
 21
34.5
  0
LINE
  5
449
100
AcDbEntity
  8
1
  6
CONTINUOUS
 62
             7
100
AcDbLine
 10
-28.70642741000467
 20
35.43572123903135
 11
-27.81339149420597
 21
34.37144247806269
  0
LINE
  5
448
100
AcDbEntity
  8
1
  6
CONTINUOUS
 62
             7
100
AcDbLine
 10
-27.66018260558229
 20
34.5
 11
-28.55321852138087
 21
35.56427876096866
  0
LINE
  5
447
100
AcDbEntity
  8
1
  6
CONTINUOUS
 62
             7
100
AcDbLine
 10
-27.66018260558229
 20
34.5
 11
-20.8383094340013
 21
34.5
  0
LINE
  5
446
100
AcDbEntity
  8
1
  6
CONTINUOUS
 62
             7
100
AcDbLine
 10
-28.55321852138087
 20
35.56427876096866
 11
-27.43806937309847
 21
36.5
  0
LINE
  5
445
100
AcDbEntity
  8
1
  6
CONTINUOUS
 62
             7
100
AcDbLine
 10
-32.57329530224757
 20
13.5766044443119
 11
-31.29024808793599
 21
14.65320888862379
  0
LINE
  5
444
100
AcDbEntity
  8
1
  6
CONTINUOUS
 62
             7
100
AcDbLine
 10
-31.1616905659987
 20
14.5
 11
-32.44473778031028
 21
13.4233955556881
  0
LINE
  5
443
100
AcDbEntity
  8
1
  6
CONTINUOUS
 62
             7
100
AcDbLine
 10
-31.1616905659987
 20
14.5
 11
-24.33981739441776
 21
14.5
  0
LINE
  5
442
100
AcDbEntity
  8
1
  6
CONTINUOUS
 62
             7
100
AcDbLine
 10
-32.44473778031028
 20
13.4233955556881
 11
-31.66991691010168
 21
12.5
  0
LINE
  5
441
100
AcDbEntity
  8
1
  6
CONTINUOUS
 62
             7
100
AcDbLine
 10
-24.33981739441776
 20
14.5
 11
-23.44678147861907
 21
13.43572123903135
  0
LINE
  5
440
100
AcDbEntity
  8
1
  6
CONTINUOUS
 62
             7
100
AcDbLine
 10
-23.29357258999539
 20
13.56427876096866
 11
-24.18660850579397
 21
14.62855752193731
  0
LINE
  5
43F
100
AcDbEntity
  8
1
  6
CONTINUOUS
 62
             7
100
AcDbLine
 10
-24.18660850579397
 20
14.62855752193731
 11
-22.64934869985711
 21
23.34679111137622
  0
LINE
  5
43E
100
AcDbEntity
  8
1
  6
CONTINUOUS
 62
             7
100
AcDbLine
 10
-23.29357258999539
 20
13.56427876096866
 11
-22.17842344171311
 21
14.5
  0
LINE
  5
43D
100
AcDbEntity
  8
1
  6
CONTINUOUS
 62
             7
100
AcDbLine
 10
-27.62290340827997
 20
34.3
 11
-25.62545981327571
 21
27.20000000000001
  0
LINE
  5
43C
100
AcDbEntity
  8
1
  6
CONTINUOUS
 62
             7
100
AcDbLine
 10
-25.42237449089856
 20
27.20000000000001
 11
-20.92108776983412
 21
34.3
  0
LINE
  5
43B
100
AcDbEntity
  8
1
  6
CONTINUOUS
 62
             7
100
AcDbLine
 10
-27.62290340827997
 20
34.3
 11
-28.34333264985321
 21
30.21424273994487
  0
LINE
  5
43A
100
AcDbEntity
  8
1
  6
CONTINUOUS
 62
             7
100
AcDbLine
 10
-28.34333264985321
 20
30.21424273994487
 11
-27.07334036151559
 21
25.70000000000001
  0
LINE
  5
439
100
AcDbEntity
  8
1
  6
CONTINUOUS
 62
             7
100
AcDbLine
 10
-27.07334036151559
 20
25.70000000000001
 11
-25.8899502843384
 21
25.70000000000001
  0
LINE
  5
438
100
AcDbEntity
  8
1
  6
CONTINUOUS
 62
             7
100
AcDbLine
 10
-25.8899502843384
 20
25.70000000000001
 11
-25.62545981327571
 21
27.20000000000001
  0
LINE
  5
437
100
AcDbEntity
  8
1
  6
CONTINUOUS
 62
             7
100
AcDbLine
 10
-25.42237449089856
 20
27.20000000000001
 11
-25.68686496196131
 21
25.70000000000001
  0
LINE
  5
436
100
AcDbEntity
  8
1
  6
CONTINUOUS
 62
             7
100
AcDbLine
 10
-25.68686496196131
 20
25.70000000000001
 11
-24.24208992392062
 21
25.70000000000001
  0
LINE
  5
435
100
AcDbEntity
  8
1
  6
CONTINUOUS
 62
             7
100
AcDbLine
 10
-24.24208992392062
 20
25.70000000000001
 11
-21.74222390424382
 21
29.64310556949101
  0
LINE
  5
434
100
AcDbEntity
  8
1
  6
CONTINUOUS
 62
             7
100
AcDbLine
 10
-21.74222390424382
 20
29.64310556949101
 11
-20.92108776983412
 21
34.3
  0
LINE
  5
433
100
AcDbEntity
  8
1
  6
CONTINUOUS
 62
             7
100
AcDbLine
 10
-26.1100497156616
 20
23.3
 11
-26.37454018672429
 21
21.8
  0
LINE
  5
432
100
AcDbEntity
  8
1
  6
CONTINUOUS
 62
             7
100
AcDbLine
 10
-24.37709659171998
 20
14.70000000000002
 11
-26.37454018672429
 21
21.8
  0
LINE
  5
431
100
AcDbEntity
  8
1
  6
CONTINUOUS
 62
             7
100
AcDbLine
 10
-26.57762550910138
 20
21.8
 11
-26.3131350380387
 21
23.3
  0
LINE
  5
430
100
AcDbEntity
  8
1
  6
CONTINUOUS
 62
             7
100
AcDbLine
 10
-26.57762550910138
 20
21.8
 11
-31.07891223016588
 21
14.70000000000002
  0
LINE
  5
42F
100
AcDbEntity
  8
1
  6
CONTINUOUS
 62
             7
100
AcDbLine
 10
-24.92665963848447
 20
23.3
 11
-26.1100497156616
 21
23.3
  0
LINE
  5
42E
100
AcDbEntity
  8
1
  6
CONTINUOUS
 62
             7
100
AcDbLine
 10
-23.65666735014679
 20
18.78575726005515
 11
-24.92665963848447
 21
23.3
  0
LINE
  5
42D
100
AcDbEntity
  8
1
  6
CONTINUOUS
 62
             7
100
AcDbLine
 10
-27.75791007607938
 20
23.3
 11
-30.25777609575619
 21
19.35689443050901
  0
LINE
  5
42C
100
AcDbEntity
  8
1
  6
CONTINUOUS
 62
             7
100
AcDbLine
 10
-26.3131350380387
 20
23.3
 11
-27.75791007607938
 21
23.3
  0
LINE
  5
42B
100
AcDbEntity
  8
1
  6
CONTINUOUS
 62
             7
100
AcDbLine
 10
-30.25777609575619
 20
19.35689443050901
 11
-31.07891223016588
 21
14.70000000000002
  0
LINE
  5
42A
100
AcDbEntity
  8
1
  6
CONTINUOUS
 62
             7
100
AcDbLine
 10
-24.37709659171998
 20
14.70000000000002
 11
-23.65666735014679
 21
18.78575726005515
  0
LINE
  5
429
100
AcDbEntity
  8
1
  6
CONTINUOUS
 62
             7
100
AcDbLine
 10
-8.67842344171308
 20
14.5
 11
-7.1141487750275
 21
23.37144247806269
  0
LINE
  5
428
100
AcDbEntity
  8
1
  6
CONTINUOUS
 62
             7
100
AcDbLine
 10
-11.0619306269015
 20
12.5
 11
-9.9467814786191
 21
13.43572123903135
  0
LINE
  5
427
100
AcDbEntity
  8
1
  6
CONTINUOUS
 62
             7
100
AcDbLine
 10
-18.16991691010168
 20
12.5
 11
-11.0619306269015
 21
12.5
  0
LINE
  5
426
100
AcDbEntity
  8
1
  6
CONTINUOUS
 62
             7
100
AcDbLine
 10
-19.84811617245617
 20
14.5
 11
-19.07329530224757
 21
13.5766044443119
  0
LINE
  5
425
100
AcDbEntity
  8
1
  6
CONTINUOUS
 62
             7
100
AcDbLine
 10
-5.1518838275438
 20
34.5
 11
-6.71181179317119
 21
25.65320888862379
  0
LINE
  5
424
100
AcDbEntity
  8
1
  6
CONTINUOUS
 62
             7
100
AcDbLine
 10
-6.83008308989829
 20
36.5
 11
-6.05526221968969
 21
35.5766044443119
  0
LINE
  5
423
100
AcDbEntity
  8
1
  6
CONTINUOUS
 62
             7
100
AcDbLine
 10
-13.9380693730985
 20
36.5
 11
-6.83008308989829
 21
36.5
  0
LINE
  5
422
100
AcDbEntity
  8
1
  6
CONTINUOUS
 62
             7
100
AcDbLine
 10
-16.32157655828698
 20
34.5
 11
-15.20642741000469
 21
35.43572123903135
  0
LINE
  5
421
100
AcDbEntity
  8
1
  6
CONTINUOUS
 62
             7
100
AcDbLine
 10
-17.88585122497256
 20
25.62855752193731
 11
-17.05709407014257
 21
24.64088320528055
  0
LINE
  5
420
100
AcDbEntity
  8
1
  6
CONTINUOUS
 62
             7
100
AcDbLine
 10
-17.88585122497256
 20
25.62855752193731
 11
-16.32157655828698
 21
34.5
  0
LINE
  5
41F
100
AcDbEntity
  8
1
  6
CONTINUOUS
 62
             7
100
AcDbLine
 10
-17.05709407014257
 20
24.64088320528055
 11
-15.85065130014289
 21
25.65320888862379
  0
LINE
  5
41E
100
AcDbEntity
  8
1
  6
CONTINUOUS
 62
             7
100
AcDbLine
 10
-15.85065130014289
 20
25.65320888862379
 11
-14.313391494206
 21
34.37144247806269
  0
LINE
  5
41D
100
AcDbEntity
  8
1
  6
CONTINUOUS
 62
             7
100
AcDbLine
 10
-15.72209377820559
 20
25.5
 11
-16.92853654820527
 21
24.48767431665677
  0
LINE
  5
41C
100
AcDbEntity
  8
1
  6
CONTINUOUS
 62
             7
100
AcDbLine
 10
-16.92853654820527
 20
24.48767431665677
 11
-16.0997793933754
 21
23.5
  0
LINE
  5
41B
100
AcDbEntity
  8
1
  6
CONTINUOUS
 62
             7
100
AcDbLine
 10
-16.0997793933754
 20
23.5
 11
-9.27790622179438
 21
23.5
  0
LINE
  5
41A
100
AcDbEntity
  8
1
  6
CONTINUOUS
 62
             7
100
AcDbLine
 10
-16.25298828199919
 20
23.37144247806269
 11
-17.08174543682907
 21
24.35911679471946
  0
LINE
  5
419
100
AcDbEntity
  8
1
  6
CONTINUOUS
 62
             7
100
AcDbLine
 10
-16.25298828199919
 20
23.37144247806269
 11
-17.79024808793599
 21
14.65320888862379
  0
LINE
  5
418
100
AcDbEntity
  8
1
  6
CONTINUOUS
 62
             7
100
AcDbLine
 10
-17.08174543682907
 20
24.35911679471946
 11
-18.28818820682875
 21
23.34679111137622
  0
LINE
  5
417
100
AcDbEntity
  8
1
  6
CONTINUOUS
 62
             7
100
AcDbLine
 10
-18.28818820682875
 20
23.34679111137622
 11
-19.84811617245617
 21
14.5
  0
LINE
  5
416
100
AcDbEntity
  8
1
  6
CONTINUOUS
 62
             7
100
AcDbLine
 10
-8.90022060662468
 20
25.5
 11
-8.0714634517947
 21
24.51232568334325
  0
LINE
  5
415
100
AcDbEntity
  8
1
  6
CONTINUOUS
 62
             7
100
AcDbLine
 10
-8.90022060662468
 20
25.5
 11
-15.72209377820559
 21
25.5
  0
LINE
  5
414
100
AcDbEntity
  8
1
  6
CONTINUOUS
 62
             7
100
AcDbLine
 10
-8.0714634517947
 20
24.51232568334325
 11
-9.27790622179438
 21
23.5
  0
LINE
  5
413
100
AcDbEntity
  8
1
  6
CONTINUOUS
 62
             7
100
AcDbLine
 10
-9.14934869985708
 20
23.34679111137622
 11
-7.94290592985737
 21
24.35911679471946
  0
LINE
  5
412
100
AcDbEntity
  8
1
  6
CONTINUOUS
 62
             7
100
AcDbLine
 10
-7.94290592985737
 20
24.35911679471946
 11
-7.1141487750275
 21
23.37144247806269
  0
LINE
  5
411
100
AcDbEntity
  8
1
  6
CONTINUOUS
 62
             7
100
AcDbLine
 10
-8.74701171800089
 20
25.62855752193731
 11
-7.91825456317087
 21
24.64088320528055
  0
LINE
  5
410
100
AcDbEntity
  8
1
  6
CONTINUOUS
 62
             7
100
AcDbLine
 10
-7.91825456317087
 20
24.64088320528055
 11
-6.71181179317119
 21
25.65320888862379
  0
LINE
  5
40F
100
AcDbEntity
  8
1
  6
CONTINUOUS
 62
             7
100
AcDbLine
 10
-7.33830943400127
 20
34.5
 11
-6.05526221968969
 21
35.5766044443119
  0
LINE
  5
40E
100
AcDbEntity
  8
1
  6
CONTINUOUS
 62
             7
100
AcDbLine
 10
-5.9267046977524
 20
35.42339555568811
 11
-7.20975191206398
 21
34.34679111137621
  0
LINE
  5
40D
100
AcDbEntity
  8
1
  6
CONTINUOUS
 62
             7
100
AcDbLine
 10
-7.20975191206398
 20
34.34679111137621
 11
-8.74701171800089
 21
25.62855752193731
  0
LINE
  5
40C
100
AcDbEntity
  8
1
  6
CONTINUOUS
 62
             7
100
AcDbLine
 10
-5.9267046977524
 20
35.42339555568811
 11
-5.1518838275438
 21
34.5
  0
LINE
  5
40B
100
AcDbEntity
  8
1
  6
CONTINUOUS
 62
             7
100
AcDbLine
 10
-15.20642741000469
 20
35.43572123903135
 11
-14.313391494206
 21
34.37144247806269
  0
LINE
  5
40A
100
AcDbEntity
  8
1
  6
CONTINUOUS
 62
             7
100
AcDbLine
 10
-14.16018260558229
 20
34.5
 11
-15.0532185213809
 21
35.56427876096866
  0
LINE
  5
409
100
AcDbEntity
  8
1
  6
CONTINUOUS
 62
             7
100
AcDbLine
 10
-14.16018260558229
 20
34.5
 11
-7.33830943400127
 21
34.5
  0
LINE
  5
408
100
AcDbEntity
  8
1
  6
CONTINUOUS
 62
             7
100
AcDbLine
 10
-15.0532185213809
 20
35.56427876096866
 11
-13.9380693730985
 21
36.5
  0
LINE
  5
407
100
AcDbEntity
  8
1
  6
CONTINUOUS
 62
             7
100
AcDbLine
 10
-19.07329530224757
 20
13.5766044443119
 11
-17.79024808793599
 21
14.65320888862379
  0
LINE
  5
406
100
AcDbEntity
  8
1
  6
CONTINUOUS
 62
             7
100
AcDbLine
 10
-17.6616905659987
 20
14.5
 11
-18.94473778031028
 21
13.4233955556881
  0
LINE
  5
405
100
AcDbEntity
  8
1
  6
CONTINUOUS
 62
             7
100
AcDbLine
 10
-17.6616905659987
 20
14.5
 11
-10.83981739441779
 21
14.5
  0
LINE
  5
404
100
AcDbEntity
  8
1
  6
CONTINUOUS
 62
             7
100
AcDbLine
 10
-18.94473778031028
 20
13.4233955556881
 11
-18.16991691010168
 21
12.5
  0
LINE
  5
403
100
AcDbEntity
  8
1
  6
CONTINUOUS
 62
             7
100
AcDbLine
 10
-10.83981739441779
 20
14.5
 11
-9.9467814786191
 21
13.43572123903135
  0
LINE
  5
402
100
AcDbEntity
  8
1
  6
CONTINUOUS
 62
             7
100
AcDbLine
 10
-9.79357258999539
 20
13.56427876096866
 11
-10.686608505794
 21
14.62855752193731
  0
LINE
  5
401
100
AcDbEntity
  8
1
  6
CONTINUOUS
 62
             7
100
AcDbLine
 10
-10.686608505794
 20
14.62855752193731
 11
-9.14934869985708
 21
23.34679111137622
  0
LINE
  5
400
100
AcDbEntity
  8
1
  6
CONTINUOUS
 62
             7
100
AcDbLine
 10
-9.79357258999539
 20
13.56427876096866
 11
-8.67842344171308
 21
14.5
  0
LINE
  5
3FF
100
AcDbEntity
  8
1
  6
CONTINUOUS
 62
             7
100
AcDbLine
 10
-14.12290340828
 20
34.3
 11
-12.12545981327568
 21
27.20000000000001
  0
LINE
  5
3FE
100
AcDbEntity
  8
1
  6
CONTINUOUS
 62
             7
100
AcDbLine
 10
-11.92237449089859
 20
27.20000000000001
 11
-7.42108776983409
 21
34.3
  0
LINE
  5
3FD
100
AcDbEntity
  8
1
  6
CONTINUOUS
 62
             7
100
AcDbLine
 10
-14.12290340828
 20
34.3
 11
-14.84333264985317
 21
30.21424273994487
  0
LINE
  5
3FC
100
AcDbEntity
  8
1
  6
CONTINUOUS
 62
             7
100
AcDbLine
 10
-14.84333264985317
 20
30.21424273994487
 11
-13.57334036151559
 21
25.70000000000001
  0
LINE
  5
3FB
100
AcDbEntity
  8
1
  6
CONTINUOUS
 62
             7
100
AcDbLine
 10
-13.57334036151559
 20
25.70000000000001
 11
-12.3899502843384
 21
25.70000000000001
  0
LINE
  5
3FA
100
AcDbEntity
  8
1
  6
CONTINUOUS
 62
             7
100
AcDbLine
 10
-12.3899502843384
 20
25.70000000000001
 11
-12.12545981327568
 21
27.20000000000001
  0
LINE
  5
3F9
100
AcDbEntity
  8
1
  6
CONTINUOUS
 62
             7
100
AcDbLine
 10
-11.92237449089859
 20
27.20000000000001
 11
-12.18686496196128
 21
25.70000000000001
  0
LINE
  5
3F8
100
AcDbEntity
  8
1
  6
CONTINUOUS
 62
             7
100
AcDbLine
 10
-12.18686496196128
 20
25.70000000000001
 11
-10.74208992392059
 21
25.70000000000001
  0
LINE
  5
3F7
100
AcDbEntity
  8
1
  6
CONTINUOUS
 62
             7
100
AcDbLine
 10
-10.74208992392059
 20
25.70000000000001
 11
-8.24222390424378
 21
29.64310556949101
  0
LINE
  5
3F6
100
AcDbEntity
  8
1
  6
CONTINUOUS
 62
             7
100
AcDbLine
 10
-8.24222390424378
 20
29.64310556949101
 11
-7.42108776983409
 21
34.3
  0
LINE
  5
3F5
100
AcDbEntity
  8
1
  6
CONTINUOUS
 62
             7
100
AcDbLine
 10
-12.61004971566158
 20
23.3
 11
-12.87454018672429
 21
21.8
  0
LINE
  5
3F4
100
AcDbEntity
  8
1
  6
CONTINUOUS
 62
             7
100
AcDbLine
 10
-10.87709659171998
 20
14.70000000000002
 11
-12.87454018672429
 21
21.8
  0
LINE
  5
3F3
100
AcDbEntity
  8
1
  6
CONTINUOUS
 62
             7
100
AcDbLine
 10
-13.07762550910138
 20
21.8
 11
-12.8131350380387
 21
23.3
  0
LINE
  5
3F2
100
AcDbEntity
  8
1
  6
CONTINUOUS
 62
             7
100
AcDbLine
 10
-13.07762550910138
 20
21.8
 11
-17.57891223016588
 21
14.70000000000002
  0
LINE
  5
3F1
100
AcDbEntity
  8
1
  6
CONTINUOUS
 62
             7
100
AcDbLine
 10
-11.4266596384845
 20
23.3
 11
-12.61004971566158
 21
23.3
  0
LINE
  5
3F0
100
AcDbEntity
  8
1
  6
CONTINUOUS
 62
             7
100
AcDbLine
 10
-10.15666735014679
 20
18.78575726005515
 11
-11.4266596384845
 21
23.3
  0
LINE
  5
3EF
100
AcDbEntity
  8
1
  6
CONTINUOUS
 62
             7
100
AcDbLine
 10
-14.25791007607938
 20
23.3
 11
-16.75777609575619
 21
19.35689443050901
  0
LINE
  5
3EE
100
AcDbEntity
  8
1
  6
CONTINUOUS
 62
             7
100
AcDbLine
 10
-12.8131350380387
 20
23.3
 11
-14.25791007607938
 21
23.3
  0
LINE
  5
3ED
100
AcDbEntity
  8
1
  6
CONTINUOUS
 62
             7
100
AcDbLine
 10
-16.75777609575619
 20
19.35689443050901
 11
-17.57891223016588
 21
14.70000000000002
  0
LINE
  5
3EC
100
AcDbEntity
  8
1
  6
CONTINUOUS
 62
             7
100
AcDbLine
 10
-10.87709659171998
 20
14.70000000000002
 11
-10.15666735014679
 21
18.78575726005515
  0
LINE
  5
3EB
100
AcDbEntity
  8
1
  6
CONTINUOUS
 62
             7
100
AcDbLine
 10
4.82157655828693
 20
14.5
 11
6.3858512249725
 21
23.37144247806269
  0
LINE
  5
3EA
100
AcDbEntity
  8
1
  6
CONTINUOUS
 62
             7
100
AcDbLine
 10
2.4380693730985
 20
12.5
 11
3.5532185213809
 21
13.43572123903135
  0
LINE
  5
3E9
100
AcDbEntity
  8
1
  6
CONTINUOUS
 62
             7
100
AcDbLine
 10
-4.66991691010167
 20
12.5
 11
2.4380693730985
 21
12.5
  0
LINE
  5
3E8
100
AcDbEntity
  8
1
  6
CONTINUOUS
 62
             7
100
AcDbLine
 10
-6.3481161724562
 20
14.5
 11
-5.5732953022476
 21
13.5766044443119
  0
LINE
  5
3E7
100
AcDbEntity
  8
1
  6
CONTINUOUS
 62
             7
100
AcDbLine
 10
8.34811617245621
 20
34.5
 11
6.78818820682881
 21
25.65320888862379
  0
LINE
  5
3E6
100
AcDbEntity
  8
1
  6
CONTINUOUS
 62
             7
100
AcDbLine
 10
6.66991691010171
 20
36.5
 11
7.44473778031031
 21
35.5766044443119
  0
LINE
  5
3E5
100
AcDbEntity
  8
1
  6
CONTINUOUS
 62
             7
100
AcDbLine
 10
-0.4380693730985
 20
36.5
 11
6.66991691010171
 21
36.5
  0
LINE
  5
3E4
100
AcDbEntity
  8
1
  6
CONTINUOUS
 62
             7
100
AcDbLine
 10
-2.82157655828697
 20
34.5
 11
-1.70642741000469
 21
35.43572123903135
  0
LINE
  5
3E3
100
AcDbEntity
  8
1
  6
CONTINUOUS
 62
             7
100
AcDbLine
 10
-4.38585122497258
 20
25.62855752193731
 11
-3.55709407014259
 21
24.64088320528055
  0
LINE
  5
3E2
100
AcDbEntity
  8
1
  6
CONTINUOUS
 62
             7
100
AcDbLine
 10
-4.38585122497258
 20
25.62855752193731
 11
-2.82157655828697
 21
34.5
  0
LINE
  5
3E1
100
AcDbEntity
  8
1
  6
CONTINUOUS
 62
             7
100
AcDbLine
 10
-3.55709407014259
 20
24.64088320528055
 11
-2.35065130014288
 21
25.65320888862379
  0
LINE
  5
3E0
100
AcDbEntity
  8
1
  6
CONTINUOUS
 62
             7
100
AcDbLine
 10
-2.35065130014288
 20
25.65320888862379
 11
-0.813391494206
 21
34.37144247806269
  0
LINE
  5
3DF
100
AcDbEntity
  8
1
  6
CONTINUOUS
 62
             7
100
AcDbLine
 10
-2.22209377820559
 20
25.5
 11
-3.4285365482053
 21
24.48767431665677
  0
LINE
  5
3DE
100
AcDbEntity
  8
1
  6
CONTINUOUS
 62
             7
100
AcDbLine
 10
-3.4285365482053
 20
24.48767431665677
 11
-2.5997793933754
 21
23.5
  0
LINE
  5
3DD
100
AcDbEntity
  8
1
  6
CONTINUOUS
 62
             7
100
AcDbLine
 10
-2.5997793933754
 20
23.5
 11
4.22209377820562
 21
23.5
  0
LINE
  5
3DC
100
AcDbEntity
  8
1
  6
CONTINUOUS
 62
             7
100
AcDbLine
 10
-2.75298828199919
 20
23.37144247806269
 11
-3.58174543682909
 21
24.35911679471946
  0
LINE
  5
3DB
100
AcDbEntity
  8
1
  6
CONTINUOUS
 62
             7
100
AcDbLine
 10
-2.75298828199919
 20
23.37144247806269
 11
-4.29024808793599
 21
14.65320888862379
  0
LINE
  5
3DA
100
AcDbEntity
  8
1
  6
CONTINUOUS
 62
             7
100
AcDbLine
 10
-3.58174543682909
 20
24.35911679471946
 11
-4.78818820682877
 21
23.34679111137622
  0
LINE
  5
3D9
100
AcDbEntity
  8
1
  6
CONTINUOUS
 62
             7
100
AcDbLine
 10
-4.78818820682877
 20
23.34679111137622
 11
-6.3481161724562
 21
14.5
  0
LINE
  5
3D8
100
AcDbEntity
  8
1
  6
CONTINUOUS
 62
             7
100
AcDbLine
 10
4.59977939337532
 20
25.5
 11
5.42853654820531
 21
24.51232568334325
  0
LINE
  5
3D7
100
AcDbEntity
  8
1
  6
CONTINUOUS
 62
             7
100
AcDbLine
 10
4.59977939337532
 20
25.5
 11
-2.22209377820559
 21
25.5
  0
LINE
  5
3D6
100
AcDbEntity
  8
1
  6
CONTINUOUS
 62
             7
100
AcDbLine
 10
5.42853654820531
 20
24.51232568334325
 11
4.22209377820562
 21
23.5
  0
LINE
  5
3D5
100
AcDbEntity
  8
1
  6
CONTINUOUS
 62
             7
100
AcDbLine
 10
4.35065130014292
 20
23.34679111137622
 11
5.55709407014263
 21
24.35911679471946
  0
LINE
  5
3D4
100
AcDbEntity
  8
1
  6
CONTINUOUS
 62
             7
100
AcDbLine
 10
5.55709407014263
 20
24.35911679471946
 11
6.3858512249725
 21
23.37144247806269
  0
LINE
  5
3D3
100
AcDbEntity
  8
1
  6
CONTINUOUS
 62
             7
100
AcDbLine
 10
4.75298828199911
 20
25.62855752193731
 11
5.58174543682913
 21
24.64088320528055
  0
LINE
  5
3D2
100
AcDbEntity
  8
1
  6
CONTINUOUS
 62
             7
100
AcDbLine
 10
5.58174543682913
 20
24.64088320528055
 11
6.78818820682881
 21
25.65320888862379
  0
LINE
  5
3D1
100
AcDbEntity
  8
1
  6
CONTINUOUS
 62
             7
100
AcDbLine
 10
6.16169056599873
 20
34.5
 11
7.44473778031031
 21
35.5766044443119
  0
LINE
  5
3D0
100
AcDbEntity
  8
1
  6
CONTINUOUS
 62
             7
100
AcDbLine
 10
7.5732953022476
 20
35.42339555568811
 11
6.29024808793602
 21
34.34679111137621
  0
LINE
  5
3CF
100
AcDbEntity
  8
1
  6
CONTINUOUS
 62
             7
100
AcDbLine
 10
6.29024808793602
 20
34.34679111137621
 11
4.75298828199911
 21
25.62855752193731
  0
LINE
  5
3CE
100
AcDbEntity
  8
1
  6
CONTINUOUS
 62
             7
100
AcDbLine
 10
7.5732953022476
 20
35.42339555568811
 11
8.34811617245621
 21
34.5
  0
LINE
  5
3CD
100
AcDbEntity
  8
1
  6
CONTINUOUS
 62
             7
100
AcDbLine
 10
-1.70642741000469
 20
35.43572123903135
 11
-0.813391494206
 21
34.37144247806269
  0
LINE
  5
3CC
100
AcDbEntity
  8
1
  6
CONTINUOUS
 62
             7
100
AcDbLine
 10
-0.66018260558229
 20
34.5
 11
-1.55321852138089
 21
35.56427876096866
  0
LINE
  5
3CB
100
AcDbEntity
  8
1
  6
CONTINUOUS
 62
             7
100
AcDbLine
 10
-0.66018260558229
 20
34.5
 11
6.16169056599873
 21
34.5
  0
LINE
  5
3CA
100
AcDbEntity
  8
1
  6
CONTINUOUS
 62
             7
100
AcDbLine
 10
-1.55321852138089
 20
35.56427876096866
 11
-0.4380693730985
 21
36.5
  0
LINE
  5
3C9
100
AcDbEntity
  8
1
  6
CONTINUOUS
 62
             7
100
AcDbLine
 10
-5.5732953022476
 20
13.5766044443119
 11
-4.29024808793599
 21
14.65320888862379
  0
LINE
  5
3C8
100
AcDbEntity
  8
1
  6
CONTINUOUS
 62
             7
100
AcDbLine
 10
-4.16169056599869
 20
14.5
 11
-5.44473778031027
 21
13.4233955556881
  0
LINE
  5
3C7
100
AcDbEntity
  8
1
  6
CONTINUOUS
 62
             7
100
AcDbLine
 10
-4.16169056599869
 20
14.5
 11
2.66018260558221
 21
14.5
  0
LINE
  5
3C6
100
AcDbEntity
  8
1
  6
CONTINUOUS
 62
             7
100
AcDbLine
 10
-5.44473778031027
 20
13.4233955556881
 11
-4.66991691010167
 21
12.5
  0
LINE
  5
3C5
100
AcDbEntity
  8
1
  6
CONTINUOUS
 62
             7
100
AcDbLine
 10
2.66018260558221
 20
14.5
 11
3.5532185213809
 21
13.43572123903135
  0
LINE
  5
3C4
100
AcDbEntity
  8
1
  6
CONTINUOUS
 62
             7
100
AcDbLine
 10
3.70642741000461
 20
13.56427876096866
 11
2.81339149420601
 21
14.62855752193731
  0
LINE
  5
3C3
100
AcDbEntity
  8
1
  6
CONTINUOUS
 62
             7
100
AcDbLine
 10
2.81339149420601
 20
14.62855752193731
 11
4.35065130014292
 21
23.34679111137622
  0
LINE
  5
3C2
100
AcDbEntity
  8
1
  6
CONTINUOUS
 62
             7
100
AcDbLine
 10
3.70642741000461
 20
13.56427876096866
 11
4.82157655828693
 21
14.5
  0
LINE
  5
3C1
100
AcDbEntity
  8
1
  6
CONTINUOUS
 62
             7
100
AcDbLine
 10
-0.62290340827999
 20
34.3
 11
1.37454018672432
 21
27.20000000000001
  0
LINE
  5
3C0
100
AcDbEntity
  8
1
  6
CONTINUOUS
 62
             7
100
AcDbLine
 10
1.57762550910141
 20
27.20000000000001
 11
6.07891223016592
 21
34.3
  0
LINE
  5
3BF
100
AcDbEntity
  8
1
  6
CONTINUOUS
 62
             7
100
AcDbLine
 10
-0.62290340827999
 20
34.3
 11
-1.34333264985318
 21
30.21424273994487
  0
LINE
  5
3BE
100
AcDbEntity
  8
1
  6
CONTINUOUS
 62
             7
100
AcDbLine
 10
-1.34333264985318
 20
30.21424273994487
 11
-0.07334036151559
 21
25.70000000000001
  0
LINE
  5
3BD
100
AcDbEntity
  8
1
  6
CONTINUOUS
 62
             7
100
AcDbLine
 10
-0.07334036151559
 20
25.70000000000001
 11
1.11004971566161
 21
25.70000000000001
  0
LINE
  5
3BC
100
AcDbEntity
  8
1
  6
CONTINUOUS
 62
             7
100
AcDbLine
 10
1.11004971566161
 20
25.70000000000001
 11
1.37454018672432
 21
27.20000000000001
  0
LINE
  5
3BB
100
AcDbEntity
  8
1
  6
CONTINUOUS
 62
             7
100
AcDbLine
 10
1.57762550910141
 20
27.20000000000001
 11
1.31313503803873
 21
25.70000000000001
  0
LINE
  5
3BA
100
AcDbEntity
  8
1
  6
CONTINUOUS
 62
             7
100
AcDbLine
 10
1.31313503803873
 20
25.70000000000001
 11
2.75791007607942
 21
25.70000000000001
  0
LINE
  5
3B9
100
AcDbEntity
  8
1
  6
CONTINUOUS
 62
             7
100
AcDbLine
 10
2.75791007607942
 20
25.70000000000001
 11
5.25777609575622
 21
29.64310556949101
  0
LINE
  5
3B8
100
AcDbEntity
  8
1
  6
CONTINUOUS
 62
             7
100
AcDbLine
 10
5.25777609575622
 20
29.64310556949101
 11
6.07891223016592
 21
34.3
  0
LINE
  5
3B7
100
AcDbEntity
  8
1
  6
CONTINUOUS
 62
             7
100
AcDbLine
 10
0.88995028433843
 20
23.3
 11
0.62545981327571
 21
21.8
  0
LINE
  5
3B6
100
AcDbEntity
  8
1
  6
CONTINUOUS
 62
             7
100
AcDbLine
 10
2.62290340828003
 20
14.70000000000002
 11
0.62545981327571
 21
21.8
  0
LINE
  5
3B5
100
AcDbEntity
  8
1
  6
CONTINUOUS
 62
             7
100
AcDbLine
 10
0.42237449089862
 20
21.8
 11
0.68686496196131
 21
23.3
  0
LINE
  5
3B4
100
AcDbEntity
  8
1
  6
CONTINUOUS
 62
             7
100
AcDbLine
 10
0.42237449089862
 20
21.8
 11
-4.07891223016588
 21
14.70000000000002
  0
LINE
  5
3B3
100
AcDbEntity
  8
1
  6
CONTINUOUS
 62
             7
100
AcDbLine
 10
2.07334036151551
 20
23.3
 11
0.88995028433843
 21
23.3
  0
LINE
  5
3B2
100
AcDbEntity
  8
1
  6
CONTINUOUS
 62
             7
100
AcDbLine
 10
3.34333264985321
 20
18.78575726005515
 11
2.07334036151551
 21
23.3
  0
LINE
  5
3B1
100
AcDbEntity
  8
1
  6
CONTINUOUS
 62
             7
100
AcDbLine
 10
-0.75791007607938
 20
23.3
 11
-3.25777609575618
 21
19.35689443050901
  0
LINE
  5
3B0
100
AcDbEntity
  8
1
  6
CONTINUOUS
 62
             7
100
AcDbLine
 10
0.68686496196131
 20
23.3
 11
-0.75791007607938
 21
23.3
  0
LINE
  5
3AF
100
AcDbEntity
  8
1
  6
CONTINUOUS
 62
             7
100
AcDbLine
 10
-3.25777609575618
 20
19.35689443050901
 11
-4.07891223016588
 21
14.70000000000002
  0
LINE
  5
3AE
100
AcDbEntity
  8
1
  6
CONTINUOUS
 62
             7
100
AcDbLine
 10
2.62290340828003
 20
14.70000000000002
 11
3.34333264985321
 21
18.78575726005515
  0
LINE
  5
3AD
100
AcDbEntity
  8
1
  6
CONTINUOUS
 62
             7
100
AcDbLine
 10
18.32157655828693
 20
14.5
 11
19.88585122497251
 21
23.37144247806269
  0
LINE
  5
3AC
100
AcDbEntity
  8
1
  6
CONTINUOUS
 62
             7
100
AcDbLine
 10
15.9380693730985
 20
12.5
 11
17.0532185213809
 21
13.43572123903135
  0
LINE
  5
3AB
100
AcDbEntity
  8
1
  6
CONTINUOUS
 62
             7
100
AcDbLine
 10
8.83008308989833
 20
12.5
 11
15.9380693730985
 21
12.5
  0
LINE
  5
3AA
100
AcDbEntity
  8
1
  6
CONTINUOUS
 62
             7
100
AcDbLine
 10
7.1518838275438
 20
14.5
 11
7.9267046977524
 21
13.5766044443119
  0
LINE
  5
3A9
100
AcDbEntity
  8
1
  6
CONTINUOUS
 62
             7
100
AcDbLine
 10
21.84811617245621
 20
34.5
 11
20.28818820682881
 21
25.65320888862379
  0
LINE
  5
3A8
100
AcDbEntity
  8
1
  6
CONTINUOUS
 62
             7
100
AcDbLine
 10
20.16991691010171
 20
36.5
 11
20.94473778031031
 21
35.5766044443119
  0
LINE
  5
3A7
100
AcDbEntity
  8
1
  6
CONTINUOUS
 62
             7
100
AcDbLine
 10
13.0619306269015
 20
36.5
 11
20.16991691010171
 21
36.5
  0
LINE
  5
3A6
100
AcDbEntity
  8
1
  6
CONTINUOUS
 62
             7
100
AcDbLine
 10
10.67842344171302
 20
34.5
 11
11.79357258999531
 21
35.43572123903135
  0
LINE
  5
3A5
100
AcDbEntity
  8
1
  6
CONTINUOUS
 62
             7
100
AcDbLine
 10
9.11414877502742
 20
25.62855752193731
 11
9.94290592985741
 21
24.64088320528055
  0
LINE
  5
3A4
100
AcDbEntity
  8
1
  6
CONTINUOUS
 62
             7
100
AcDbLine
 10
9.11414877502742
 20
25.62855752193731
 11
10.67842344171302
 21
34.5
  0
LINE
  5
3A3
100
AcDbEntity
  8
1
  6
CONTINUOUS
 62
             7
100
AcDbLine
 10
9.94290592985741
 20
24.64088320528055
 11
11.14934869985711
 21
25.65320888862379
  0
LINE
  5
3A2
100
AcDbEntity
  8
1
  6
CONTINUOUS
 62
             7
100
AcDbLine
 10
11.14934869985711
 20
25.65320888862379
 11
12.686608505794
 21
34.37144247806269
  0
LINE
  5
3A1
100
AcDbEntity
  8
1
  6
CONTINUOUS
 62
             7
100
AcDbLine
 10
11.27790622179441
 20
25.5
 11
10.0714634517947
 21
24.48767431665677
  0
LINE
  5
3A0
100
AcDbEntity
  8
1
  6
CONTINUOUS
 62
             7
100
AcDbLine
 10
10.0714634517947
 20
24.48767431665677
 11
10.9002206066246
 21
23.5
  0
LINE
  5
39F
100
AcDbEntity
  8
1
  6
CONTINUOUS
 62
             7
100
AcDbLine
 10
10.9002206066246
 20
23.5
 11
17.72209377820562
 21
23.5
  0
LINE
  5
39E
100
AcDbEntity
  8
1
  6
CONTINUOUS
 62
             7
100
AcDbLine
 10
10.74701171800081
 20
23.37144247806269
 11
9.91825456317091
 21
24.35911679471946
  0
LINE
  5
39D
100
AcDbEntity
  8
1
  6
CONTINUOUS
 62
             7
100
AcDbLine
 10
10.74701171800081
 20
23.37144247806269
 11
9.20975191206401
 21
14.65320888862379
  0
LINE
  5
39C
100
AcDbEntity
  8
1
  6
CONTINUOUS
 62
             7
100
AcDbLine
 10
9.91825456317091
 20
24.35911679471946
 11
8.71181179317123
 21
23.34679111137622
  0
LINE
  5
39B
100
AcDbEntity
  8
1
  6
CONTINUOUS
 62
             7
100
AcDbLine
 10
8.71181179317123
 20
23.34679111137622
 11
7.1518838275438
 21
14.5
  0
LINE
  5
39A
100
AcDbEntity
  8
1
  6
CONTINUOUS
 62
             7
100
AcDbLine
 10
18.09977939337531
 20
25.5
 11
18.92853654820531
 21
24.51232568334325
  0
LINE
  5
399
100
AcDbEntity
  8
1
  6
CONTINUOUS
 62
             7
100
AcDbLine
 10
18.09977939337531
 20
25.5
 11
11.27790622179441
 21
25.5
  0
LINE
  5
398
100
AcDbEntity
  8
1
  6
CONTINUOUS
 62
             7
100
AcDbLine
 10
18.92853654820531
 20
24.51232568334325
 11
17.72209377820562
 21
23.5
  0
LINE
  5
397
100
AcDbEntity
  8
1
  6
CONTINUOUS
 62
             7
100
AcDbLine
 10
17.85065130014291
 20
23.34679111137622
 11
19.05709407014263
 21
24.35911679471946
  0
LINE
  5
396
100
AcDbEntity
  8
1
  6
CONTINUOUS
 62
             7
100
AcDbLine
 10
19.05709407014263
 20
24.35911679471946
 11
19.88585122497251
 21
23.37144247806269
  0
LINE
  5
395
100
AcDbEntity
  8
1
  6
CONTINUOUS
 62
             7
100
AcDbLine
 10
18.25298828199911
 20
25.62855752193731
 11
19.08174543682912
 21
24.64088320528055
  0
LINE
  5
394
100
AcDbEntity
  8
1
  6
CONTINUOUS
 62
             7
100
AcDbLine
 10
19.08174543682912
 20
24.64088320528055
 11
20.28818820682881
 21
25.65320888862379
  0
LINE
  5
393
100
AcDbEntity
  8
1
  6
CONTINUOUS
 62
             7
100
AcDbLine
 10
19.66169056599873
 20
34.5
 11
20.94473778031031
 21
35.5766044443119
  0
LINE
  5
392
100
AcDbEntity
  8
1
  6
CONTINUOUS
 62
             7
100
AcDbLine
 10
21.07329530224761
 20
35.42339555568811
 11
19.79024808793603
 21
34.34679111137621
  0
LINE
  5
391
100
AcDbEntity
  8
1
  6
CONTINUOUS
 62
             7
100
AcDbLine
 10
19.79024808793603
 20
34.34679111137621
 11
18.25298828199911
 21
25.62855752193731
  0
LINE
  5
390
100
AcDbEntity
  8
1
  6
CONTINUOUS
 62
             7
100
AcDbLine
 10
21.07329530224761
 20
35.42339555568811
 11
21.84811617245621
 21
34.5
  0
LINE
  5
38F
100
AcDbEntity
  8
1
  6
CONTINUOUS
 62
             7
100
AcDbLine
 10
11.79357258999531
 20
35.43572123903135
 11
12.686608505794
 21
34.37144247806269
  0
LINE
  5
38E
100
AcDbEntity
  8
1
  6
CONTINUOUS
 62
             7
100
AcDbLine
 10
12.83981739441771
 20
34.5
 11
11.9467814786191
 21
35.56427876096866
  0
LINE
  5
38D
100
AcDbEntity
  8
1
  6
CONTINUOUS
 62
             7
100
AcDbLine
 10
12.83981739441771
 20
34.5
 11
19.66169056599873
 21
34.5
  0
LINE
  5
38C
100
AcDbEntity
  8
1
  6
CONTINUOUS
 62
             7
100
AcDbLine
 10
11.9467814786191
 20
35.56427876096866
 11
13.0619306269015
 21
36.5
  0
LINE
  5
38B
100
AcDbEntity
  8
1
  6
CONTINUOUS
 62
             7
100
AcDbLine
 10
7.9267046977524
 20
13.5766044443119
 11
9.20975191206401
 21
14.65320888862379
  0
LINE
  5
38A
100
AcDbEntity
  8
1
  6
CONTINUOUS
 62
             7
100
AcDbLine
 10
9.33830943400131
 20
14.5
 11
8.05526221968973
 21
13.4233955556881
  0
LINE
  5
389
100
AcDbEntity
  8
1
  6
CONTINUOUS
 62
             7
100
AcDbLine
 10
9.33830943400131
 20
14.5
 11
16.16018260558221
 21
14.5
  0
LINE
  5
388
100
AcDbEntity
  8
1
  6
CONTINUOUS
 62
             7
100
AcDbLine
 10
8.05526221968973
 20
13.4233955556881
 11
8.83008308989833
 21
12.5
  0
LINE
  5
387
100
AcDbEntity
  8
1
  6
CONTINUOUS
 62
             7
100
AcDbLine
 10
16.16018260558221
 20
14.5
 11
17.0532185213809
 21
13.43572123903135
  0
LINE
  5
386
100
AcDbEntity
  8
1
  6
CONTINUOUS
 62
             7
100
AcDbLine
 10
17.20642741000462
 20
13.56427876096866
 11
16.31339149420601
 21
14.62855752193731
  0
LINE
  5
385
100
AcDbEntity
  8
1
  6
CONTINUOUS
 62
             7
100
AcDbLine
 10
16.31339149420601
 20
14.62855752193731
 11
17.85065130014291
 21
23.34679111137622
  0
LINE
  5
384
100
AcDbEntity
  8
1
  6
CONTINUOUS
 62
             7
100
AcDbLine
 10
17.20642741000462
 20
13.56427876096866
 11
18.32157655828693
 21
14.5
  0
LINE
  5
383
100
AcDbEntity
  8
1
  6
CONTINUOUS
 62
             7
100
AcDbLine
 10
12.87709659172
 20
34.3
 11
14.87454018672432
 21
27.20000000000001
  0
LINE
  5
382
100
AcDbEntity
  8
1
  6
CONTINUOUS
 62
             7
100
AcDbLine
 10
15.07762550910141
 20
27.20000000000001
 11
19.57891223016591
 21
34.3
  0
LINE
  5
381
100
AcDbEntity
  8
1
  6
CONTINUOUS
 62
             7
100
AcDbLine
 10
12.87709659172
 20
34.3
 11
12.15666735014682
 21
30.21424273994487
  0
LINE
  5
380
100
AcDbEntity
  8
1
  6
CONTINUOUS
 62
             7
100
AcDbLine
 10
12.15666735014682
 20
30.21424273994487
 11
13.42665963848441
 21
25.70000000000001
  0
LINE
  5
37F
100
AcDbEntity
  8
1
  6
CONTINUOUS
 62
             7
100
AcDbLine
 10
13.42665963848441
 20
25.70000000000001
 11
14.6100497156616
 21
25.70000000000001
  0
LINE
  5
37E
100
AcDbEntity
  8
1
  6
CONTINUOUS
 62
             7
100
AcDbLine
 10
14.6100497156616
 20
25.70000000000001
 11
14.87454018672432
 21
27.20000000000001
  0
LINE
  5
37D
100
AcDbEntity
  8
1
  6
CONTINUOUS
 62
             7
100
AcDbLine
 10
15.07762550910141
 20
27.20000000000001
 11
14.81313503803872
 21
25.70000000000001
  0
LINE
  5
37C
100
AcDbEntity
  8
1
  6
CONTINUOUS
 62
             7
100
AcDbLine
 10
14.81313503803872
 20
25.70000000000001
 11
16.25791007607941
 21
25.70000000000001
  0
LINE
  5
37B
100
AcDbEntity
  8
1
  6
CONTINUOUS
 62
             7
100
AcDbLine
 10
16.25791007607941
 20
25.70000000000001
 11
18.75777609575621
 21
29.64310556949101
  0
LINE
  5
37A
100
AcDbEntity
  8
1
  6
CONTINUOUS
 62
             7
100
AcDbLine
 10
18.75777609575621
 20
29.64310556949101
 11
19.57891223016591
 21
34.3
  0
LINE
  5
379
100
AcDbEntity
  8
1
  6
CONTINUOUS
 62
             7
100
AcDbLine
 10
14.38995028433843
 20
23.3
 11
14.12545981327571
 21
21.8
  0
LINE
  5
378
100
AcDbEntity
  8
1
  6
CONTINUOUS
 62
             7
100
AcDbLine
 10
16.12290340828002
 20
14.70000000000002
 11
14.12545981327571
 21
21.8
  0
LINE
  5
377
100
AcDbEntity
  8
1
  6
CONTINUOUS
 62
             7
100
AcDbLine
 10
13.92237449089862
 20
21.8
 11
14.18686496196131
 21
23.3
  0
LINE
  5
376
100
AcDbEntity
  8
1
  6
CONTINUOUS
 62
             7
100
AcDbLine
 10
13.92237449089862
 20
21.8
 11
9.42108776983412
 21
14.70000000000002
  0
LINE
  5
375
100
AcDbEntity
  8
1
  6
CONTINUOUS
 62
             7
100
AcDbLine
 10
15.57334036151551
 20
23.3
 11
14.38995028433843
 21
23.3
  0
LINE
  5
374
100
AcDbEntity
  8
1
  6
CONTINUOUS
 62
             7
100
AcDbLine
 10
16.84333264985321
 20
18.78575726005515
 11
15.57334036151551
 21
23.3
  0
LINE
  5
373
100
AcDbEntity
  8
1
  6
CONTINUOUS
 62
             7
100
AcDbLine
 10
12.74208992392062
 20
23.3
 11
10.24222390424382
 21
19.35689443050901
  0
LINE
  5
372
100
AcDbEntity
  8
1
  6
CONTINUOUS
 62
             7
100
AcDbLine
 10
14.18686496196131
 20
23.3
 11
12.74208992392062
 21
23.3
  0
LINE
  5
371
100
AcDbEntity
  8
1
  6
CONTINUOUS
 62
             7
100
AcDbLine
 10
10.24222390424382
 20
19.35689443050901
 11
9.42108776983412
 21
14.70000000000002
  0
LINE
  5
370
100
AcDbEntity
  8
1
  6
CONTINUOUS
 62
             7
100
AcDbLine
 10
16.12290340828002
 20
14.70000000000002
 11
16.84333264985321
 21
18.78575726005515
  0
LINE
  5
36F
100
AcDbEntity
  8
1
  6
CONTINUOUS
 62
             7
100
AcDbLine
 10
29.62290340828002
 20
14.70000000000002
 11
30.34333264985321
 21
18.78575726005515
  0
LINE
  5
36E
100
AcDbEntity
  8
1
  6
CONTINUOUS
 62
             7
100
AcDbLine
 10
23.74222390424382
 20
19.35689443050901
 11
22.92108776983412
 21
14.70000000000002
  0
LINE
  5
36D
100
AcDbEntity
  8
1
  6
CONTINUOUS
 62
             7
100
AcDbLine
 10
27.68686496196131
 20
23.3
 11
26.24208992392062
 21
23.3
  0
LINE
  5
36C
100
AcDbEntity
  8
1
  6
CONTINUOUS
 62
             7
100
AcDbLine
 10
26.24208992392062
 20
23.3
 11
23.74222390424382
 21
19.35689443050901
  0
LINE
  5
36B
100
AcDbEntity
  8
1
  6
CONTINUOUS
 62
             7
100
AcDbLine
 10
30.34333264985321
 20
18.78575726005515
 11
29.07334036151551
 21
23.3
  0
LINE
  5
36A
100
AcDbEntity
  8
1
  6
CONTINUOUS
 62
             7
100
AcDbLine
 10
29.07334036151551
 20
23.3
 11
27.88995028433843
 21
23.3
  0
LINE
  5
369
100
AcDbEntity
  8
1
  6
CONTINUOUS
 62
             7
100
AcDbLine
 10
27.42237449089862
 20
21.8
 11
22.92108776983412
 21
14.70000000000002
  0
LINE
  5
368
100
AcDbEntity
  8
1
  6
CONTINUOUS
 62
             7
100
AcDbLine
 10
27.42237449089862
 20
21.8
 11
27.68686496196131
 21
23.3
  0
LINE
  5
367
100
AcDbEntity
  8
1
  6
CONTINUOUS
 62
             7
100
AcDbLine
 10
29.62290340828002
 20
14.70000000000002
 11
27.62545981327572
 21
21.8
  0
LINE
  5
366
100
AcDbEntity
  8
1
  6
CONTINUOUS
 62
             7
100
AcDbLine
 10
27.88995028433843
 20
23.3
 11
27.62545981327572
 21
21.8
  0
LINE
  5
365
100
AcDbEntity
  8
1
  6
CONTINUOUS
 62
             7
100
AcDbLine
 10
32.25777609575621
 20
29.64310556949101
 11
33.07891223016591
 21
34.3
  0
LINE
  5
364
100
AcDbEntity
  8
1
  6
CONTINUOUS
 62
             7
100
AcDbLine
 10
29.75791007607941
 20
25.70000000000001
 11
32.25777609575621
 21
29.64310556949101
  0
LINE
  5
363
100
AcDbEntity
  8
1
  6
CONTINUOUS
 62
             7
100
AcDbLine
 10
28.31313503803872
 20
25.70000000000001
 11
29.75791007607941
 21
25.70000000000001
  0
LINE
  5
362
100
AcDbEntity
  8
1
  6
CONTINUOUS
 62
             7
100
AcDbLine
 10
28.57762550910141
 20
27.20000000000001
 11
28.31313503803872
 21
25.70000000000001
  0
LINE
  5
361
100
AcDbEntity
  8
1
  6
CONTINUOUS
 62
             7
100
AcDbLine
 10
28.1100497156616
 20
25.70000000000001
 11
28.37454018672433
 21
27.20000000000001
  0
LINE
  5
360
100
AcDbEntity
  8
1
  6
CONTINUOUS
 62
             7
100
AcDbLine
 10
26.92665963848441
 20
25.70000000000001
 11
28.1100497156616
 21
25.70000000000001
  0
LINE
  5
35F
100
AcDbEntity
  8
1
  6
CONTINUOUS
 62
             7
100
AcDbLine
 10
25.65666735014682
 20
30.21424273994487
 11
26.92665963848441
 21
25.70000000000001
  0
LINE
  5
35E
100
AcDbEntity
  8
1
  6
CONTINUOUS
 62
             7
100
AcDbLine
 10
26.37709659172
 20
34.3
 11
25.65666735014682
 21
30.21424273994487
  0
LINE
  5
35D
100
AcDbEntity
  8
1
  6
CONTINUOUS
 62
             7
100
AcDbLine
 10
28.57762550910141
 20
27.20000000000001
 11
33.07891223016591
 21
34.3
  0
LINE
  5
35C
100
AcDbEntity
  8
1
  6
CONTINUOUS
 62
             7
100
AcDbLine
 10
26.37709659172
 20
34.3
 11
28.37454018672433
 21
27.20000000000001
  0
LINE
  5
35B
100
AcDbEntity
  8
1
  6
CONTINUOUS
 62
             7
100
AcDbLine
 10
30.70642741000462
 20
13.56427876096866
 11
31.82157655828693
 21
14.5
  0
LINE
  5
35A
100
AcDbEntity
  8
1
  6
CONTINUOUS
 62
             7
100
AcDbLine
 10
29.81339149420601
 20
14.62855752193731
 11
31.35065130014291
 21
23.34679111137622
  0
LINE
  5
359
100
AcDbEntity
  8
1
  6
CONTINUOUS
 62
             7
100
AcDbLine
 10
30.70642741000462
 20
13.56427876096866
 11
29.81339149420601
 21
14.62855752193731
  0
LINE
  5
358
100
AcDbEntity
  8
1
  6
CONTINUOUS
 62
             7
100
AcDbLine
 10
29.66018260558221
 20
14.5
 11
30.5532185213809
 21
13.43572123903135
  0
LINE
  5
357
100
AcDbEntity
  8
1
  6
CONTINUOUS
 62
             7
100
AcDbLine
 10
21.55526221968972
 20
13.4233955556881
 11
22.33008308989832
 21
12.5
  0
LINE
  5
356
100
AcDbEntity
  8
1
  6
CONTINUOUS
 62
             7
100
AcDbLine
 10
22.8383094340013
 20
14.5
 11
29.66018260558221
 21
14.5
  0
LINE
  5
355
100
AcDbEntity
  8
1
  6
CONTINUOUS
 62
             7
100
AcDbLine
 10
22.8383094340013
 20
14.5
 11
21.55526221968972
 21
13.4233955556881
  0
LINE
  5
354
100
AcDbEntity
  8
1
  6
CONTINUOUS
 62
             7
100
AcDbLine
 10
21.4267046977524
 20
13.5766044443119
 11
22.70975191206401
 21
14.65320888862379
  0
LINE
  5
353
100
AcDbEntity
  8
1
  6
CONTINUOUS
 62
             7
100
AcDbLine
 10
25.44678147861911
 20
35.56427876096866
 11
26.5619306269015
 21
36.5
  0
LINE
  5
352
100
AcDbEntity
  8
1
  6
CONTINUOUS
 62
             7
100
AcDbLine
 10
26.33981739441772
 20
34.5
 11
33.16169056599874
 21
34.5
  0
LINE
  5
351
100
AcDbEntity
  8
1
  6
CONTINUOUS
 62
             7
100
AcDbLine
 10
26.33981739441772
 20
34.5
 11
25.44678147861911
 21
35.56427876096866
  0
LINE
  5
350
100
AcDbEntity
  8
1
  6
CONTINUOUS
 62
             7
100
AcDbLine
 10
25.29357258999531
 20
35.43572123903135
 11
26.186608505794
 21
34.37144247806269
  0
LINE
  5
34F
100
AcDbEntity
  8
1
  6
CONTINUOUS
 62
             7
100
AcDbLine
 10
34.5732953022476
 20
35.42339555568811
 11
35.3481161724562
 21
34.5
  0
LINE
  5
34E
100
AcDbEntity
  8
1
  6
CONTINUOUS
 62
             7
100
AcDbLine
 10
33.29024808793602
 20
34.34679111137621
 11
31.75298828199911
 21
25.62855752193731
  0
LINE
  5
34D
100
AcDbEntity
  8
1
  6
CONTINUOUS
 62
             7
100
AcDbLine
 10
34.5732953022476
 20
35.42339555568811
 11
33.29024808793602
 21
34.34679111137621
  0
LINE
  5
34C
100
AcDbEntity
  8
1
  6
CONTINUOUS
 62
             7
100
AcDbLine
 10
33.16169056599874
 20
34.5
 11
34.44473778031032
 21
35.5766044443119
  0
LINE
  5
34B
100
AcDbEntity
  8
1
  6
CONTINUOUS
 62
             7
100
AcDbLine
 10
32.58174543682912
 20
24.64088320528055
 11
33.78818820682882
 21
25.65320888862379
  0
LINE
  5
34A
100
AcDbEntity
  8
1
  6
CONTINUOUS
 62
             7
100
AcDbLine
 10
31.75298828199911
 20
25.62855752193731
 11
32.58174543682912
 21
24.64088320528055
  0
LINE
  5
349
100
AcDbEntity
  8
1
  6
CONTINUOUS
 62
             7
100
AcDbLine
 10
32.55709407014264
 20
24.35911679471946
 11
33.3858512249725
 21
23.37144247806269
  0
LINE
  5
348
100
AcDbEntity
  8
1
  6
CONTINUOUS
 62
             7
100
AcDbLine
 10
31.35065130014291
 20
23.34679111137622
 11
32.55709407014264
 21
24.35911679471946
  0
LINE
  5
347
100
AcDbEntity
  8
1
  6
CONTINUOUS
 62
             7
100
AcDbLine
 10
32.4285365482053
 20
24.51232568334325
 11
31.22209377820562
 21
23.5
  0
LINE
  5
346
100
AcDbEntity
  8
1
  6
CONTINUOUS
 62
             7
100
AcDbLine
 10
31.59977939337531
 20
25.5
 11
24.77790622179441
 21
25.5
  0
LINE
  5
345
100
AcDbEntity
  8
1
  6
CONTINUOUS
 62
             7
100
AcDbLine
 10
31.59977939337531
 20
25.5
 11
32.4285365482053
 21
24.51232568334325
  0
LINE
  5
344
100
AcDbEntity
  8
1
  6
CONTINUOUS
 62
             7
100
AcDbLine
 10
22.21181179317122
 20
23.34679111137622
 11
20.6518838275438
 21
14.5
  0
LINE
  5
343
100
AcDbEntity
  8
1
  6
CONTINUOUS
 62
             7
100
AcDbLine
 10
23.41825456317091
 20
24.35911679471946
 11
22.21181179317122
 21
23.34679111137622
  0
LINE
  5
342
100
AcDbEntity
  8
1
  6
CONTINUOUS
 62
             7
100
AcDbLine
 10
24.24701171800081
 20
23.37144247806269
 11
22.70975191206401
 21
14.65320888862379
  0
LINE
  5
341
100
AcDbEntity
  8
1
  6
CONTINUOUS
 62
             7
100
AcDbLine
 10
24.24701171800081
 20
23.37144247806269
 11
23.41825456317091
 21
24.35911679471946
  0
LINE
  5
340
100
AcDbEntity
  8
1
  6
CONTINUOUS
 62
             7
100
AcDbLine
 10
24.4002206066246
 20
23.5
 11
31.22209377820562
 21
23.5
  0
LINE
  5
33F
100
AcDbEntity
  8
1
  6
CONTINUOUS
 62
             7
100
AcDbLine
 10
23.5714634517947
 20
24.48767431665677
 11
24.4002206066246
 21
23.5
  0
LINE
  5
33E
100
AcDbEntity
  8
1
  6
CONTINUOUS
 62
             7
100
AcDbLine
 10
24.77790622179441
 20
25.5
 11
23.5714634517947
 21
24.48767431665677
  0
LINE
  5
33D
100
AcDbEntity
  8
1
  6
CONTINUOUS
 62
             7
100
AcDbLine
 10
24.64934869985711
 20
25.65320888862379
 11
26.186608505794
 21
34.37144247806269
  0
LINE
  5
33C
100
AcDbEntity
  8
1
  6
CONTINUOUS
 62
             7
100
AcDbLine
 10
23.4429059298574
 20
24.64088320528055
 11
24.64934869985711
 21
25.65320888862379
  0
LINE
  5
33B
100
AcDbEntity
  8
1
  6
CONTINUOUS
 62
             7
100
AcDbLine
 10
22.61414877502742
 20
25.62855752193731
 11
24.17842344171302
 21
34.5
  0
LINE
  5
33A
100
AcDbEntity
  8
1
  6
CONTINUOUS
 62
             7
100
AcDbLine
 10
22.61414877502742
 20
25.62855752193731
 11
23.4429059298574
 21
24.64088320528055
  0
LINE
  5
339
100
AcDbEntity
  8
1
  6
CONTINUOUS
 62
             7
100
AcDbLine
 10
24.17842344171302
 20
34.5
 11
25.29357258999531
 21
35.43572123903135
  0
LINE
  5
338
100
AcDbEntity
  8
1
  6
CONTINUOUS
 62
             7
100
AcDbLine
 10
26.5619306269015
 20
36.5
 11
33.66991691010172
 21
36.5
  0
LINE
  5
337
100
AcDbEntity
  8
1
  6
CONTINUOUS
 62
             7
100
AcDbLine
 10
33.66991691010172
 20
36.5
 11
34.44473778031032
 21
35.5766044443119
  0
LINE
  5
336
100
AcDbEntity
  8
1
  6
CONTINUOUS
 62
             7
100
AcDbLine
 10
35.3481161724562
 20
34.5
 11
33.78818820682882
 21
25.65320888862379
  0
LINE
  5
335
100
AcDbEntity
  8
1
  6
CONTINUOUS
 62
             7
100
AcDbLine
 10
20.6518838275438
 20
14.5
 11
21.4267046977524
 21
13.5766044443119
  0
LINE
  5
334
100
AcDbEntity
  8
1
  6
CONTINUOUS
 62
             7
100
AcDbLine
 10
22.33008308989832
 20
12.5
 11
29.4380693730985
 21
12.5
  0
LINE
  5
333
100
AcDbEntity
  8
1
  6
CONTINUOUS
 62
             7
100
AcDbLine
 10
29.4380693730985
 20
12.5
 11
30.5532185213809
 21
13.43572123903135
  0
LINE
  5
332
100
AcDbEntity
  8
1
  6
CONTINUOUS
 62
             7
100
AcDbLine
 10
31.82157655828693
 20
14.5
 11
33.3858512249725
 21
23.37144247806269
  0
LINE
  5
331
100
AcDbEntity
  8
1
  6
CONTINUOUS
 62
             7
100
AcDbLine
 10
-27.7438744525482
 20
-9.0
 11
-27.38860339792831
 21
-9.42339555568807
  0
LINE
  5
330
100
AcDbEntity
  8
1
  6
CONTINUOUS
 62
             7
100
AcDbLine
 10
-26.90477482137101
 20
-10.0
 11
-23.85849498571366
 21
-10.0
  0
LINE
  5
32F
100
AcDbEntity
  8
1
  6
CONTINUOUS
 62
             7
100
AcDbLine
 10
-23.85849498571366
 20
-10.0
 11
-23.33922263372847
 21
-9.56427876096865
  0
LINE
  5
32E
100
AcDbEntity
  8
1
  6
CONTINUOUS
 62
             7
100
AcDbLine
 10
-22.66674139311948
 20
-9.0
 11
-22.07226512033037
 21
-5.62855752193731
  0
LINE
  5
32D
100
AcDbEntity
  8
1
  6
CONTINUOUS
 62
             7
100
AcDbLine
 10
-26.33325860688046
 20
-1.0
 11
-26.92773487966957
 21
-4.37144247806269
  0
LINE
  5
32C
100
AcDbEntity
  8
1
  6
CONTINUOUS
 62
             7
100
AcDbLine
 10
-25.14150501428628
 20
0.0
 11
-25.66077736627148
 21
-0.43572123903137
  0
LINE
  5
32B
100
AcDbEntity
  8
1
  6
CONTINUOUS
 62
             7
100
AcDbLine
 10
-22.09522517862911
 20
0.0
 11
-25.14150501428628
 21
0.0
  0
LINE
  5
32A
100
AcDbEntity
  8
1
  6
CONTINUOUS
 62
             7
100
AcDbLine
 10
-21.2561255474518
 20
-1.0
 11
-21.61139660207181
 21
-0.5766044443119
  0
LINE
  5
329
100
AcDbEntity
  8
1
  6
CONTINUOUS
 62
             7
100
AcDbLine
 10
-28.27155215933749
 20
-1.00000000000006
 11
-27.6756753630404
 21
-0.50000000000006
  0
LINE
  5
328
100
AcDbEntity
  8
1
  6
CONTINUOUS
 62
             7
100
AcDbLine
 10
-27.2561255474518
 20
-1.00000000000006
 11
-27.6756753630404
 21
-0.50000000000006
  0
LINE
  5
327
100
AcDbEntity
  8
1
  6
CONTINUOUS
 62
             7
100
AcDbLine
 10
-29.68216800500528
 20
-9.00000000000006
 11
-29.26261818941657
 21
-9.50000000000006
  0
LINE
  5
326
100
AcDbEntity
  8
1
  6
CONTINUOUS
 62
             7
100
AcDbLine
 10
-29.68216800500528
 20
-9.00000000000006
 11
-29.09203843327441
 21
-5.65320888862385
  0
LINE
  5
325
100
AcDbEntity
  8
1
  6
CONTINUOUS
 62
             7
100
AcDbLine
 10
-29.26261818941657
 20
-9.50000000000006
 11
-28.66674139311948
 21
-9.00000000000006
  0
LINE
  5
324
100
AcDbEntity
  8
1
  6
CONTINUOUS
 62
             7
100
AcDbLine
 10
-28.66674139311948
 20
-9.00000000000006
 11
-28.07226512033049
 21
-5.62855752193738
  0
LINE
  5
323
100
AcDbEntity
  8
1
  6
CONTINUOUS
 62
             7
100
AcDbLine
 10
-28.8660284321266
 20
-4.37144247806275
 11
-28.45682109288526
 21
-4.85911679471951
  0
LINE
  5
322
100
AcDbEntity
  8
1
  6
CONTINUOUS
 62
             7
100
AcDbLine
 10
-28.8660284321266
 20
-4.37144247806275
 11
-28.27155215933749
 21
-1.00000000000006
  0
LINE
  5
321
100
AcDbEntity
  8
1
  6
CONTINUOUS
 62
             7
100
AcDbLine
 10
-28.45682109288526
 20
-4.85911679471951
 11
-27.84625511918267
 21
-4.34679111137626
  0
LINE
  5
320
100
AcDbEntity
  8
1
  6
CONTINUOUS
 62
             7
100
AcDbLine
 10
-27.84625511918267
 20
-4.34679111137626
 11
-27.2561255474518
 21
-1.00000000000006
  0
LINE
  5
31F
100
AcDbEntity
  8
1
  6
CONTINUOUS
 62
             7
100
AcDbLine
 10
-29.09203843327441
 20
-5.65320888862385
 11
-28.48147245957176
 21
-5.14088320528062
  0
LINE
  5
31E
100
AcDbEntity
  8
1
  6
CONTINUOUS
 62
             7
100
AcDbLine
 10
-28.48147245957176
 20
-5.14088320528062
 11
-28.07226512033049
 21
-5.62855752193738
  0
LINE
  5
31D
100
AcDbEntity
  8
1
  6
CONTINUOUS
 62
             7
100
AcDbLine
 10
-26.92773487966957
 20
-4.37144247806269
 11
-26.5185275404283
 21
-4.8591167947195
  0
LINE
  5
31C
100
AcDbEntity
  8
1
  6
CONTINUOUS
 62
             7
100
AcDbLine
 10
-26.5185275404283
 20
-4.8591167947195
 11
-25.9079615667257
 21
-4.34679111137621
  0
LINE
  5
31B
100
AcDbEntity
  8
1
  6
CONTINUOUS
 62
             7
100
AcDbLine
 10
-27.15374488081727
 20
-5.65320888862379
 11
-26.54317890711479
 21
-5.14088320528059
  0
LINE
  5
31A
100
AcDbEntity
  8
1
  6
CONTINUOUS
 62
             7
100
AcDbLine
 10
-27.15374488081727
 20
-5.65320888862379
 11
-27.7438744525482
 21
-9.0
  0
LINE
  5
319
100
AcDbEntity
  8
1
  6
CONTINUOUS
 62
             7
100
AcDbLine
 10
-26.54317890711479
 20
-5.14088320528059
 11
-26.13397156787357
 21
-5.62855752193731
  0
LINE
  5
318
100
AcDbEntity
  8
1
  6
CONTINUOUS
 62
             7
100
AcDbLine
 10
-26.13397156787357
 20
-5.62855752193731
 11
-26.70143297991376
 21
-8.84679111137622
  0
LINE
  5
317
100
AcDbEntity
  8
1
  6
CONTINUOUS
 62
             7
100
AcDbLine
 10
-25.98076267924978
 20
-5.5
 11
-26.389970018491
 21
-5.01232568334328
  0
LINE
  5
316
100
AcDbEntity
  8
1
  6
CONTINUOUS
 62
             7
100
AcDbLine
 10
-26.389970018491
 20
-5.01232568334328
 11
-25.77940404478841
 21
-4.5
  0
LINE
  5
315
100
AcDbEntity
  8
1
  6
CONTINUOUS
 62
             7
100
AcDbLine
 10
-25.77940404478841
 20
-4.5
 11
-23.01923732075028
 21
-4.5
  0
LINE
  5
314
100
AcDbEntity
  8
1
  6
CONTINUOUS
 62
             7
100
AcDbLine
 10
-23.22059595521171
 20
-5.5
 11
-22.610029981509
 21
-4.98767431665672
  0
LINE
  5
313
100
AcDbEntity
  8
1
  6
CONTINUOUS
 62
             7
100
AcDbLine
 10
-23.22059595521171
 20
-5.5
 11
-25.98076267924978
 21
-5.5
  0
LINE
  5
312
100
AcDbEntity
  8
1
  6
CONTINUOUS
 62
             7
100
AcDbLine
 10
-22.610029981509
 20
-4.98767431665672
 11
-23.01923732075028
 21
-4.5
  0
LINE
  5
311
100
AcDbEntity
  8
1
  6
CONTINUOUS
 62
             7
100
AcDbLine
 10
-22.86602843212648
 20
-4.37144247806268
 11
-22.45682109288521
 21
-4.85911679471943
  0
LINE
  5
310
100
AcDbEntity
  8
1
  6
CONTINUOUS
 62
             7
100
AcDbLine
 10
-22.86602843212648
 20
-4.37144247806268
 11
-22.2985670200863
 21
-1.15320888862379
  0
LINE
  5
30F
100
AcDbEntity
  8
1
  6
CONTINUOUS
 62
             7
100
AcDbLine
 10
-22.45682109288521
 20
-4.85911679471943
 11
-21.84625511918262
 21
-4.34679111137621
  0
LINE
  5
30E
100
AcDbEntity
  8
1
  6
CONTINUOUS
 62
             7
100
AcDbLine
 10
-21.84625511918262
 20
-4.34679111137621
 11
-21.2561255474518
 21
-1.0
  0
LINE
  5
30D
100
AcDbEntity
  8
1
  6
CONTINUOUS
 62
             7
100
AcDbLine
 10
-23.09203843327441
 20
-5.65320888862379
 11
-22.48147245957171
 21
-5.14088320528052
  0
LINE
  5
30C
100
AcDbEntity
  8
1
  6
CONTINUOUS
 62
             7
100
AcDbLine
 10
-22.48147245957171
 20
-5.14088320528052
 11
-22.07226512033037
 21
-5.62855752193731
  0
LINE
  5
30B
100
AcDbEntity
  8
1
  6
CONTINUOUS
 62
             7
100
AcDbLine
 10
-25.81398625489527
 20
-0.56427876096868
 11
-25.3405001546854
 21
-1.1285575219373
  0
LINE
  5
30A
100
AcDbEntity
  8
1
  6
CONTINUOUS
 62
             7
100
AcDbLine
 10
-25.3405001546854
 20
-1.1285575219373
 11
-25.9079615667257
 21
-4.34679111137621
  0
LINE
  5
309
100
AcDbEntity
  8
1
  6
CONTINUOUS
 62
             7
100
AcDbLine
 10
-25.81398625489527
 20
-0.56427876096868
 11
-26.33325860688046
 21
-1.0
  0
LINE
  5
308
100
AcDbEntity
  8
1
  6
CONTINUOUS
 62
             7
100
AcDbLine
 10
-25.18729126606161
 20
-1.0
 11
-25.66077736627148
 21
-0.43572123903137
  0
LINE
  5
307
100
AcDbEntity
  8
1
  6
CONTINUOUS
 62
             7
100
AcDbLine
 10
-22.42712454202359
 20
-1.0
 11
-21.7399541240091
 21
-0.42339555568812
  0
LINE
  5
306
100
AcDbEntity
  8
1
  6
CONTINUOUS
 62
             7
100
AcDbLine
 10
-22.42712454202359
 20
-1.0
 11
-25.18729126606161
 21
-1.0
  0
LINE
  5
305
100
AcDbEntity
  8
1
  6
CONTINUOUS
 62
             7
100
AcDbLine
 10
-21.7399541240091
 20
-0.42339555568812
 11
-22.09522517862911
 21
0.0
  0
LINE
  5
304
100
AcDbEntity
  8
1
  6
CONTINUOUS
 62
             7
100
AcDbLine
 10
-22.2985670200863
 20
-1.15320888862379
 11
-21.61139660207181
 21
-0.5766044443119
  0
LINE
  5
303
100
AcDbEntity
  8
1
  6
CONTINUOUS
 62
             7
100
AcDbLine
 10
-27.38860339792831
 20
-9.42339555568807
 11
-26.70143297991376
 21
-8.84679111137622
  0
LINE
  5
302
100
AcDbEntity
  8
1
  6
CONTINUOUS
 62
             7
100
AcDbLine
 10
-27.26004587599101
 20
-9.57660444431187
 11
-26.57287545797647
 21
-9.0
  0
LINE
  5
301
100
AcDbEntity
  8
1
  6
CONTINUOUS
 62
             7
100
AcDbLine
 10
-26.57287545797647
 20
-9.0
 11
-23.81270873393868
 21
-9.0
  0
LINE
  5
300
100
AcDbEntity
  8
1
  6
CONTINUOUS
 62
             7
100
AcDbLine
 10
-27.26004587599101
 20
-9.57660444431187
 11
-26.90477482137101
 21
-10.0
  0
LINE
  5
2FF
100
AcDbEntity
  8
1
  6
CONTINUOUS
 62
             7
100
AcDbLine
 10
-23.81270873393868
 20
-9.0
 11
-23.33922263372847
 21
-9.56427876096865
  0
LINE
  5
2FE
100
AcDbEntity
  8
1
  6
CONTINUOUS
 62
             7
100
AcDbLine
 10
-23.18601374510467
 20
-9.43572123903134
 11
-23.65949984531477
 21
-8.8714424780627
  0
LINE
  5
2FD
100
AcDbEntity
  8
1
  6
CONTINUOUS
 62
             7
100
AcDbLine
 10
-23.65949984531477
 20
-8.8714424780627
 11
-23.09203843327441
 21
-5.65320888862379
  0
LINE
  5
2FC
100
AcDbEntity
  8
1
  6
CONTINUOUS
 62
             7
100
AcDbLine
 10
-23.18601374510467
 20
-9.43572123903134
 11
-22.66674139311948
 21
-9.0
  0
LINE
  5
2FB
100
AcDbEntity
  8
1
  6
CONTINUOUS
 62
             7
100
AcDbLine
 10
-24.33705219012592
 20
-3.5
 11
-25.1500120687594
 21
-1.2
  0
LINE
  5
2FA
100
AcDbEntity
  8
1
  6
CONTINUOUS
 62
             7
100
AcDbLine
 10
-24.13396686774871
 20
-3.5
 11
-22.50990287785641
 21
-1.2
  0
LINE
  5
2F9
100
AcDbEntity
  8
1
  6
CONTINUOUS
 62
             7
100
AcDbLine
 10
-24.33705219012592
 20
-3.5
 11
-24.47811377469259
 21
-4.30000000000001
  0
LINE
  5
2F8
100
AcDbEntity
  8
1
  6
CONTINUOUS
 62
             7
100
AcDbLine
 10
-24.47811377469259
 20
-4.30000000000001
 11
-24.9027869906393
 21
-4.30000000000001
  0
LINE
  5
2F7
100
AcDbEntity
  8
1
  6
CONTINUOUS
 62
             7
100
AcDbLine
 10
-24.9027869906393
 20
-4.30000000000001
 11
-25.43241580259451
 21
-2.80159116149164
  0
LINE
  5
2F6
100
AcDbEntity
  8
1
  6
CONTINUOUS
 62
             7
100
AcDbLine
 10
-25.43241580259451
 20
-2.80159116149164
 11
-25.1500120687594
 21
-1.2
  0
LINE
  5
2F5
100
AcDbEntity
  8
1
  6
CONTINUOUS
 62
             7
100
AcDbLine
 10
-22.50990287785641
 20
-1.2
 11
-22.83585168265967
 21
-3.04854753080733
  0
LINE
  5
2F4
100
AcDbEntity
  8
1
  6
CONTINUOUS
 62
             7
100
AcDbLine
 10
-22.83585168265967
 20
-3.04854753080733
 11
-23.71952076538906
 21
-4.30000000000001
  0
LINE
  5
2F3
100
AcDbEntity
  8
1
  6
CONTINUOUS
 62
             7
100
AcDbLine
 10
-23.71952076538906
 20
-4.30000000000001
 11
-24.2750284523155
 21
-4.30000000000001
  0
LINE
  5
2F2
100
AcDbEntity
  8
1
  6
CONTINUOUS
 62
             7
100
AcDbLine
 10
-24.2750284523155
 20
-4.30000000000001
 11
-24.13396686774871
 21
-3.5
  0
LINE
  5
2F1
100
AcDbEntity
  8
1
  6
CONTINUOUS
 62
             7
100
AcDbLine
 10
-26.49009712214371
 20
-8.8
 11
-24.86603313225118
 21
-6.5
  0
LINE
  5
2F0
100
AcDbEntity
  8
1
  6
CONTINUOUS
 62
             7
100
AcDbLine
 10
-24.6629478098742
 20
-6.5
 11
-23.84998793124049
 21
-8.8
  0
LINE
  5
2EF
100
AcDbEntity
  8
1
  6
CONTINUOUS
 62
             7
100
AcDbLine
 10
-26.49009712214371
 20
-8.8
 11
-26.16414831734039
 21
-6.95145246919279
  0
LINE
  5
2EE
100
AcDbEntity
  8
1
  6
CONTINUOUS
 62
             7
100
AcDbLine
 10
-26.16414831734039
 20
-6.95145246919279
 11
-25.28047923461077
 21
-5.7
  0
LINE
  5
2ED
100
AcDbEntity
  8
1
  6
CONTINUOUS
 62
             7
100
AcDbLine
 10
-25.28047923461077
 20
-5.7
 11
-24.7249715476845
 21
-5.7
  0
LINE
  5
2EC
100
AcDbEntity
  8
1
  6
CONTINUOUS
 62
             7
100
AcDbLine
 10
-24.7249715476845
 20
-5.7
 11
-24.86603313225118
 21
-6.5
  0
LINE
  5
2EB
100
AcDbEntity
  8
1
  6
CONTINUOUS
 62
             7
100
AcDbLine
 10
-24.6629478098742
 20
-6.5
 11
-24.52188622530741
 21
-5.7
  0
LINE
  5
2EA
100
AcDbEntity
  8
1
  6
CONTINUOUS
 62
             7
100
AcDbLine
 10
-24.52188622530741
 20
-5.7
 11
-24.09721300936081
 21
-5.7
  0
LINE
  5
2E9
100
AcDbEntity
  8
1
  6
CONTINUOUS
 62
             7
100
AcDbLine
 10
-24.09721300936081
 20
-5.7
 11
-23.56758419740538
 21
-7.19840883850844
  0
LINE
  5
2E8
100
AcDbEntity
  8
1
  6
CONTINUOUS
 62
             7
100
AcDbLine
 10
-23.56758419740538
 20
-7.19840883850844
 11
-23.84998793124049
 21
-8.8
  0
LINE
  5
2E7
100
AcDbEntity
  8
1
  6
CONTINUOUS
 62
             7
100
AcDbLine
 10
-0.95857576643249
 20
10.09999999999991
 11
-1.48166674728799
 21
10.72339555568807
  0
LINE
  5
2E6
100
AcDbEntity
  8
1
  6
CONTINUOUS
 62
             7
100
AcDbLine
 10
-2.13331525008069
 20
11.5
 11
-6.39810702000079
 21
11.5
  0
LINE
  5
2E5
100
AcDbEntity
  8
1
  6
CONTINUOUS
 62
             7
100
AcDbLine
 10
-6.39810702000079
 20
11.5
 11
-7.15573009050487
 21
10.86427876096866
  0
LINE
  5
2E4
100
AcDbEntity
  8
1
  6
CONTINUOUS
 62
             7
100
AcDbLine
 10
-8.06656204963269
 20
10.09999999999991
 11
-8.90789609541357
 21
5.32855752193741
  0
LINE
  5
2E3
100
AcDbEntity
  8
1
  6
CONTINUOUS
 62
             7
100
AcDbLine
 10
-2.93343795036727
 20
-1.10000000000002
 11
-2.09210390458639
 21
3.6714424780627
  0
LINE
  5
2E2
100
AcDbEntity
  8
1
  6
CONTINUOUS
 62
             7
100
AcDbLine
 10
-4.60189297999917
 20
-2.5
 11
-3.84426990949509
 21
-1.86427876096865
  0
LINE
  5
2E1
100
AcDbEntity
  8
1
  6
CONTINUOUS
 62
             7
100
AcDbLine
 10
-8.8666847499193
 20
-2.5
 11
-4.60189297999917
 21
-2.5
  0
LINE
  5
2E0
100
AcDbEntity
  8
1
  6
CONTINUOUS
 62
             7
100
AcDbLine
 10
-10.04142423356748
 20
-1.10000000000002
 11
-9.51833325271198
 21
-1.723395555688
  0
LINE
  5
2DF
100
AcDbEntity
  8
1
  6
CONTINUOUS
 62
             7
100
AcDbLine
 10
-7.62528404252279
 20
3.80000000000001
 11
-8.20231130799948
 21
4.48767431665678
  0
LINE
  5
2DE
100
AcDbEntity
  8
1
  6
CONTINUOUS
 62
             7
100
AcDbLine
 10
-7.62528404252279
 20
3.80000000000001
 11
-3.646605384222
 21
3.80000000000001
  0
LINE
  5
2DD
100
AcDbEntity
  8
1
  6
CONTINUOUS
 62
             7
100
AcDbLine
 10
-8.20231130799948
 20
4.48767431665678
 11
-7.35339461577808
 21
5.2000000000001
  0
LINE
  5
2DC
100
AcDbEntity
  8
1
  6
CONTINUOUS
 62
             7
100
AcDbLine
 10
-7.35339461577808
 20
5.2000000000001
 11
-3.37471595747729
 21
5.2000000000001
  0
LINE
  5
2DB
100
AcDbEntity
  8
1
  6
CONTINUOUS
 62
             7
100
AcDbLine
 10
-9.20443688884469
 20
3.64679111137622
 11
-8.3555201966233
 21
4.35911679471948
  0
LINE
  5
2DA
100
AcDbEntity
  8
1
  6
CONTINUOUS
 62
             7
100
AcDbLine
 10
-9.20443688884469
 20
3.64679111137622
 11
-10.04142423356748
 21
-1.10000000000002
  0
LINE
  5
2D9
100
AcDbEntity
  8
1
  6
CONTINUOUS
 62
             7
100
AcDbLine
 10
-8.3555201966233
 20
4.35911679471948
 11
-7.77849293114658
 21
3.6714424780627
  0
LINE
  5
2D8
100
AcDbEntity
  8
1
  6
CONTINUOUS
 62
             7
100
AcDbLine
 10
-7.77849293114658
 20
3.6714424780627
 11
-8.59281211617877
 21
-0.94679111137624
  0
LINE
  5
2D7
100
AcDbEntity
  8
1
  6
CONTINUOUS
 62
             7
100
AcDbLine
 10
-8.90789609541357
 20
5.32855752193741
 11
-8.33086882993677
 21
4.64088320528057
  0
LINE
  5
2D6
100
AcDbEntity
  8
1
  6
CONTINUOUS
 62
             7
100
AcDbLine
 10
-8.33086882993677
 20
4.64088320528057
 11
-7.48195213771538
 21
5.3532088886239
  0
LINE
  5
2D5
100
AcDbEntity
  8
1
  6
CONTINUOUS
 62
             7
100
AcDbLine
 10
-3.37471595747729
 20
5.2000000000001
 11
-2.79768869200049
 21
4.51232568334334
  0
LINE
  5
2D4
100
AcDbEntity
  8
1
  6
CONTINUOUS
 62
             7
100
AcDbLine
 10
-2.79768869200049
 20
4.51232568334334
 11
-3.646605384222
 21
3.80000000000001
  0
LINE
  5
2D3
100
AcDbEntity
  8
1
  6
CONTINUOUS
 62
             7
100
AcDbLine
 10
-3.51804786228467
 20
3.64679111137622
 11
-2.66913117006319
 21
4.35911679471954
  0
LINE
  5
2D2
100
AcDbEntity
  8
1
  6
CONTINUOUS
 62
             7
100
AcDbLine
 10
-2.66913117006319
 20
4.35911679471954
 11
-2.09210390458639
 21
3.6714424780627
  0
LINE
  5
2D1
100
AcDbEntity
  8
1
  6
CONTINUOUS
 62
             7
100
AcDbLine
 10
-3.22150706885349
 20
5.3285575219374
 11
-2.64447980337669
 21
4.64088320528063
  0
LINE
  5
2D0
100
AcDbEntity
  8
1
  6
CONTINUOUS
 62
             7
100
AcDbLine
 10
-3.22150706885349
 20
5.3285575219374
 11
-2.40718788382119
 21
9.94679111137611
  0
LINE
  5
2CF
100
AcDbEntity
  8
1
  6
CONTINUOUS
 62
             7
100
AcDbLine
 10
-2.64447980337669
 20
4.64088320528063
 11
-1.79556311115527
 21
5.3532088886239
  0
LINE
  5
2CE
100
AcDbEntity
  8
1
  6
CONTINUOUS
 62
             7
100
AcDbLine
 10
-1.79556311115527
 20
5.3532088886239
 11
-0.95857576643249
 21
10.09999999999991
  0
LINE
  5
2CD
100
AcDbEntity
  8
1
  6
CONTINUOUS
 62
             7
100
AcDbLine
 10
-6.66763295268327
 20
9.9714424780626
 11
-7.30893897912869
 21
10.73572123903136
  0
LINE
  5
2CC
100
AcDbEntity
  8
1
  6
CONTINUOUS
 62
             7
100
AcDbLine
 10
-7.30893897912869
 20
10.73572123903136
 11
-8.06656204963269
 21
10.09999999999991
  0
LINE
  5
2CB
100
AcDbEntity
  8
1
  6
CONTINUOUS
 62
             7
100
AcDbLine
 10
-6.66763295268327
 20
9.9714424780626
 11
-7.48195213771538
 21
5.3532088886239
  0
LINE
  5
2CA
100
AcDbEntity
  8
1
  6
CONTINUOUS
 62
             7
100
AcDbLine
 10
-7.15573009050487
 20
10.86427876096866
 11
-6.51442406405948
 21
10.09999999999991
  0
LINE
  5
2C9
100
AcDbEntity
  8
1
  6
CONTINUOUS
 62
             7
100
AcDbLine
 10
-2.53574540575849
 20
10.09999999999991
 11
-1.61022426922528
 21
10.87660444431187
  0
LINE
  5
2C8
100
AcDbEntity
  8
1
  6
CONTINUOUS
 62
             7
100
AcDbLine
 10
-1.61022426922528
 20
10.87660444431187
 11
-2.13331525008069
 21
11.5
  0
LINE
  5
2C7
100
AcDbEntity
  8
1
  6
CONTINUOUS
 62
             7
100
AcDbLine
 10
-2.53574540575849
 20
10.09999999999991
 11
-6.51442406405948
 21
10.09999999999991
  0
LINE
  5
2C6
100
AcDbEntity
  8
1
  6
CONTINUOUS
 62
             7
100
AcDbLine
 10
-2.40718788382119
 20
9.94679111137611
 11
-1.48166674728799
 21
10.72339555568807
  0
LINE
  5
2C5
100
AcDbEntity
  8
1
  6
CONTINUOUS
 62
             7
100
AcDbLine
 10
-9.51833325271198
 20
-1.723395555688
 11
-8.59281211617877
 21
-0.94679111137624
  0
LINE
  5
2C4
100
AcDbEntity
  8
1
  6
CONTINUOUS
 62
             7
100
AcDbLine
 10
-9.38977573077468
 20
-1.8766044443118
 11
-8.46425459424139
 21
-1.10000000000002
  0
LINE
  5
2C3
100
AcDbEntity
  8
1
  6
CONTINUOUS
 62
             7
100
AcDbLine
 10
-8.46425459424139
 20
-1.10000000000002
 11
-4.4855759359406
 21
-1.10000000000002
  0
LINE
  5
2C2
100
AcDbEntity
  8
1
  6
CONTINUOUS
 62
             7
100
AcDbLine
 10
-9.38977573077468
 20
-1.8766044443118
 11
-8.8666847499193
 21
-2.5
  0
LINE
  5
2C1
100
AcDbEntity
  8
1
  6
CONTINUOUS
 62
             7
100
AcDbLine
 10
-4.4855759359406
 20
-1.10000000000002
 11
-3.84426990949509
 21
-1.86427876096865
  0
LINE
  5
2C0
100
AcDbEntity
  8
1
  6
CONTINUOUS
 62
             7
100
AcDbLine
 10
-3.6910610208713
 20
-1.73572123903134
 11
-4.33236704731689
 21
-0.97144247806273
  0
LINE
  5
2BF
100
AcDbEntity
  8
1
  6
CONTINUOUS
 62
             7
100
AcDbLine
 10
-4.33236704731689
 20
-0.97144247806273
 11
-3.51804786228467
 21
3.64679111137622
  0
LINE
  5
2BE
100
AcDbEntity
  8
1
  6
CONTINUOUS
 62
             7
100
AcDbLine
 10
-3.6910610208713
 20
-1.73572123903134
 11
-2.93343795036727
 21
-1.10000000000002
  0
LINE
  5
2BD
100
AcDbEntity
  8
1
  6
CONTINUOUS
 62
             7
100
AcDbLine
 10
-6.0608803480861
 20
5.40000000000011
 11
-5.44284837855087
 21
5.40000000000011
  0
LINE
  5
2BC
100
AcDbEntity
  8
1
  6
CONTINUOUS
 62
             7
100
AcDbLine
 10
-5.44284837855087
 20
5.40000000000011
 11
-5.23125600170078
 21
6.60000000000009
  0
LINE
  5
2BB
100
AcDbEntity
  8
1
  6
CONTINUOUS
 62
             7
100
AcDbLine
 10
-5.23125600170078
 20
6.60000000000009
 11
-6.4771448667573
 21
9.89999999999991
  0
LINE
  5
2BA
100
AcDbEntity
  8
1
  6
CONTINUOUS
 62
             7
100
AcDbLine
 10
-6.4771448667573
 20
9.89999999999991
 11
-6.8854908065652
 21
7.58415509545252
  0
LINE
  5
2B9
100
AcDbEntity
  8
1
  6
CONTINUOUS
 62
             7
100
AcDbLine
 10
-6.8854908065652
 20
7.58415509545252
 11
-6.0608803480861
 21
5.40000000000011
  0
LINE
  5
2B8
100
AcDbEntity
  8
1
  6
CONTINUOUS
 62
             7
100
AcDbLine
 10
-5.23976305617378
 20
5.40000000000011
 11
-5.02817067932358
 21
6.60000000000009
  0
LINE
  5
2B7
100
AcDbEntity
  8
1
  6
CONTINUOUS
 62
             7
100
AcDbLine
 10
-5.02817067932358
 20
6.60000000000009
 11
-2.6185237415915
 21
9.89999999999991
  0
LINE
  5
2B6
100
AcDbEntity
  8
1
  6
CONTINUOUS
 62
             7
100
AcDbLine
 10
-2.6185237415915
 20
9.89999999999991
 11
-3.09155557694919
 21
7.21730315203493
  0
LINE
  5
2B5
100
AcDbEntity
  8
1
  6
CONTINUOUS
 62
             7
100
AcDbLine
 10
-3.09155557694919
 20
7.21730315203493
 11
-4.41854314520139
 21
5.40000000000011
  0
LINE
  5
2B4
100
AcDbEntity
  8
1
  6
CONTINUOUS
 62
             7
100
AcDbLine
 10
-4.41854314520139
 20
5.40000000000011
 11
-5.23976305617378
 21
5.40000000000011
  0
LINE
  5
2B3
100
AcDbEntity
  8
1
  6
CONTINUOUS
 62
             7
100
AcDbLine
 10
-8.38147625840849
 20
-0.90000000000002
 11
-5.97182932067639
 21
2.40000000000002
  0
LINE
  5
2B2
100
AcDbEntity
  8
1
  6
CONTINUOUS
 62
             7
100
AcDbLine
 10
-5.97182932067639
 20
2.40000000000002
 11
-5.76023694382618
 21
3.60000000000002
  0
LINE
  5
2B1
100
AcDbEntity
  8
1
  6
CONTINUOUS
 62
             7
100
AcDbLine
 10
-5.76023694382618
 20
3.60000000000002
 11
-6.5814568547986
 21
3.60000000000002
  0
LINE
  5
2B0
100
AcDbEntity
  8
1
  6
CONTINUOUS
 62
             7
100
AcDbLine
 10
-6.5814568547986
 20
3.60000000000002
 11
-7.90844442305069
 21
1.78269684796507
  0
LINE
  5
2AF
100
AcDbEntity
  8
1
  6
CONTINUOUS
 62
             7
100
AcDbLine
 10
-7.90844442305069
 20
1.78269684796507
 11
-8.35925825780049
 21
-0.77399545708361
  0
LINE
  5
2AE
100
AcDbEntity
  8
1
  6
CONTINUOUS
 62
             7
100
AcDbLine
 10
-5.76874399829918
 20
2.40000000000002
 11
-5.55715162144898
 21
3.60000000000002
  0
LINE
  5
2AD
100
AcDbEntity
  8
1
  6
CONTINUOUS
 62
             7
100
AcDbLine
 10
-5.55715162144898
 20
3.60000000000002
 11
-4.9391196519137
 21
3.60000000000002
  0
LINE
  5
2AC
100
AcDbEntity
  8
1
  6
CONTINUOUS
 62
             7
100
AcDbLine
 10
-4.9391196519137
 20
3.60000000000002
 11
-4.11450919343488
 21
1.41584490454758
  0
LINE
  5
2AB
100
AcDbEntity
  8
1
  6
CONTINUOUS
 62
             7
100
AcDbLine
 10
-4.11450919343488
 20
1.41584490454758
 11
-4.5228551332429
 21
-0.90000000000002
  0
LINE
  5
2AA
100
AcDbEntity
  8
1
  6
CONTINUOUS
 62
             7
100
AcDbLine
 10
-4.5228551332429
 20
-0.90000000000002
 11
-5.76874399829918
 21
2.40000000000002
  0
LINE
  5
2A9
100
AcDbEntity
  8
1
  6
CONTINUOUS
 62
             7
100
AcDbLine
 10
8.04142423356751
 20
10.09999999999991
 11
7.51833325271202
 21
10.72339555568807
  0
LINE
  5
2A8
100
AcDbEntity
  8
1
  6
CONTINUOUS
 62
             7
100
AcDbLine
 10
6.8666847499193
 20
11.5
 11
2.60189297999921
 21
11.5
  0
LINE
  5
2A7
100
AcDbEntity
  8
1
  6
CONTINUOUS
 62
             7
100
AcDbLine
 10
2.60189297999921
 20
11.5
 11
1.84426990949513
 21
10.86427876096866
  0
LINE
  5
2A6
100
AcDbEntity
  8
1
  6
CONTINUOUS
 62
             7
100
AcDbLine
 10
0.93343795036731
 20
10.09999999999991
 11
0.09210390458643
 21
5.32855752193741
  0
LINE
  5
2A5
100
AcDbEntity
  8
1
  6
CONTINUOUS
 62
             7
100
AcDbLine
 10
6.06656204963273
 20
-1.10000000000002
 11
6.90789609541361
 21
3.6714424780627
  0
LINE
  5
2A4
100
AcDbEntity
  8
1
  6
CONTINUOUS
 62
             7
100
AcDbLine
 10
4.39810702000083
 20
-2.5
 11
5.15573009050491
 21
-1.86427876096865
  0
LINE
  5
2A3
100
AcDbEntity
  8
1
  6
CONTINUOUS
 62
             7
100
AcDbLine
 10
0.1333152500807
 20
-2.5
 11
4.39810702000083
 21
-2.5
  0
LINE
  5
2A2
100
AcDbEntity
  8
1
  6
CONTINUOUS
 62
             7
100
AcDbLine
 10
-1.04142423356748
 20
-1.10000000000002
 11
-0.51833325271198
 21
-1.723395555688
  0
LINE
  5
2A1
100
AcDbEntity
  8
1
  6
CONTINUOUS
 62
             7
100
AcDbLine
 10
1.37471595747721
 20
3.80000000000001
 11
0.79768869200052
 21
4.48767431665678
  0
LINE
  5
2A0
100
AcDbEntity
  8
1
  6
CONTINUOUS
 62
             7
100
AcDbLine
 10
1.37471595747721
 20
3.80000000000001
 11
5.353394615778
 21
3.80000000000001
  0
LINE
  5
29F
100
AcDbEntity
  8
1
  6
CONTINUOUS
 62
             7
100
AcDbLine
 10
0.79768869200052
 20
4.48767431665678
 11
1.64660538422192
 21
5.2000000000001
  0
LINE
  5
29E
100
AcDbEntity
  8
1
  6
CONTINUOUS
 62
             7
100
AcDbLine
 10
1.64660538422192
 20
5.2000000000001
 11
5.62528404252271
 21
5.2000000000001
  0
LINE
  5
29D
100
AcDbEntity
  8
1
  6
CONTINUOUS
 62
             7
100
AcDbLine
 10
-0.20443688884469
 20
3.64679111137622
 11
0.6444798033767
 21
4.35911679471948
  0
LINE
  5
29C
100
AcDbEntity
  8
1
  6
CONTINUOUS
 62
             7
100
AcDbLine
 10
-0.20443688884469
 20
3.64679111137622
 11
-1.04142423356748
 21
-1.10000000000002
  0
LINE
  5
29B
100
AcDbEntity
  8
1
  6
CONTINUOUS
 62
             7
100
AcDbLine
 10
0.6444798033767
 20
4.35911679471948
 11
1.22150706885342
 21
3.6714424780627
  0
LINE
  5
29A
100
AcDbEntity
  8
1
  6
CONTINUOUS
 62
             7
100
AcDbLine
 10
1.22150706885342
 20
3.6714424780627
 11
0.40718788382123
 21
-0.94679111137624
  0
LINE
  5
299
100
AcDbEntity
  8
1
  6
CONTINUOUS
 62
             7
100
AcDbLine
 10
0.09210390458643
 20
5.32855752193741
 11
0.66913117006323
 21
4.64088320528057
  0
LINE
  5
298
100
AcDbEntity
  8
1
  6
CONTINUOUS
 62
             7
100
AcDbLine
 10
0.66913117006323
 20
4.64088320528057
 11
1.51804786228462
 21
5.3532088886239
  0
LINE
  5
297
100
AcDbEntity
  8
1
  6
CONTINUOUS
 62
             7
100
AcDbLine
 10
5.62528404252271
 20
5.2000000000001
 11
6.20231130799951
 21
4.51232568334334
  0
LINE
  5
296
100
AcDbEntity
  8
1
  6
CONTINUOUS
 62
             7
100
AcDbLine
 10
6.20231130799951
 20
4.51232568334334
 11
5.353394615778
 21
3.80000000000001
  0
LINE
  5
295
100
AcDbEntity
  8
1
  6
CONTINUOUS
 62
             7
100
AcDbLine
 10
5.48195213771533
 20
3.64679111137622
 11
6.33086882993681
 21
4.35911679471954
  0
LINE
  5
294
100
AcDbEntity
  8
1
  6
CONTINUOUS
 62
             7
100
AcDbLine
 10
6.33086882993681
 20
4.35911679471954
 11
6.90789609541361
 21
3.6714424780627
  0
LINE
  5
293
100
AcDbEntity
  8
1
  6
CONTINUOUS
 62
             7
100
AcDbLine
 10
5.77849293114651
 20
5.3285575219374
 11
6.35552019662331
 21
4.64088320528063
  0
LINE
  5
292
100
AcDbEntity
  8
1
  6
CONTINUOUS
 62
             7
100
AcDbLine
 10
5.77849293114651
 20
5.3285575219374
 11
6.59281211617881
 21
9.94679111137611
  0
LINE
  5
291
100
AcDbEntity
  8
1
  6
CONTINUOUS
 62
             7
100
AcDbLine
 10
6.35552019662331
 20
4.64088320528063
 11
7.20443688884473
 21
5.3532088886239
  0
LINE
  5
290
100
AcDbEntity
  8
1
  6
CONTINUOUS
 62
             7
100
AcDbLine
 10
7.20443688884473
 20
5.3532088886239
 11
8.04142423356751
 21
10.09999999999991
  0
LINE
  5
28F
100
AcDbEntity
  8
1
  6
CONTINUOUS
 62
             7
100
AcDbLine
 10
2.33236704731673
 20
9.9714424780626
 11
1.69106102087131
 21
10.73572123903136
  0
LINE
  5
28E
100
AcDbEntity
  8
1
  6
CONTINUOUS
 62
             7
100
AcDbLine
 10
1.69106102087131
 20
10.73572123903136
 11
0.93343795036731
 21
10.09999999999991
  0
LINE
  5
28D
100
AcDbEntity
  8
1
  6
CONTINUOUS
 62
             7
100
AcDbLine
 10
2.33236704731673
 20
9.9714424780626
 11
1.51804786228462
 21
5.3532088886239
  0
LINE
  5
28C
100
AcDbEntity
  8
1
  6
CONTINUOUS
 62
             7
100
AcDbLine
 10
1.84426990949513
 20
10.86427876096866
 11
2.48557593594052
 21
10.09999999999991
  0
LINE
  5
28B
100
AcDbEntity
  8
1
  6
CONTINUOUS
 62
             7
100
AcDbLine
 10
6.46425459424151
 20
10.09999999999991
 11
7.38977573077472
 21
10.87660444431187
  0
LINE
  5
28A
100
AcDbEntity
  8
1
  6
CONTINUOUS
 62
             7
100
AcDbLine
 10
7.38977573077472
 20
10.87660444431187
 11
6.8666847499193
 21
11.5
  0
LINE
  5
289
100
AcDbEntity
  8
1
  6
CONTINUOUS
 62
             7
100
AcDbLine
 10
6.46425459424151
 20
10.09999999999991
 11
2.48557593594052
 21
10.09999999999991
  0
LINE
  5
288
100
AcDbEntity
  8
1
  6
CONTINUOUS
 62
             7
100
AcDbLine
 10
6.59281211617881
 20
9.94679111137611
 11
7.51833325271202
 21
10.72339555568807
  0
LINE
  5
287
100
AcDbEntity
  8
1
  6
CONTINUOUS
 62
             7
100
AcDbLine
 10
-0.51833325271198
 20
-1.723395555688
 11
0.40718788382123
 21
-0.94679111137624
  0
LINE
  5
286
100
AcDbEntity
  8
1
  6
CONTINUOUS
 62
             7
100
AcDbLine
 10
-0.38977573077468
 20
-1.8766044443118
 11
0.53574540575861
 21
-1.10000000000002
  0
LINE
  5
285
100
AcDbEntity
  8
1
  6
CONTINUOUS
 62
             7
100
AcDbLine
 10
0.53574540575861
 20
-1.10000000000002
 11
4.5144240640594
 21
-1.10000000000002
  0
LINE
  5
284
100
AcDbEntity
  8
1
  6
CONTINUOUS
 62
             7
100
AcDbLine
 10
-0.38977573077468
 20
-1.8766044443118
 11
0.1333152500807
 21
-2.5
  0
LINE
  5
283
100
AcDbEntity
  8
1
  6
CONTINUOUS
 62
             7
100
AcDbLine
 10
4.5144240640594
 20
-1.10000000000002
 11
5.15573009050491
 21
-1.86427876096865
  0
LINE
  5
282
100
AcDbEntity
  8
1
  6
CONTINUOUS
 62
             7
100
AcDbLine
 10
5.3089389791287
 20
-1.73572123903134
 11
4.66763295268311
 21
-0.97144247806273
  0
LINE
  5
281
100
AcDbEntity
  8
1
  6
CONTINUOUS
 62
             7
100
AcDbLine
 10
4.66763295268311
 20
-0.97144247806273
 11
5.48195213771533
 21
3.64679111137622
  0
LINE
  5
280
100
AcDbEntity
  8
1
  6
CONTINUOUS
 62
             7
100
AcDbLine
 10
5.3089389791287
 20
-1.73572123903134
 11
6.06656204963273
 21
-1.10000000000002
  0
LINE
  5
27F
100
AcDbEntity
  8
1
  6
CONTINUOUS
 62
             7
100
AcDbLine
 10
2.9391196519139
 20
5.40000000000011
 11
3.55715162144913
 21
5.40000000000011
  0
LINE
  5
27E
100
AcDbEntity
  8
1
  6
CONTINUOUS
 62
             7
100
AcDbLine
 10
3.55715162144913
 20
5.40000000000011
 11
3.76874399829922
 21
6.60000000000009
  0
LINE
  5
27D
100
AcDbEntity
  8
1
  6
CONTINUOUS
 62
             7
100
AcDbLine
 10
3.76874399829922
 20
6.60000000000009
 11
2.5228551332427
 21
9.89999999999991
  0
LINE
  5
27C
100
AcDbEntity
  8
1
  6
CONTINUOUS
 62
             7
100
AcDbLine
 10
2.5228551332427
 20
9.89999999999991
 11
2.1145091934348
 21
7.58415509545252
  0
LINE
  5
27B
100
AcDbEntity
  8
1
  6
CONTINUOUS
 62
             7
100
AcDbLine
 10
2.1145091934348
 20
7.58415509545252
 11
2.9391196519139
 21
5.40000000000011
  0
LINE
  5
27A
100
AcDbEntity
  8
1
  6
CONTINUOUS
 62
             7
100
AcDbLine
 10
3.76023694382622
 20
5.40000000000011
 11
3.97182932067642
 21
6.60000000000009
  0
LINE
  5
279
100
AcDbEntity
  8
1
  6
CONTINUOUS
 62
             7
100
AcDbLine
 10
3.97182932067642
 20
6.60000000000009
 11
6.3814762584085
 21
9.89999999999991
  0
LINE
  5
278
100
AcDbEntity
  8
1
  6
CONTINUOUS
 62
             7
100
AcDbLine
 10
6.3814762584085
 20
9.89999999999991
 11
5.90844442305081
 21
7.21730315203493
  0
LINE
  5
277
100
AcDbEntity
  8
1
  6
CONTINUOUS
 62
             7
100
AcDbLine
 10
5.90844442305081
 20
7.21730315203493
 11
4.58145685479861
 21
5.40000000000011
  0
LINE
  5
276
100
AcDbEntity
  8
1
  6
CONTINUOUS
 62
             7
100
AcDbLine
 10
4.58145685479861
 20
5.40000000000011
 11
3.76023694382622
 21
5.40000000000011
  0
LINE
  5
275
100
AcDbEntity
  8
1
  6
CONTINUOUS
 62
             7
100
AcDbLine
 10
0.61852374159151
 20
-0.90000000000002
 11
3.02817067932361
 21
2.40000000000002
  0
LINE
  5
274
100
AcDbEntity
  8
1
  6
CONTINUOUS
 62
             7
100
AcDbLine
 10
3.02817067932361
 20
2.40000000000002
 11
3.23976305617382
 21
3.60000000000002
  0
LINE
  5
273
100
AcDbEntity
  8
1
  6
CONTINUOUS
 62
             7
100
AcDbLine
 10
3.23976305617382
 20
3.60000000000002
 11
2.4185431452014
 21
3.60000000000002
  0
LINE
  5
272
100
AcDbEntity
  8
1
  6
CONTINUOUS
 62
             7
100
AcDbLine
 10
2.4185431452014
 20
3.60000000000002
 11
1.09155557694931
 21
1.78269684796507
  0
LINE
  5
271
100
AcDbEntity
  8
1
  6
CONTINUOUS
 62
             7
100
AcDbLine
 10
1.09155557694931
 20
1.78269684796507
 11
0.64074174219951
 21
-0.77399545708361
  0
LINE
  5
270
100
AcDbEntity
  8
1
  6
CONTINUOUS
 62
             7
100
AcDbLine
 10
3.23125600170082
 20
2.40000000000002
 11
3.44284837855102
 21
3.60000000000002
  0
LINE
  5
26F
100
AcDbEntity
  8
1
  6
CONTINUOUS
 62
             7
100
AcDbLine
 10
3.44284837855102
 20
3.60000000000002
 11
4.0608803480863
 21
3.60000000000002
  0
LINE
  5
26E
100
AcDbEntity
  8
1
  6
CONTINUOUS
 62
             7
100
AcDbLine
 10
4.0608803480863
 20
3.60000000000002
 11
4.88549080656512
 21
1.41584490454758
  0
LINE
  5
26D
100
AcDbEntity
  8
1
  6
CONTINUOUS
 62
             7
100
AcDbLine
 10
4.88549080656512
 20
1.41584490454758
 11
4.4771448667571
 21
-0.90000000000002
  0
LINE
  5
26C
100
AcDbEntity
  8
1
  6
CONTINUOUS
 62
             7
100
AcDbLine
 10
4.4771448667571
 20
-0.90000000000002
 11
3.23125600170082
 21
2.40000000000002
  0
LINE
  5
26B
100
AcDbEntity
  8
1
  6
CONTINUOUS
 62
             7
100
AcDbLine
 10
17.04142423356752
 20
10.09999999999991
 11
16.51833325271202
 21
10.72339555568807
  0
LINE
  5
26A
100
AcDbEntity
  8
1
  6
CONTINUOUS
 62
             7
100
AcDbLine
 10
15.8666847499193
 20
11.5
 11
11.60189297999921
 21
11.5
  0
LINE
  5
269
100
AcDbEntity
  8
1
  6
CONTINUOUS
 62
             7
100
AcDbLine
 10
11.60189297999921
 20
11.5
 11
10.84426990949513
 21
10.86427876096866
  0
LINE
  5
268
100
AcDbEntity
  8
1
  6
CONTINUOUS
 62
             7
100
AcDbLine
 10
9.93343795036731
 20
10.09999999999991
 11
9.09210390458643
 21
5.32855752193741
  0
LINE
  5
267
100
AcDbEntity
  8
1
  6
CONTINUOUS
 62
             7
100
AcDbLine
 10
15.06656204963272
 20
-1.10000000000002
 11
15.90789609541361
 21
3.6714424780627
  0
LINE
  5
266
100
AcDbEntity
  8
1
  6
CONTINUOUS
 62
             7
100
AcDbLine
 10
13.39810702000082
 20
-2.5
 11
14.1557300905049
 21
-1.86427876096865
  0
LINE
  5
265
100
AcDbEntity
  8
1
  6
CONTINUOUS
 62
             7
100
AcDbLine
 10
9.1333152500807
 20
-2.5
 11
13.39810702000082
 21
-2.5
  0
LINE
  5
264
100
AcDbEntity
  8
1
  6
CONTINUOUS
 62
             7
100
AcDbLine
 10
7.95857576643252
 20
-1.10000000000002
 11
8.48166674728802
 21
-1.723395555688
  0
LINE
  5
263
100
AcDbEntity
  8
1
  6
CONTINUOUS
 62
             7
100
AcDbLine
 10
10.37471595747721
 20
3.80000000000001
 11
9.79768869200052
 21
4.48767431665678
  0
LINE
  5
262
100
AcDbEntity
  8
1
  6
CONTINUOUS
 62
             7
100
AcDbLine
 10
10.37471595747721
 20
3.80000000000001
 11
14.353394615778
 21
3.80000000000001
  0
LINE
  5
261
100
AcDbEntity
  8
1
  6
CONTINUOUS
 62
             7
100
AcDbLine
 10
9.79768869200052
 20
4.48767431665678
 11
10.64660538422191
 21
5.2000000000001
  0
LINE
  5
260
100
AcDbEntity
  8
1
  6
CONTINUOUS
 62
             7
100
AcDbLine
 10
10.64660538422191
 20
5.2000000000001
 11
14.62528404252271
 21
5.2000000000001
  0
LINE
  5
25F
100
AcDbEntity
  8
1
  6
CONTINUOUS
 62
             7
100
AcDbLine
 10
8.79556311115531
 20
3.64679111137622
 11
9.6444798033767
 21
4.35911679471948
  0
LINE
  5
25E
100
AcDbEntity
  8
1
  6
CONTINUOUS
 62
             7
100
AcDbLine
 10
8.79556311115531
 20
3.64679111137622
 11
7.95857576643252
 21
-1.10000000000002
  0
LINE
  5
25D
100
AcDbEntity
  8
1
  6
CONTINUOUS
 62
             7
100
AcDbLine
 10
9.6444798033767
 20
4.35911679471948
 11
10.22150706885341
 21
3.6714424780627
  0
LINE
  5
25C
100
AcDbEntity
  8
1
  6
CONTINUOUS
 62
             7
100
AcDbLine
 10
10.22150706885341
 20
3.6714424780627
 11
9.40718788382123
 21
-0.94679111137624
  0
LINE
  5
25B
100
AcDbEntity
  8
1
  6
CONTINUOUS
 62
             7
100
AcDbLine
 10
9.09210390458643
 20
5.32855752193741
 11
9.66913117006323
 21
4.64088320528057
  0
LINE
  5
25A
100
AcDbEntity
  8
1
  6
CONTINUOUS
 62
             7
100
AcDbLine
 10
9.66913117006323
 20
4.64088320528057
 11
10.51804786228462
 21
5.3532088886239
  0
LINE
  5
259
100
AcDbEntity
  8
1
  6
CONTINUOUS
 62
             7
100
AcDbLine
 10
14.62528404252271
 20
5.2000000000001
 11
15.20231130799951
 21
4.51232568334334
  0
LINE
  5
258
100
AcDbEntity
  8
1
  6
CONTINUOUS
 62
             7
100
AcDbLine
 10
15.20231130799951
 20
4.51232568334334
 11
14.353394615778
 21
3.80000000000001
  0
LINE
  5
257
100
AcDbEntity
  8
1
  6
CONTINUOUS
 62
             7
100
AcDbLine
 10
14.48195213771533
 20
3.64679111137622
 11
15.3308688299368
 21
4.35911679471954
  0
LINE
  5
256
100
AcDbEntity
  8
1
  6
CONTINUOUS
 62
             7
100
AcDbLine
 10
15.3308688299368
 20
4.35911679471954
 11
15.90789609541361
 21
3.6714424780627
  0
LINE
  5
255
100
AcDbEntity
  8
1
  6
CONTINUOUS
 62
             7
100
AcDbLine
 10
14.7784929311465
 20
5.3285575219374
 11
15.3555201966233
 21
4.64088320528063
  0
LINE
  5
254
100
AcDbEntity
  8
1
  6
CONTINUOUS
 62
             7
100
AcDbLine
 10
14.7784929311465
 20
5.3285575219374
 11
15.59281211617881
 21
9.94679111137611
  0
LINE
  5
253
100
AcDbEntity
  8
1
  6
CONTINUOUS
 62
             7
100
AcDbLine
 10
15.3555201966233
 20
4.64088320528063
 11
16.20443688884473
 21
5.3532088886239
  0
LINE
  5
252
100
AcDbEntity
  8
1
  6
CONTINUOUS
 62
             7
100
AcDbLine
 10
16.20443688884473
 20
5.3532088886239
 11
17.04142423356752
 21
10.09999999999991
  0
LINE
  5
251
100
AcDbEntity
  8
1
  6
CONTINUOUS
 62
             7
100
AcDbLine
 10
11.33236704731672
 20
9.9714424780626
 11
10.6910610208713
 21
10.73572123903136
  0
LINE
  5
250
100
AcDbEntity
  8
1
  6
CONTINUOUS
 62
             7
100
AcDbLine
 10
10.6910610208713
 20
10.73572123903136
 11
9.93343795036731
 21
10.09999999999991
  0
LINE
  5
24F
100
AcDbEntity
  8
1
  6
CONTINUOUS
 62
             7
100
AcDbLine
 10
11.33236704731672
 20
9.9714424780626
 11
10.51804786228462
 21
5.3532088886239
  0
LINE
  5
24E
100
AcDbEntity
  8
1
  6
CONTINUOUS
 62
             7
100
AcDbLine
 10
10.84426990949513
 20
10.86427876096866
 11
11.48557593594052
 21
10.09999999999991
  0
LINE
  5
24D
100
AcDbEntity
  8
1
  6
CONTINUOUS
 62
             7
100
AcDbLine
 10
15.46425459424151
 20
10.09999999999991
 11
16.38977573077472
 21
10.87660444431187
  0
LINE
  5
24C
100
AcDbEntity
  8
1
  6
CONTINUOUS
 62
             7
100
AcDbLine
 10
16.38977573077472
 20
10.87660444431187
 11
15.8666847499193
 21
11.5
  0
LINE
  5
24B
100
AcDbEntity
  8
1
  6
CONTINUOUS
 62
             7
100
AcDbLine
 10
15.46425459424151
 20
10.09999999999991
 11
11.48557593594052
 21
10.09999999999991
  0
LINE
  5
24A
100
AcDbEntity
  8
1
  6
CONTINUOUS
 62
             7
100
AcDbLine
 10
15.59281211617881
 20
9.94679111137611
 11
16.51833325271202
 21
10.72339555568807
  0
LINE
  5
249
100
AcDbEntity
  8
1
  6
CONTINUOUS
 62
             7
100
AcDbLine
 10
8.48166674728802
 20
-1.723395555688
 11
9.40718788382123
 21
-0.94679111137624
  0
LINE
  5
248
100
AcDbEntity
  8
1
  6
CONTINUOUS
 62
             7
100
AcDbLine
 10
8.61022426922532
 20
-1.8766044443118
 11
9.53574540575861
 21
-1.10000000000002
  0
LINE
  5
247
100
AcDbEntity
  8
1
  6
CONTINUOUS
 62
             7
100
AcDbLine
 10
9.53574540575861
 20
-1.10000000000002
 11
13.5144240640594
 21
-1.10000000000002
  0
LINE
  5
246
100
AcDbEntity
  8
1
  6
CONTINUOUS
 62
             7
100
AcDbLine
 10
8.61022426922532
 20
-1.8766044443118
 11
9.1333152500807
 21
-2.5
  0
LINE
  5
245
100
AcDbEntity
  8
1
  6
CONTINUOUS
 62
             7
100
AcDbLine
 10
13.5144240640594
 20
-1.10000000000002
 11
14.1557300905049
 21
-1.86427876096865
  0
LINE
  5
244
100
AcDbEntity
  8
1
  6
CONTINUOUS
 62
             7
100
AcDbLine
 10
14.3089389791287
 20
-1.73572123903134
 11
13.66763295268311
 21
-0.97144247806273
  0
LINE
  5
243
100
AcDbEntity
  8
1
  6
CONTINUOUS
 62
             7
100
AcDbLine
 10
13.66763295268311
 20
-0.97144247806273
 11
14.48195213771533
 21
3.64679111137622
  0
LINE
  5
242
100
AcDbEntity
  8
1
  6
CONTINUOUS
 62
             7
100
AcDbLine
 10
14.3089389791287
 20
-1.73572123903134
 11
15.06656204963272
 21
-1.10000000000002
  0
LINE
  5
241
100
AcDbEntity
  8
1
  6
CONTINUOUS
 62
             7
100
AcDbLine
 10
11.9391196519139
 20
5.40000000000011
 11
12.55715162144912
 21
5.40000000000011
  0
LINE
  5
240
100
AcDbEntity
  8
1
  6
CONTINUOUS
 62
             7
100
AcDbLine
 10
12.55715162144912
 20
5.40000000000011
 11
12.76874399829922
 21
6.60000000000009
  0
LINE
  5
23F
100
AcDbEntity
  8
1
  6
CONTINUOUS
 62
             7
100
AcDbLine
 10
12.76874399829922
 20
6.60000000000009
 11
11.5228551332427
 21
9.89999999999991
  0
LINE
  5
23E
100
AcDbEntity
  8
1
  6
CONTINUOUS
 62
             7
100
AcDbLine
 10
11.5228551332427
 20
9.89999999999991
 11
11.1145091934348
 21
7.58415509545252
  0
LINE
  5
23D
100
AcDbEntity
  8
1
  6
CONTINUOUS
 62
             7
100
AcDbLine
 10
11.1145091934348
 20
7.58415509545252
 11
11.9391196519139
 21
5.40000000000011
  0
LINE
  5
23C
100
AcDbEntity
  8
1
  6
CONTINUOUS
 62
             7
100
AcDbLine
 10
12.76023694382621
 20
5.40000000000011
 11
12.97182932067642
 21
6.60000000000009
  0
LINE
  5
23B
100
AcDbEntity
  8
1
  6
CONTINUOUS
 62
             7
100
AcDbLine
 10
12.97182932067642
 20
6.60000000000009
 11
15.3814762584085
 21
9.89999999999991
  0
LINE
  5
23A
100
AcDbEntity
  8
1
  6
CONTINUOUS
 62
             7
100
AcDbLine
 10
15.3814762584085
 20
9.89999999999991
 11
14.90844442305081
 21
7.21730315203493
  0
LINE
  5
239
100
AcDbEntity
  8
1
  6
CONTINUOUS
 62
             7
100
AcDbLine
 10
14.90844442305081
 20
7.21730315203493
 11
13.5814568547986
 21
5.40000000000011
  0
LINE
  5
238
100
AcDbEntity
  8
1
  6
CONTINUOUS
 62
             7
100
AcDbLine
 10
13.5814568547986
 20
5.40000000000011
 11
12.76023694382621
 21
5.40000000000011
  0
LINE
  5
237
100
AcDbEntity
  8
1
  6
CONTINUOUS
 62
             7
100
AcDbLine
 10
9.61852374159151
 20
-0.90000000000002
 11
12.02817067932361
 21
2.40000000000002
  0
LINE
  5
236
100
AcDbEntity
  8
1
  6
CONTINUOUS
 62
             7
100
AcDbLine
 10
12.02817067932361
 20
2.40000000000002
 11
12.23976305617381
 21
3.60000000000002
  0
LINE
  5
235
100
AcDbEntity
  8
1
  6
CONTINUOUS
 62
             7
100
AcDbLine
 10
12.23976305617381
 20
3.60000000000002
 11
11.4185431452014
 21
3.60000000000002
  0
LINE
  5
234
100
AcDbEntity
  8
1
  6
CONTINUOUS
 62
             7
100
AcDbLine
 10
11.4185431452014
 20
3.60000000000002
 11
10.0915555769493
 21
1.78269684796507
  0
LINE
  5
233
100
AcDbEntity
  8
1
  6
CONTINUOUS
 62
             7
100
AcDbLine
 10
10.0915555769493
 20
1.78269684796507
 11
9.64074174219951
 21
-0.77399545708361
  0
LINE
  5
232
100
AcDbEntity
  8
1
  6
CONTINUOUS
 62
             7
100
AcDbLine
 10
12.23125600170081
 20
2.40000000000002
 11
12.44284837855102
 21
3.60000000000002
  0
LINE
  5
231
100
AcDbEntity
  8
1
  6
CONTINUOUS
 62
             7
100
AcDbLine
 10
12.44284837855102
 20
3.60000000000002
 11
13.0608803480863
 21
3.60000000000002
  0
LINE
  5
230
100
AcDbEntity
  8
1
  6
CONTINUOUS
 62
             7
100
AcDbLine
 10
13.0608803480863
 20
3.60000000000002
 11
13.88549080656512
 21
1.41584490454758
  0
LINE
  5
22F
100
AcDbEntity
  8
1
  6
CONTINUOUS
 62
             7
100
AcDbLine
 10
13.88549080656512
 20
1.41584490454758
 11
13.4771448667571
 21
-0.90000000000002
  0
LINE
  5
22E
100
AcDbEntity
  8
1
  6
CONTINUOUS
 62
             7
100
AcDbLine
 10
13.4771448667571
 20
-0.90000000000002
 11
12.23125600170081
 21
2.40000000000002
  0
LINE
  5
22D
100
AcDbEntity
  8
1
  6
CONTINUOUS
 62
             7
100
AcDbLine
 10
26.04142423356752
 20
10.09999999999991
 11
25.51833325271202
 21
10.72339555568807
  0
LINE
  5
22C
100
AcDbEntity
  8
1
  6
CONTINUOUS
 62
             7
100
AcDbLine
 10
24.86668474991931
 20
11.5
 11
20.60189297999921
 21
11.5
  0
LINE
  5
22B
100
AcDbEntity
  8
1
  6
CONTINUOUS
 62
             7
100
AcDbLine
 10
20.60189297999921
 20
11.5
 11
19.84426990949513
 21
10.86427876096866
  0
LINE
  5
22A
100
AcDbEntity
  8
1
  6
CONTINUOUS
 62
             7
100
AcDbLine
 10
18.93343795036731
 20
10.09999999999991
 11
18.09210390458642
 21
5.32855752193741
  0
LINE
  5
229
100
AcDbEntity
  8
1
  6
CONTINUOUS
 62
             7
100
AcDbLine
 10
24.06656204963272
 20
-1.10000000000002
 11
24.90789609541361
 21
3.6714424780627
  0
LINE
  5
228
100
AcDbEntity
  8
1
  6
CONTINUOUS
 62
             7
100
AcDbLine
 10
22.39810702000082
 20
-2.5
 11
23.1557300905049
 21
-1.86427876096865
  0
LINE
  5
227
100
AcDbEntity
  8
1
  6
CONTINUOUS
 62
             7
100
AcDbLine
 10
18.1333152500807
 20
-2.5
 11
22.39810702000082
 21
-2.5
  0
LINE
  5
226
100
AcDbEntity
  8
1
  6
CONTINUOUS
 62
             7
100
AcDbLine
 10
16.95857576643252
 20
-1.10000000000002
 11
17.48166674728802
 21
-1.723395555688
  0
LINE
  5
225
100
AcDbEntity
  8
1
  6
CONTINUOUS
 62
             7
100
AcDbLine
 10
19.37471595747721
 20
3.80000000000001
 11
18.79768869200052
 21
4.48767431665678
  0
LINE
  5
224
100
AcDbEntity
  8
1
  6
CONTINUOUS
 62
             7
100
AcDbLine
 10
19.37471595747721
 20
3.80000000000001
 11
23.353394615778
 21
3.80000000000001
  0
LINE
  5
223
100
AcDbEntity
  8
1
  6
CONTINUOUS
 62
             7
100
AcDbLine
 10
18.79768869200052
 20
4.48767431665678
 11
19.64660538422191
 21
5.2000000000001
  0
LINE
  5
222
100
AcDbEntity
  8
1
  6
CONTINUOUS
 62
             7
100
AcDbLine
 10
19.64660538422191
 20
5.2000000000001
 11
23.62528404252272
 21
5.2000000000001
  0
LINE
  5
221
100
AcDbEntity
  8
1
  6
CONTINUOUS
 62
             7
100
AcDbLine
 10
17.7955631111553
 20
3.64679111137622
 11
18.6444798033767
 21
4.35911679471948
  0
LINE
  5
220
100
AcDbEntity
  8
1
  6
CONTINUOUS
 62
             7
100
AcDbLine
 10
17.7955631111553
 20
3.64679111137622
 11
16.95857576643252
 21
-1.10000000000002
  0
LINE
  5
21F
100
AcDbEntity
  8
1
  6
CONTINUOUS
 62
             7
100
AcDbLine
 10
18.6444798033767
 20
4.35911679471948
 11
19.22150706885341
 21
3.6714424780627
  0
LINE
  5
21E
100
AcDbEntity
  8
1
  6
CONTINUOUS
 62
             7
100
AcDbLine
 10
19.22150706885341
 20
3.6714424780627
 11
18.40718788382122
 21
-0.94679111137624
  0
LINE
  5
21D
100
AcDbEntity
  8
1
  6
CONTINUOUS
 62
             7
100
AcDbLine
 10
18.09210390458642
 20
5.32855752193741
 11
18.66913117006322
 21
4.64088320528057
  0
LINE
  5
21C
100
AcDbEntity
  8
1
  6
CONTINUOUS
 62
             7
100
AcDbLine
 10
18.66913117006322
 20
4.64088320528057
 11
19.51804786228463
 21
5.3532088886239
  0
LINE
  5
21B
100
AcDbEntity
  8
1
  6
CONTINUOUS
 62
             7
100
AcDbLine
 10
23.62528404252272
 20
5.2000000000001
 11
24.20231130799951
 21
4.51232568334334
  0
LINE
  5
21A
100
AcDbEntity
  8
1
  6
CONTINUOUS
 62
             7
100
AcDbLine
 10
24.20231130799951
 20
4.51232568334334
 11
23.353394615778
 21
3.80000000000001
  0
LINE
  5
219
100
AcDbEntity
  8
1
  6
CONTINUOUS
 62
             7
100
AcDbLine
 10
23.48195213771533
 20
3.64679111137622
 11
24.3308688299368
 21
4.35911679471954
  0
LINE
  5
218
100
AcDbEntity
  8
1
  6
CONTINUOUS
 62
             7
100
AcDbLine
 10
24.3308688299368
 20
4.35911679471954
 11
24.90789609541361
 21
3.6714424780627
  0
LINE
  5
217
100
AcDbEntity
  8
1
  6
CONTINUOUS
 62
             7
100
AcDbLine
 10
23.7784929311465
 20
5.3285575219374
 11
24.3555201966233
 21
4.64088320528063
  0
LINE
  5
216
100
AcDbEntity
  8
1
  6
CONTINUOUS
 62
             7
100
AcDbLine
 10
23.7784929311465
 20
5.3285575219374
 11
24.59281211617881
 21
9.94679111137611
  0
LINE
  5
215
100
AcDbEntity
  8
1
  6
CONTINUOUS
 62
             7
100
AcDbLine
 10
24.3555201966233
 20
4.64088320528063
 11
25.20443688884473
 21
5.3532088886239
  0
LINE
  5
214
100
AcDbEntity
  8
1
  6
CONTINUOUS
 62
             7
100
AcDbLine
 10
25.20443688884473
 20
5.3532088886239
 11
26.04142423356752
 21
10.09999999999991
  0
LINE
  5
213
100
AcDbEntity
  8
1
  6
CONTINUOUS
 62
             7
100
AcDbLine
 10
20.33236704731672
 20
9.9714424780626
 11
19.6910610208713
 21
10.73572123903136
  0
LINE
  5
212
100
AcDbEntity
  8
1
  6
CONTINUOUS
 62
             7
100
AcDbLine
 10
19.6910610208713
 20
10.73572123903136
 11
18.93343795036731
 21
10.09999999999991
  0
LINE
  5
211
100
AcDbEntity
  8
1
  6
CONTINUOUS
 62
             7
100
AcDbLine
 10
20.33236704731672
 20
9.9714424780626
 11
19.51804786228463
 21
5.3532088886239
  0
LINE
  5
210
100
AcDbEntity
  8
1
  6
CONTINUOUS
 62
             7
100
AcDbLine
 10
19.84426990949513
 20
10.86427876096866
 11
20.48557593594052
 21
10.09999999999991
  0
LINE
  5
20F
100
AcDbEntity
  8
1
  6
CONTINUOUS
 62
             7
100
AcDbLine
 10
24.46425459424151
 20
10.09999999999991
 11
25.38977573077472
 21
10.87660444431187
  0
LINE
  5
20E
100
AcDbEntity
  8
1
  6
CONTINUOUS
 62
             7
100
AcDbLine
 10
25.38977573077472
 20
10.87660444431187
 11
24.86668474991931
 21
11.5
  0
LINE
  5
20D
100
AcDbEntity
  8
1
  6
CONTINUOUS
 62
             7
100
AcDbLine
 10
24.46425459424151
 20
10.09999999999991
 11
20.48557593594052
 21
10.09999999999991
  0
LINE
  5
20C
100
AcDbEntity
  8
1
  6
CONTINUOUS
 62
             7
100
AcDbLine
 10
24.59281211617881
 20
9.94679111137611
 11
25.51833325271202
 21
10.72339555568807
  0
LINE
  5
20B
100
AcDbEntity
  8
1
  6
CONTINUOUS
 62
             7
100
AcDbLine
 10
17.48166674728802
 20
-1.723395555688
 11
18.40718788382122
 21
-0.94679111137624
  0
LINE
  5
20A
100
AcDbEntity
  8
1
  6
CONTINUOUS
 62
             7
100
AcDbLine
 10
17.61022426922531
 20
-1.8766044443118
 11
18.5357454057586
 21
-1.10000000000002
  0
LINE
  5
209
100
AcDbEntity
  8
1
  6
CONTINUOUS
 62
             7
100
AcDbLine
 10
18.5357454057586
 20
-1.10000000000002
 11
22.51442406405941
 21
-1.10000000000002
  0
LINE
  5
208
100
AcDbEntity
  8
1
  6
CONTINUOUS
 62
             7
100
AcDbLine
 10
17.61022426922531
 20
-1.8766044443118
 11
18.1333152500807
 21
-2.5
  0
LINE
  5
207
100
AcDbEntity
  8
1
  6
CONTINUOUS
 62
             7
100
AcDbLine
 10
22.51442406405941
 20
-1.10000000000002
 11
23.1557300905049
 21
-1.86427876096865
  0
LINE
  5
206
100
AcDbEntity
  8
1
  6
CONTINUOUS
 62
             7
100
AcDbLine
 10
23.30893897912871
 20
-1.73572123903134
 11
22.66763295268311
 21
-0.97144247806273
  0
LINE
  5
205
100
AcDbEntity
  8
1
  6
CONTINUOUS
 62
             7
100
AcDbLine
 10
22.66763295268311
 20
-0.97144247806273
 11
23.48195213771533
 21
3.64679111137622
  0
LINE
  5
204
100
AcDbEntity
  8
1
  6
CONTINUOUS
 62
             7
100
AcDbLine
 10
23.30893897912871
 20
-1.73572123903134
 11
24.06656204963272
 21
-1.10000000000002
  0
LINE
  5
203
100
AcDbEntity
  8
1
  6
CONTINUOUS
 62
             7
100
AcDbLine
 10
20.9391196519139
 20
5.40000000000011
 11
21.55715162144912
 21
5.40000000000011
  0
LINE
  5
202
100
AcDbEntity
  8
1
  6
CONTINUOUS
 62
             7
100
AcDbLine
 10
21.55715162144912
 20
5.40000000000011
 11
21.76874399829923
 21
6.60000000000009
  0
LINE
  5
201
100
AcDbEntity
  8
1
  6
CONTINUOUS
 62
             7
100
AcDbLine
 10
21.76874399829923
 20
6.60000000000009
 11
20.5228551332427
 21
9.89999999999991
  0
LINE
  5
200
100
AcDbEntity
  8
1
  6
CONTINUOUS
 62
             7
100
AcDbLine
 10
20.5228551332427
 20
9.89999999999991
 11
20.1145091934348
 21
7.58415509545252
  0
LINE
  5
1FF
100
AcDbEntity
  8
1
  6
CONTINUOUS
 62
             7
100
AcDbLine
 10
20.1145091934348
 20
7.58415509545252
 11
20.9391196519139
 21
5.40000000000011
  0
LINE
  5
1FE
100
AcDbEntity
  8
1
  6
CONTINUOUS
 62
             7
100
AcDbLine
 10
21.76023694382621
 20
5.40000000000011
 11
21.97182932067642
 21
6.60000000000009
  0
LINE
  5
1FD
100
AcDbEntity
  8
1
  6
CONTINUOUS
 62
             7
100
AcDbLine
 10
21.97182932067642
 20
6.60000000000009
 11
24.38147625840851
 21
9.89999999999991
  0
LINE
  5
1FC
100
AcDbEntity
  8
1
  6
CONTINUOUS
 62
             7
100
AcDbLine
 10
24.38147625840851
 20
9.89999999999991
 11
23.90844442305081
 21
7.21730315203493
  0
LINE
  5
1FB
100
AcDbEntity
  8
1
  6
CONTINUOUS
 62
             7
100
AcDbLine
 10
23.90844442305081
 20
7.21730315203493
 11
22.5814568547986
 21
5.40000000000011
  0
LINE
  5
1FA
100
AcDbEntity
  8
1
  6
CONTINUOUS
 62
             7
100
AcDbLine
 10
22.5814568547986
 20
5.40000000000011
 11
21.76023694382621
 21
5.40000000000011
  0
LINE
  5
1F9
100
AcDbEntity
  8
1
  6
CONTINUOUS
 62
             7
100
AcDbLine
 10
18.6185237415915
 20
-0.90000000000002
 11
21.02817067932361
 21
2.40000000000002
  0
LINE
  5
1F8
100
AcDbEntity
  8
1
  6
CONTINUOUS
 62
             7
100
AcDbLine
 10
21.02817067932361
 20
2.40000000000002
 11
21.23976305617381
 21
3.60000000000002
  0
LINE
  5
1F7
100
AcDbEntity
  8
1
  6
CONTINUOUS
 62
             7
100
AcDbLine
 10
21.23976305617381
 20
3.60000000000002
 11
20.4185431452014
 21
3.60000000000002
  0
LINE
  5
1F6
100
AcDbEntity
  8
1
  6
CONTINUOUS
 62
             7
100
AcDbLine
 10
20.4185431452014
 20
3.60000000000002
 11
19.0915555769493
 21
1.78269684796507
  0
LINE
  5
1F5
100
AcDbEntity
  8
1
  6
CONTINUOUS
 62
             7
100
AcDbLine
 10
19.0915555769493
 20
1.78269684796507
 11
18.64074174219951
 21
-0.77399545708361
  0
LINE
  5
1F4
100
AcDbEntity
  8
1
  6
CONTINUOUS
 62
             7
100
AcDbLine
 10
21.23125600170081
 20
2.40000000000002
 11
21.44284837855102
 21
3.60000000000002
  0
LINE
  5
1F3
100
AcDbEntity
  8
1
  6
CONTINUOUS
 62
             7
100
AcDbLine
 10
21.44284837855102
 20
3.60000000000002
 11
22.0608803480863
 21
3.60000000000002
  0
LINE
  5
1F2
100
AcDbEntity
  8
1
  6
CONTINUOUS
 62
             7
100
AcDbLine
 10
22.0608803480863
 20
3.60000000000002
 11
22.88549080656512
 21
1.41584490454758
  0
LINE
  5
1F1
100
AcDbEntity
  8
1
  6
CONTINUOUS
 62
             7
100
AcDbLine
 10
22.88549080656512
 20
1.41584490454758
 11
22.4771448667571
 21
-0.90000000000002
  0
LINE
  5
1F0
100
AcDbEntity
  8
1
  6
CONTINUOUS
 62
             7
100
AcDbLine
 10
22.4771448667571
 20
-0.90000000000002
 11
21.23125600170081
 21
2.40000000000002
  0
LINE
  5
1EF
100
AcDbEntity
  8
1
  6
CONTINUOUS
 62
             7
100
AcDbLine
 10
31.4771448667571
 20
-0.90000000000002
 11
30.23125600170081
 21
2.40000000000002
  0
LINE
  5
1EE
100
AcDbEntity
  8
1
  6
CONTINUOUS
 62
             7
100
AcDbLine
 10
31.88549080656512
 20
1.41584490454758
 11
31.4771448667571
 21
-0.90000000000002
  0
LINE
  5
1ED
100
AcDbEntity
  8
1
  6
CONTINUOUS
 62
             7
100
AcDbLine
 10
31.0608803480863
 20
3.60000000000002
 11
31.88549080656512
 21
1.41584490454758
  0
LINE
  5
1EC
100
AcDbEntity
  8
1
  6
CONTINUOUS
 62
             7
100
AcDbLine
 10
30.44284837855102
 20
3.60000000000002
 11
31.0608803480863
 21
3.60000000000002
  0
LINE
  5
1EB
100
AcDbEntity
  8
1
  6
CONTINUOUS
 62
             7
100
AcDbLine
 10
30.23125600170081
 20
2.40000000000002
 11
30.44284837855102
 21
3.60000000000002
  0
LINE
  5
1EA
100
AcDbEntity
  8
1
  6
CONTINUOUS
 62
             7
100
AcDbLine
 10
28.0915555769493
 20
1.78269684796507
 11
27.64074174219951
 21
-0.77399545708361
  0
LINE
  5
1E9
100
AcDbEntity
  8
1
  6
CONTINUOUS
 62
             7
100
AcDbLine
 10
29.4185431452014
 20
3.60000000000002
 11
28.0915555769493
 21
1.78269684796507
  0
LINE
  5
1E8
100
AcDbEntity
  8
1
  6
CONTINUOUS
 62
             7
100
AcDbLine
 10
30.23976305617381
 20
3.60000000000002
 11
29.4185431452014
 21
3.60000000000002
  0
LINE
  5
1E7
100
AcDbEntity
  8
1
  6
CONTINUOUS
 62
             7
100
AcDbLine
 10
30.02817067932361
 20
2.40000000000002
 11
30.23976305617381
 21
3.60000000000002
  0
LINE
  5
1E6
100
AcDbEntity
  8
1
  6
CONTINUOUS
 62
             7
100
AcDbLine
 10
27.6185237415915
 20
-0.90000000000002
 11
30.02817067932361
 21
2.40000000000002
  0
LINE
  5
1E5
100
AcDbEntity
  8
1
  6
CONTINUOUS
 62
             7
100
AcDbLine
 10
31.5814568547986
 20
5.40000000000011
 11
30.76023694382621
 21
5.40000000000011
  0
LINE
  5
1E4
100
AcDbEntity
  8
1
  6
CONTINUOUS
 62
             7
100
AcDbLine
 10
32.90844442305081
 20
7.21730315203493
 11
31.5814568547986
 21
5.40000000000011
  0
LINE
  5
1E3
100
AcDbEntity
  8
1
  6
CONTINUOUS
 62
             7
100
AcDbLine
 10
33.3814762584085
 20
9.89999999999991
 11
32.90844442305081
 21
7.21730315203493
  0
LINE
  5
1E2
100
AcDbEntity
  8
1
  6
CONTINUOUS
 62
             7
100
AcDbLine
 10
30.97182932067642
 20
6.60000000000009
 11
33.3814762584085
 21
9.89999999999991
  0
LINE
  5
1E1
100
AcDbEntity
  8
1
  6
CONTINUOUS
 62
             7
100
AcDbLine
 10
30.76023694382621
 20
5.40000000000011
 11
30.97182932067642
 21
6.60000000000009
  0
LINE
  5
1E0
100
AcDbEntity
  8
1
  6
CONTINUOUS
 62
             7
100
AcDbLine
 10
29.1145091934348
 20
7.58415509545252
 11
29.9391196519139
 21
5.40000000000011
  0
LINE
  5
1DF
100
AcDbEntity
  8
1
  6
CONTINUOUS
 62
             7
100
AcDbLine
 10
29.5228551332427
 20
9.89999999999991
 11
29.1145091934348
 21
7.58415509545252
  0
LINE
  5
1DE
100
AcDbEntity
  8
1
  6
CONTINUOUS
 62
             7
100
AcDbLine
 10
30.76874399829923
 20
6.60000000000009
 11
29.5228551332427
 21
9.89999999999991
  0
LINE
  5
1DD
100
AcDbEntity
  8
1
  6
CONTINUOUS
 62
             7
100
AcDbLine
 10
30.55715162144912
 20
5.40000000000011
 11
30.76874399829923
 21
6.60000000000009
  0
LINE
  5
1DC
100
AcDbEntity
  8
1
  6
CONTINUOUS
 62
             7
100
AcDbLine
 10
29.9391196519139
 20
5.40000000000011
 11
30.55715162144912
 21
5.40000000000011
  0
LINE
  5
1DB
100
AcDbEntity
  8
1
  6
CONTINUOUS
 62
             7
100
AcDbLine
 10
32.3089389791287
 20
-1.73572123903134
 11
33.06656204963272
 21
-1.10000000000002
  0
LINE
  5
1DA
100
AcDbEntity
  8
1
  6
CONTINUOUS
 62
             7
100
AcDbLine
 10
31.66763295268311
 20
-0.97144247806273
 11
32.48195213771534
 21
3.64679111137622
  0
LINE
  5
1D9
100
AcDbEntity
  8
1
  6
CONTINUOUS
 62
             7
100
AcDbLine
 10
32.3089389791287
 20
-1.73572123903134
 11
31.66763295268311
 21
-0.97144247806273
  0
LINE
  5
1D8
100
AcDbEntity
  8
1
  6
CONTINUOUS
 62
             7
100
AcDbLine
 10
31.51442406405941
 20
-1.10000000000002
 11
32.1557300905049
 21
-1.86427876096865
  0
LINE
  5
1D7
100
AcDbEntity
  8
1
  6
CONTINUOUS
 62
             7
100
AcDbLine
 10
26.61022426922531
 20
-1.8766044443118
 11
27.1333152500807
 21
-2.5
  0
LINE
  5
1D6
100
AcDbEntity
  8
1
  6
CONTINUOUS
 62
             7
100
AcDbLine
 10
27.5357454057586
 20
-1.10000000000002
 11
31.51442406405941
 21
-1.10000000000002
  0
LINE
  5
1D5
100
AcDbEntity
  8
1
  6
CONTINUOUS
 62
             7
100
AcDbLine
 10
26.61022426922531
 20
-1.8766044443118
 11
27.5357454057586
 21
-1.10000000000002
  0
LINE
  5
1D4
100
AcDbEntity
  8
1
  6
CONTINUOUS
 62
             7
100
AcDbLine
 10
26.48166674728802
 20
-1.723395555688
 11
27.40718788382122
 21
-0.94679111137624
  0
LINE
  5
1D3
100
AcDbEntity
  8
1
  6
CONTINUOUS
 62
             7
100
AcDbLine
 10
33.59281211617882
 20
9.94679111137611
 11
34.51833325271201
 21
10.72339555568807
  0
LINE
  5
1D2
100
AcDbEntity
  8
1
  6
CONTINUOUS
 62
             7
100
AcDbLine
 10
33.46425459424151
 20
10.09999999999991
 11
29.48557593594052
 21
10.09999999999991
  0
LINE
  5
1D1
100
AcDbEntity
  8
1
  6
CONTINUOUS
 62
             7
100
AcDbLine
 10
34.38977573077473
 20
10.87660444431187
 11
33.8666847499193
 21
11.5
  0
LINE
  5
1D0
100
AcDbEntity
  8
1
  6
CONTINUOUS
 62
             7
100
AcDbLine
 10
33.46425459424151
 20
10.09999999999991
 11
34.38977573077473
 21
10.87660444431187
  0
LINE
  5
1CF
100
AcDbEntity
  8
1
  6
CONTINUOUS
 62
             7
100
AcDbLine
 10
28.84426990949513
 20
10.86427876096866
 11
29.48557593594052
 21
10.09999999999991
  0
LINE
  5
1CE
100
AcDbEntity
  8
1
  6
CONTINUOUS
 62
             7
100
AcDbLine
 10
29.33236704731672
 20
9.9714424780626
 11
28.51804786228463
 21
5.3532088886239
  0
LINE
  5
1CD
100
AcDbEntity
  8
1
  6
CONTINUOUS
 62
             7
100
AcDbLine
 10
28.6910610208713
 20
10.73572123903136
 11
27.93343795036731
 21
10.09999999999991
  0
LINE
  5
1CC
100
AcDbEntity
  8
1
  6
CONTINUOUS
 62
             7
100
AcDbLine
 10
29.33236704731672
 20
9.9714424780626
 11
28.6910610208713
 21
10.73572123903136
  0
LINE
  5
1CB
100
AcDbEntity
  8
1
  6
CONTINUOUS
 62
             7
100
AcDbLine
 10
34.20443688884474
 20
5.3532088886239
 11
35.04142423356751
 21
10.09999999999991
  0
LINE
  5
1CA
100
AcDbEntity
  8
1
  6
CONTINUOUS
 62
             7
100
AcDbLine
 10
33.3555201966233
 20
4.64088320528063
 11
34.20443688884474
 21
5.3532088886239
  0
LINE
  5
1C9
100
AcDbEntity
  8
1
  6
CONTINUOUS
 62
             7
100
AcDbLine
 10
32.7784929311465
 20
5.3285575219374
 11
33.59281211617882
 21
9.94679111137611
  0
LINE
  5
1C8
100
AcDbEntity
  8
1
  6
CONTINUOUS
 62
             7
100
AcDbLine
 10
32.7784929311465
 20
5.3285575219374
 11
33.3555201966233
 21
4.64088320528063
  0
LINE
  5
1C7
100
AcDbEntity
  8
1
  6
CONTINUOUS
 62
             7
100
AcDbLine
 10
33.3308688299368
 20
4.35911679471954
 11
33.90789609541362
 21
3.6714424780627
  0
LINE
  5
1C6
100
AcDbEntity
  8
1
  6
CONTINUOUS
 62
             7
100
AcDbLine
 10
32.48195213771534
 20
3.64679111137622
 11
33.3308688299368
 21
4.35911679471954
  0
LINE
  5
1C5
100
AcDbEntity
  8
1
  6
CONTINUOUS
 62
             7
100
AcDbLine
 10
33.20231130799951
 20
4.51232568334334
 11
32.353394615778
 21
3.80000000000001
  0
LINE
  5
1C4
100
AcDbEntity
  8
1
  6
CONTINUOUS
 62
             7
100
AcDbLine
 10
32.62528404252271
 20
5.2000000000001
 11
33.20231130799951
 21
4.51232568334334
  0
LINE
  5
1C3
100
AcDbEntity
  8
1
  6
CONTINUOUS
 62
             7
100
AcDbLine
 10
27.66913117006322
 20
4.64088320528057
 11
28.51804786228463
 21
5.3532088886239
  0
LINE
  5
1C2
100
AcDbEntity
  8
1
  6
CONTINUOUS
 62
             7
100
AcDbLine
 10
27.09210390458642
 20
5.32855752193741
 11
27.66913117006322
 21
4.64088320528057
  0
LINE
  5
1C1
100
AcDbEntity
  8
1
  6
CONTINUOUS
 62
             7
100
AcDbLine
 10
28.22150706885341
 20
3.6714424780627
 11
27.40718788382122
 21
-0.94679111137624
  0
LINE
  5
1C0
100
AcDbEntity
  8
1
  6
CONTINUOUS
 62
             7
100
AcDbLine
 10
27.6444798033767
 20
4.35911679471948
 11
28.22150706885341
 21
3.6714424780627
  0
LINE
  5
1BF
100
AcDbEntity
  8
1
  6
CONTINUOUS
 62
             7
100
AcDbLine
 10
26.7955631111553
 20
3.64679111137622
 11
25.95857576643252
 21
-1.10000000000002
  0
LINE
  5
1BE
100
AcDbEntity
  8
1
  6
CONTINUOUS
 62
             7
100
AcDbLine
 10
26.7955631111553
 20
3.64679111137622
 11
27.6444798033767
 21
4.35911679471948
  0
LINE
  5
1BD
100
AcDbEntity
  8
1
  6
CONTINUOUS
 62
             7
100
AcDbLine
 10
28.64660538422191
 20
5.2000000000001
 11
32.62528404252271
 21
5.2000000000001
  0
LINE
  5
1BC
100
AcDbEntity
  8
1
  6
CONTINUOUS
 62
             7
100
AcDbLine
 10
27.79768869200052
 20
4.48767431665678
 11
28.64660538422191
 21
5.2000000000001
  0
LINE
  5
1BB
100
AcDbEntity
  8
1
  6
CONTINUOUS
 62
             7
100
AcDbLine
 10
28.37471595747721
 20
3.80000000000001
 11
32.353394615778
 21
3.80000000000001
  0
LINE
  5
1BA
100
AcDbEntity
  8
1
  6
CONTINUOUS
 62
             7
100
AcDbLine
 10
28.37471595747721
 20
3.80000000000001
 11
27.79768869200052
 21
4.48767431665678
  0
LINE
  5
1B9
100
AcDbEntity
  8
1
  6
CONTINUOUS
 62
             7
100
AcDbLine
 10
9.5
 20
-6.5
 11
9.5
 21
-7.5
  0
LINE
  5
1B8
100
AcDbEntity
  8
1
  6
CONTINUOUS
 62
             7
100
AcDbLine
 10
11.0
 20
-6.5
 11
9.5
 21
-6.5
  0
LINE
  5
1B7
100
AcDbEntity
  8
1
  6
CONTINUOUS
 62
             7
100
AcDbLine
 10
11.0
 20
-7.5
 11
11.0
 21
-6.5
  0
LINE
  5
1B6
100
AcDbEntity
  8
1
  6
CONTINUOUS
 62
             7
100
AcDbLine
 10
9.5
 20
-7.5
 11
11.0
 21
-7.5
  0
LINE
  5
1B5
100
AcDbEntity
  8
1
  6
CONTINUOUS
 62
             7
100
AcDbLine
 10
29.5
 20
-7.49999999999989
 11
30.99999999999992
 21
-7.5
  0
LINE
  5
1B4
100
AcDbEntity
  8
1
  6
CONTINUOUS
 62
             7
100
AcDbLine
 10
30.99999999999992
 20
-7.5
 11
31.0
 21
-6.5
  0
LINE
  5
1B3
100
AcDbEntity
  8
1
  6
CONTINUOUS
 62
             7
100
AcDbLine
 10
31.0
 20
-6.5
 11
29.5
 21
-6.5
  0
LINE
  5
1B2
100
AcDbEntity
  8
1
  6
CONTINUOUS
 62
             7
100
AcDbLine
 10
29.5
 20
-6.5
 11
29.5
 21
-7.49999999999989
  0
LINE
  5
1B1
100
AcDbEntity
  8
1
  6
CONTINUOUS
 62
             7
100
AcDbLine
 10
-10.5
 20
-6.5
 11
-10.5
 21
-7.5
  0
LINE
  5
1B0
100
AcDbEntity
  8
1
  6
CONTINUOUS
 62
             7
100
AcDbLine
 10
-9.0
 20
-6.5
 11
-10.5
 21
-6.5
  0
LINE
  5
1AF
100
AcDbEntity
  8
1
  6
CONTINUOUS
 62
             7
100
AcDbLine
 10
-9.0
 20
-7.5
 11
-9.0
 21
-6.5
  0
LINE
  5
1AE
100
AcDbEntity
  8
1
  6
CONTINUOUS
 62
             7
100
AcDbLine
 10
-10.5
 20
-7.5
 11
-9.0
 21
-7.5
  0
LINE
  5
1AD
100
AcDbEntity
  8
1
  6
CONTINUOUS
 62
             7
100
AcDbLine
 10
30.5
 20
-6.0
 11
32.0
 21
-6.0
  0
LINE
  5
1AC
100
AcDbEntity
  8
1
  6
CONTINUOUS
 62
             7
100
AcDbLine
 10
32.0
 20
-6.0
 11
32.0
 21
-3.5
  0
LINE
  5
1AB
100
AcDbEntity
  8
1
  6
CONTINUOUS
 62
             7
100
AcDbLine
 10
32.0
 20
-3.5
 11
30.5
 21
-3.5
  0
LINE
  5
1AA
100
AcDbEntity
  8
1
  6
CONTINUOUS
 62
             7
100
AcDbLine
 10
30.5
 20
-3.5
 11
30.5
 21
-6.0
  0
LINE
  5
1A9
100
AcDbEntity
  8
1
  6
CONTINUOUS
 62
             7
100
AcDbLine
 10
28.5
 20
-6.0
 11
30.0
 21
-6.0
  0
LINE
  5
1A8
100
AcDbEntity
  8
1
  6
CONTINUOUS
 62
             7
100
AcDbLine
 10
30.0
 20
-6.0
 11
30.0
 21
-3.5
  0
LINE
  5
1A7
100
AcDbEntity
  8
1
  6
CONTINUOUS
 62
             7
100
AcDbLine
 10
30.0
 20
-3.5
 11
28.5
 21
-3.5
  0
LINE
  5
1A6
100
AcDbEntity
  8
1
  6
CONTINUOUS
 62
             7
100
AcDbLine
 10
28.5
 20
-3.5
 11
28.5
 21
-6.0
  0
LINE
  5
1A5
100
AcDbEntity
  8
1
  6
CONTINUOUS
 62
             7
100
AcDbLine
 10
26.5
 20
-6.0
 11
28.0
 21
-6.0
  0
LINE
  5
1A4
100
AcDbEntity
  8
1
  6
CONTINUOUS
 62
             7
100
AcDbLine
 10
28.0
 20
-6.0
 11
28.0
 21
-3.5
  0
LINE
  5
1A3
100
AcDbEntity
  8
1
  6
CONTINUOUS
 62
             7
100
AcDbLine
 10
28.0
 20
-3.5
 11
26.5
 21
-3.5
  0
LINE
  5
1A2
100
AcDbEntity
  8
1
  6
CONTINUOUS
 62
             7
100
AcDbLine
 10
26.5
 20
-3.5
 11
26.5
 21
-6.0
  0
LINE
  5
1A1
100
AcDbEntity
  8
1
  6
CONTINUOUS
 62
             7
100
AcDbLine
 10
24.5
 20
-6.0
 11
26.0
 21
-6.0
  0
LINE
  5
1A0
100
AcDbEntity
  8
1
  6
CONTINUOUS
 62
             7
100
AcDbLine
 10
26.0
 20
-6.0
 11
26.0
 21
-3.5
  0
LINE
  5
19F
100
AcDbEntity
  8
1
  6
CONTINUOUS
 62
             7
100
AcDbLine
 10
26.0
 20
-3.5
 11
24.5
 21
-3.5
  0
LINE
  5
19E
100
AcDbEntity
  8
1
  6
CONTINUOUS
 62
             7
100
AcDbLine
 10
24.5
 20
-3.5
 11
24.5
 21
-6.0
  0
LINE
  5
19D
100
AcDbEntity
  8
1
  6
CONTINUOUS
 62
             7
100
AcDbLine
 10
22.5
 20
-6.0
 11
24.0
 21
-6.0
  0
LINE
  5
19C
100
AcDbEntity
  8
1
  6
CONTINUOUS
 62
             7
100
AcDbLine
 10
24.0
 20
-6.0
 11
24.0
 21
-3.5
  0
LINE
  5
19B
100
AcDbEntity
  8
1
  6
CONTINUOUS
 62
             7
100
AcDbLine
 10
24.0
 20
-3.5
 11
22.5
 21
-3.5
  0
LINE
  5
19A
100
AcDbEntity
  8
1
  6
CONTINUOUS
 62
             7
100
AcDbLine
 10
22.5
 20
-3.5
 11
22.5
 21
-6.0
  0
LINE
  5
199
100
AcDbEntity
  8
1
  6
CONTINUOUS
 62
             7
100
AcDbLine
 10
20.5
 20
-6.0
 11
22.0
 21
-6.0
  0
LINE
  5
198
100
AcDbEntity
  8
1
  6
CONTINUOUS
 62
             7
100
AcDbLine
 10
22.0
 20
-6.0
 11
22.0
 21
-3.5
  0
LINE
  5
197
100
AcDbEntity
  8
1
  6
CONTINUOUS
 62
             7
100
AcDbLine
 10
22.0
 20
-3.5
 11
20.5
 21
-3.5
  0
LINE
  5
196
100
AcDbEntity
  8
1
  6
CONTINUOUS
 62
             7
100
AcDbLine
 10
20.5
 20
-3.5
 11
20.5
 21
-6.0
  0
LINE
  5
195
100
AcDbEntity
  8
1
  6
CONTINUOUS
 62
             7
100
AcDbLine
 10
18.5
 20
-6.0
 11
20.0
 21
-6.0
  0
LINE
  5
194
100
AcDbEntity
  8
1
  6
CONTINUOUS
 62
             7
100
AcDbLine
 10
20.0
 20
-6.0
 11
20.0
 21
-3.5
  0
LINE
  5
193
100
AcDbEntity
  8
1
  6
CONTINUOUS
 62
             7
100
AcDbLine
 10
20.0
 20
-3.5
 11
18.5
 21
-3.5
  0
LINE
  5
192
100
AcDbEntity
  8
1
  6
CONTINUOUS
 62
             7
100
AcDbLine
 10
18.5
 20
-3.5
 11
18.5
 21
-6.0
  0
LINE
  5
191
100
AcDbEntity
  8
1
  6
CONTINUOUS
 62
             7
100
AcDbLine
 10
16.5
 20
-6.0
 11
18.0
 21
-6.0
  0
LINE
  5
190
100
AcDbEntity
  8
1
  6
CONTINUOUS
 62
             7
100
AcDbLine
 10
18.0
 20
-6.0
 11
18.0
 21
-3.5
  0
LINE
  5
18F
100
AcDbEntity
  8
1
  6
CONTINUOUS
 62
             7
100
AcDbLine
 10
18.0
 20
-3.5
 11
16.5
 21
-3.5
  0
LINE
  5
18E
100
AcDbEntity
  8
1
  6
CONTINUOUS
 62
             7
100
AcDbLine
 10
16.5
 20
-3.5
 11
16.5
 21
-6.0
  0
LINE
  5
18D
100
AcDbEntity
  8
1
  6
CONTINUOUS
 62
             7
100
AcDbLine
 10
14.5
 20
-6.0
 11
16.0
 21
-6.0
  0
LINE
  5
18C
100
AcDbEntity
  8
1
  6
CONTINUOUS
 62
             7
100
AcDbLine
 10
16.0
 20
-6.0
 11
16.0
 21
-3.5
  0
LINE
  5
18B
100
AcDbEntity
  8
1
  6
CONTINUOUS
 62
             7
100
AcDbLine
 10
16.0
 20
-3.5
 11
14.5
 21
-3.5
  0
LINE
  5
18A
100
AcDbEntity
  8
1
  6
CONTINUOUS
 62
             7
100
AcDbLine
 10
14.5
 20
-3.5
 11
14.5
 21
-6.0
  0
LINE
  5
189
100
AcDbEntity
  8
1
  6
CONTINUOUS
 62
             7
100
AcDbLine
 10
12.5
 20
-6.0
 11
14.0
 21
-6.0
  0
LINE
  5
188
100
AcDbEntity
  8
1
  6
CONTINUOUS
 62
             7
100
AcDbLine
 10
14.0
 20
-6.0
 11
14.0
 21
-3.5
  0
LINE
  5
187
100
AcDbEntity
  8
1
  6
CONTINUOUS
 62
             7
100
AcDbLine
 10
14.0
 20
-3.5
 11
12.5
 21
-3.5
  0
LINE
  5
186
100
AcDbEntity
  8
1
  6
CONTINUOUS
 62
             7
100
AcDbLine
 10
12.5
 20
-3.5
 11
12.5
 21
-6.0
  0
LINE
  5
185
100
AcDbEntity
  8
1
  6
CONTINUOUS
 62
             7
100
AcDbLine
 10
10.5
 20
-6.0
 11
12.0
 21
-6.0
  0
LINE
  5
184
100
AcDbEntity
  8
1
  6
CONTINUOUS
 62
             7
100
AcDbLine
 10
12.0
 20
-6.0
 11
12.0
 21
-3.5
  0
LINE
  5
183
100
AcDbEntity
  8
1
  6
CONTINUOUS
 62
             7
100
AcDbLine
 10
12.0
 20
-3.5
 11
10.5
 21
-3.5
  0
LINE
  5
182
100
AcDbEntity
  8
1
  6
CONTINUOUS
 62
             7
100
AcDbLine
 10
10.5
 20
-3.5
 11
10.5
 21
-6.0
  0
LINE
  5
181
100
AcDbEntity
  8
1
  6
CONTINUOUS
 62
             7
100
AcDbLine
 10
8.5
 20
-6.0
 11
10.0
 21
-6.0
  0
LINE
  5
180
100
AcDbEntity
  8
1
  6
CONTINUOUS
 62
             7
100
AcDbLine
 10
10.0
 20
-6.0
 11
10.0
 21
-3.5
  0
LINE
  5
17F
100
AcDbEntity
  8
1
  6
CONTINUOUS
 62
             7
100
AcDbLine
 10
10.0
 20
-3.5
 11
8.5
 21
-3.5
  0
LINE
  5
17E
100
AcDbEntity
  8
1
  6
CONTINUOUS
 62
             7
100
AcDbLine
 10
8.5
 20
-3.5
 11
8.5
 21
-6.0
  0
LINE
  5
17D
100
AcDbEntity
  8
1
  6
CONTINUOUS
 62
             7
100
AcDbLine
 10
6.5
 20
-6.0
 11
8.0
 21
-6.0
  0
LINE
  5
17C
100
AcDbEntity
  8
1
  6
CONTINUOUS
 62
             7
100
AcDbLine
 10
8.0
 20
-6.0
 11
8.0
 21
-3.5
  0
LINE
  5
17B
100
AcDbEntity
  8
1
  6
CONTINUOUS
 62
             7
100
AcDbLine
 10
8.0
 20
-3.5
 11
6.5
 21
-3.5
  0
LINE
  5
17A
100
AcDbEntity
  8
1
  6
CONTINUOUS
 62
             7
100
AcDbLine
 10
6.5
 20
-3.5
 11
6.5
 21
-6.0
  0
LINE
  5
179
100
AcDbEntity
  8
1
  6
CONTINUOUS
 62
             7
100
AcDbLine
 10
4.5
 20
-6.0
 11
6.0
 21
-6.0
  0
LINE
  5
178
100
AcDbEntity
  8
1
  6
CONTINUOUS
 62
             7
100
AcDbLine
 10
6.0
 20
-6.0
 11
6.0
 21
-3.5
  0
LINE
  5
177
100
AcDbEntity
  8
1
  6
CONTINUOUS
 62
             7
100
AcDbLine
 10
6.0
 20
-3.5
 11
4.5
 21
-3.5
  0
LINE
  5
176
100
AcDbEntity
  8
1
  6
CONTINUOUS
 62
             7
100
AcDbLine
 10
4.5
 20
-3.5
 11
4.5
 21
-6.0
  0
LINE
  5
175
100
AcDbEntity
  8
1
  6
CONTINUOUS
 62
             7
100
AcDbLine
 10
2.5
 20
-6.0
 11
4.0
 21
-6.0
  0
LINE
  5
174
100
AcDbEntity
  8
1
  6
CONTINUOUS
 62
             7
100
AcDbLine
 10
4.0
 20
-6.0
 11
4.0
 21
-3.5
  0
LINE
  5
173
100
AcDbEntity
  8
1
  6
CONTINUOUS
 62
             7
100
AcDbLine
 10
4.0
 20
-3.5
 11
2.5
 21
-3.5
  0
LINE
  5
172
100
AcDbEntity
  8
1
  6
CONTINUOUS
 62
             7
100
AcDbLine
 10
2.5
 20
-3.5
 11
2.5
 21
-6.0
  0
LINE
  5
171
100
AcDbEntity
  8
1
  6
CONTINUOUS
 62
             7
100
AcDbLine
 10
0.5
 20
-6.0
 11
2.0
 21
-6.0
  0
LINE
  5
170
100
AcDbEntity
  8
1
  6
CONTINUOUS
 62
             7
100
AcDbLine
 10
2.0
 20
-6.0
 11
2.0
 21
-3.5
  0
LINE
  5
16F
100
AcDbEntity
  8
1
  6
CONTINUOUS
 62
             7
100
AcDbLine
 10
2.0
 20
-3.5
 11
0.5
 21
-3.5
  0
LINE
  5
16E
100
AcDbEntity
  8
1
  6
CONTINUOUS
 62
             7
100
AcDbLine
 10
0.5
 20
-3.5
 11
0.5
 21
-6.0
  0
LINE
  5
16D
100
AcDbEntity
  8
1
  6
CONTINUOUS
 62
             7
100
AcDbLine
 10
-1.5
 20
-6.0
 11
0.0
 21
-6.0
  0
LINE
  5
16C
100
AcDbEntity
  8
1
  6
CONTINUOUS
 62
             7
100
AcDbLine
 10
0.0
 20
-6.0
 11
0.0
 21
-3.5
  0
LINE
  5
16B
100
AcDbEntity
  8
1
  6
CONTINUOUS
 62
             7
100
AcDbLine
 10
0.0
 20
-3.5
 11
-1.5
 21
-3.5
  0
LINE
  5
16A
100
AcDbEntity
  8
1
  6
CONTINUOUS
 62
             7
100
AcDbLine
 10
-1.5
 20
-3.5
 11
-1.5
 21
-6.0
  0
LINE
  5
169
100
AcDbEntity
  8
1
  6
CONTINUOUS
 62
             7
100
AcDbLine
 10
-3.5
 20
-6.0
 11
-2.0
 21
-6.0
  0
LINE
  5
168
100
AcDbEntity
  8
1
  6
CONTINUOUS
 62
             7
100
AcDbLine
 10
-2.0
 20
-6.0
 11
-2.0
 21
-3.5
  0
LINE
  5
167
100
AcDbEntity
  8
1
  6
CONTINUOUS
 62
             7
100
AcDbLine
 10
-2.0
 20
-3.5
 11
-3.5
 21
-3.5
  0
LINE
  5
166
100
AcDbEntity
  8
1
  6
CONTINUOUS
 62
             7
100
AcDbLine
 10
-3.5
 20
-3.5
 11
-3.5
 21
-6.0
  0
LINE
  5
165
100
AcDbEntity
  8
1
  6
CONTINUOUS
 62
             7
100
AcDbLine
 10
-5.5
 20
-6.0
 11
-4.0
 21
-6.0
  0
LINE
  5
164
100
AcDbEntity
  8
1
  6
CONTINUOUS
 62
             7
100
AcDbLine
 10
-4.0
 20
-6.0
 11
-4.0
 21
-3.5
  0
LINE
  5
163
100
AcDbEntity
  8
1
  6
CONTINUOUS
 62
             7
100
AcDbLine
 10
-4.0
 20
-3.5
 11
-5.5
 21
-3.5
  0
LINE
  5
162
100
AcDbEntity
  8
1
  6
CONTINUOUS
 62
             7
100
AcDbLine
 10
-5.5
 20
-3.5
 11
-5.5
 21
-6.0
  0
LINE
  5
161
100
AcDbEntity
  8
1
  6
CONTINUOUS
 62
             7
100
AcDbLine
 10
-7.5
 20
-3.5
 11
-7.5
 21
-6.0
  0
LINE
  5
160
100
AcDbEntity
  8
1
  6
CONTINUOUS
 62
             7
100
AcDbLine
 10
-6.0
 20
-3.5
 11
-7.5
 21
-3.5
  0
LINE
  5
15F
100
AcDbEntity
  8
1
  6
CONTINUOUS
 62
             7
100
AcDbLine
 10
-6.0
 20
-6.0
 11
-6.0
 21
-3.5
  0
LINE
  5
15E
100
AcDbEntity
  8
1
  6
CONTINUOUS
 62
             7
100
AcDbLine
 10
-7.5
 20
-6.0
 11
-6.0
 21
-6.0
  0
LINE
  5
15D
100
AcDbEntity
  8
1
  6
CONTINUOUS
 62
             7
100
AcDbLine
 10
25.95857576643252
 20
-1.10000000000002
 11
26.48166674728802
 21
-1.723395555688
  0
LINE
  5
15C
100
AcDbEntity
  8
1
  6
CONTINUOUS
 62
             7
100
AcDbLine
 10
27.1333152500807
 20
-2.5
 11
31.39810702000082
 21
-2.5
  0
LINE
  5
15B
100
AcDbEntity
  8
1
  6
CONTINUOUS
 62
             7
100
AcDbLine
 10
31.39810702000082
 20
-2.5
 11
32.1557300905049
 21
-1.86427876096865
  0
LINE
  5
15A
100
AcDbEntity
  8
1
  6
CONTINUOUS
 62
             7
100
AcDbLine
 10
33.06656204963272
 20
-1.10000000000002
 11
33.90789609541362
 21
3.6714424780627
  0
LINE
  5
159
100
AcDbEntity
  8
1
  6
CONTINUOUS
 62
             7
100
AcDbLine
 10
27.93343795036731
 20
10.09999999999991
 11
27.09210390458642
 21
5.32855752193741
  0
LINE
  5
158
100
AcDbEntity
  8
1
  6
CONTINUOUS
 62
             7
100
AcDbLine
 10
29.60189297999921
 20
11.5
 11
28.84426990949513
 21
10.86427876096866
  0
LINE
  5
157
100
AcDbEntity
  8
1
  6
CONTINUOUS
 62
             7
100
AcDbLine
 10
33.8666847499193
 20
11.5
 11
29.60189297999921
 21
11.5
  0
LINE
  5
156
100
AcDbEntity
  8
1
  6
CONTINUOUS
 62
             7
100
AcDbLine
 10
35.04142423356751
 20
10.09999999999991
 11
34.51833325271201
 21
10.72339555568807
  0
LINE
  5
155
100
AcDbEntity
  8
1
  6
CONTINUOUS
 62
             7
100
AcDbLine
 10
-9.5
 20
-6.0
 11
-8.0
 21
-6.0
  0
LINE
  5
154
100
AcDbEntity
  8
1
  6
CONTINUOUS
 62
             7
100
AcDbLine
 10
-8.0
 20
-6.0
 11
-8.0
 21
-3.5
  0
LINE
  5
153
100
AcDbEntity
  8
1
  6
CONTINUOUS
 62
             7
100
AcDbLine
 10
-8.0
 20
-3.5
 11
-9.5
 21
-3.5
  0
LINE
  5
152
100
AcDbEntity
  8
1
  6
CONTINUOUS
 62
             7
100
AcDbLine
 10
-9.5
 20
-3.5
 11
-9.5
 21
-6.0
  0
LINE
  5
151
100
AcDbEntity
  8
1
  6
CONTINUOUS
 62
             7
100
AcDbLine
 10
-11.5
 20
-3.5
 11
-11.5
 21
-6.0
  0
LINE
  5
150
100
AcDbEntity
  8
1
  6
CONTINUOUS
 62
             7
100
AcDbLine
 10
-10.0
 20
-3.5
 11
-11.5
 21
-3.5
  0
LINE
  5
14F
100
AcDbEntity
  8
1
  6
CONTINUOUS
 62
             7
100
AcDbLine
 10
-10.0
 20
-6.0
 11
-10.0
 21
-3.5
  0
LINE
  5
14E
100
AcDbEntity
  8
1
  6
CONTINUOUS
 62
             7
100
AcDbLine
 10
-11.5
 20
-6.0
 11
-10.0
 21
-6.0
  0
LINE
  5
14D
100
AcDbEntity
  8
0
  6
CONTINUOUS
 62
             7
100
AcDbLine
 10
167.52205450853171
 20
38.68860009363267
 11
167.52205450853171
 21
36.91139990636682
  0
LINE
  5
14C
100
AcDbEntity
  8
0
  6
CONTINUOUS
 62
             7
100
AcDbLine
 10
167.52205450853171
 20
40.54999999999974
 11
168.26117465015619
 21
40.54999999999974
  0
LINE
  5
14B
100
AcDbEntity
  8
0
  6
CONTINUOUS
 62
             7
100
AcDbLine
 10
168.26117465015619
 20
35.04999999999974
 11
167.52205450853171
 21
35.04999999999974
  0
LINE
  5
14A
100
AcDbEntity
  8
0
  6
CONTINUOUS
 62
             7
100
AcDbLine
 10
167.1220545085317
 20
41.19999999999975
 11
166.1220545085317
 21
41.19999999999975
  0
LINE
  5
149
100
AcDbEntity
  8
0
  6
CONTINUOUS
 62
             7
100
AcDbLine
 10
167.1220545085317
 20
34.39999999999975
 11
166.1220545085317
 21
34.39999999999975
  0
LINE
  5
148
100
AcDbEntity
  8
0
  6
CONTINUOUS
 62
             7
100
AcDbLine
 10
167.1220545085317
 20
41.19999999999975
 11
167.52205450853171
 21
39.54999999999974
  0
LINE
  5
147
100
AcDbEntity
  8
0
  6
CONTINUOUS
 62
             7
100
AcDbLine
 10
166.1220545085317
 20
41.19999999999975
 11
166.52205450853171
 21
39.54999999999974
  0
LINE
  5
146
100
AcDbEntity
  8
0
  6
CONTINUOUS
 62
             7
100
AcDbLine
 10
167.1220545085317
 20
38.39999999999975
 11
167.3922791968495
 21
38.5013342581189
  0
LINE
  5
145
100
AcDbEntity
  8
0
  6
CONTINUOUS
 62
             7
100
AcDbLine
 10
167.1220545085317
 20
38.39999999999975
 11
167.1220545085317
 21
37.19999999999975
  0
LINE
  5
144
100
AcDbEntity
  8
0
  6
CONTINUOUS
 62
             7
100
AcDbLine
 10
167.1220545085317
 20
37.19999999999975
 11
167.3922791968495
 21
37.09866574188062
  0
LINE
  5
143
100
AcDbEntity
  8
0
  6
CONTINUOUS
 62
             7
100
AcDbLine
 10
166.1220545085317
 20
38.39999999999975
 11
166.3922791968495
 21
38.5013342581189
  0
LINE
  5
142
100
AcDbEntity
  8
0
  6
CONTINUOUS
 62
             7
100
AcDbLine
 10
166.1220545085317
 20
37.19999999999975
 11
166.3922791968495
 21
37.09866574188062
  0
LINE
  5
141
100
AcDbEntity
  8
0
  6
CONTINUOUS
 62
             7
100
AcDbLine
 10
167.52205450853171
 20
41.19999999999975
 11
167.52205450853171
 21
38.68860009363267
  0
LINE
  5
140
100
AcDbEntity
  8
0
  6
CONTINUOUS
 62
             7
100
AcDbLine
 10
167.52205450853171
 20
36.04999999999974
 11
167.1220545085317
 21
34.39999999999975
  0
LINE
  5
13F
100
AcDbEntity
  8
0
  6
CONTINUOUS
 62
             7
100
AcDbLine
 10
166.52205450853171
 20
36.04999999999974
 11
166.1220545085317
 21
34.39999999999975
  0
LINE
  5
13E
100
AcDbEntity
  8
0
  6
CONTINUOUS
 62
             7
100
AcDbLine
 10
167.52205450853171
 20
41.19999999999975
 11
167.1220545085317
 21
41.19999999999975
  0
LINE
  5
13D
100
AcDbEntity
  8
0
  6
CONTINUOUS
 62
             7
100
AcDbLine
 10
167.52205450853171
 20
34.39999999999975
 11
167.1220545085317
 21
34.39999999999975
  0
LINE
  5
13C
100
AcDbEntity
  8
0
  6
CONTINUOUS
 62
             7
100
AcDbLine
 10
166.52205450853171
 20
38.68860009363267
 11
166.52205450853171
 21
39.54999999999974
  0
LINE
  5
13B
100
AcDbEntity
  8
0
  6
CONTINUOUS
 62
             7
100
AcDbLine
 10
166.52205450853171
 20
36.04999999999974
 11
166.52205450853171
 21
36.91139990636682
  0
LINE
  5
13A
100
AcDbEntity
  8
0
  6
CONTINUOUS
 62
             7
100
AcDbLine
 10
167.52205450853171
 20
34.39999999999975
 11
167.52205450853171
 21
36.91139990636682
  0
LINE
  5
139
100
AcDbEntity
  8
0
  6
CONTINUOUS
 62
             7
100
AcDbLine
 10
167.52205450853171
 20
30.28860009363271
 11
167.52205450853171
 21
28.51139990636684
  0
LINE
  5
138
100
AcDbEntity
  8
0
  6
CONTINUOUS
 62
             7
100
AcDbLine
 10
167.52205450853171
 20
32.14999999999978
 11
168.26117465015619
 21
32.14999999999978
  0
LINE
  5
137
100
AcDbEntity
  8
0
  6
CONTINUOUS
 62
             7
100
AcDbLine
 10
168.26117465015619
 20
26.64999999999978
 11
167.52205450853171
 21
26.64999999999978
  0
LINE
  5
136
100
AcDbEntity
  8
0
  6
CONTINUOUS
 62
             7
100
AcDbLine
 10
167.1220545085317
 20
32.79999999999978
 11
166.1220545085317
 21
32.79999999999978
  0
LINE
  5
135
100
AcDbEntity
  8
0
  6
CONTINUOUS
 62
             7
100
AcDbLine
 10
167.1220545085317
 20
25.99999999999977
 11
166.1220545085317
 21
25.99999999999977
  0
LINE
  5
134
100
AcDbEntity
  8
0
  6
CONTINUOUS
 62
             7
100
AcDbLine
 10
167.1220545085317
 20
32.79999999999978
 11
167.52205450853171
 21
31.14999999999978
  0
LINE
  5
133
100
AcDbEntity
  8
0
  6
CONTINUOUS
 62
             7
100
AcDbLine
 10
166.1220545085317
 20
32.79999999999978
 11
166.52205450853171
 21
31.14999999999978
  0
LINE
  5
132
100
AcDbEntity
  8
0
  6
CONTINUOUS
 62
             7
100
AcDbLine
 10
167.1220545085317
 20
29.99999999999977
 11
167.3922791968495
 21
30.10133425811891
  0
LINE
  5
131
100
AcDbEntity
  8
0
  6
CONTINUOUS
 62
             7
100
AcDbLine
 10
167.1220545085317
 20
29.99999999999977
 11
167.1220545085317
 21
28.79999999999978
  0
LINE
  5
130
100
AcDbEntity
  8
0
  6
CONTINUOUS
 62
             7
100
AcDbLine
 10
167.1220545085317
 20
28.79999999999978
 11
167.3922791968495
 21
28.69866574188066
  0
LINE
  5
12F
100
AcDbEntity
  8
0
  6
CONTINUOUS
 62
             7
100
AcDbLine
 10
166.1220545085317
 20
29.99999999999977
 11
166.3922791968495
 21
30.10133425811891
  0
LINE
  5
12E
100
AcDbEntity
  8
0
  6
CONTINUOUS
 62
             7
100
AcDbLine
 10
166.1220545085317
 20
28.79999999999978
 11
166.3922791968495
 21
28.69866574188066
  0
LINE
  5
12D
100
AcDbEntity
  8
0
  6
CONTINUOUS
 62
             7
100
AcDbLine
 10
167.52205450853171
 20
32.79999999999978
 11
167.52205450853171
 21
30.28860009363271
  0
LINE
  5
12C
100
AcDbEntity
  8
0
  6
CONTINUOUS
 62
             7
100
AcDbLine
 10
167.52205450853171
 20
27.64999999999978
 11
167.1220545085317
 21
25.99999999999977
  0
LINE
  5
12B
100
AcDbEntity
  8
0
  6
CONTINUOUS
 62
             7
100
AcDbLine
 10
166.52205450853171
 20
27.64999999999978
 11
166.1220545085317
 21
25.99999999999977
  0
LINE
  5
12A
100
AcDbEntity
  8
0
  6
CONTINUOUS
 62
             7
100
AcDbLine
 10
167.52205450853171
 20
32.79999999999978
 11
167.1220545085317
 21
32.79999999999978
  0
LINE
  5
129
100
AcDbEntity
  8
0
  6
CONTINUOUS
 62
             7
100
AcDbLine
 10
167.52205450853171
 20
25.99999999999977
 11
167.1220545085317
 21
25.99999999999977
  0
LINE
  5
128
100
AcDbEntity
  8
0
  6
CONTINUOUS
 62
             7
100
AcDbLine
 10
166.52205450853171
 20
30.28860009363271
 11
166.52205450853171
 21
31.14999999999978
  0
LINE
  5
127
100
AcDbEntity
  8
0
  6
CONTINUOUS
 62
             7
100
AcDbLine
 10
166.52205450853171
 20
27.64999999999978
 11
166.52205450853171
 21
28.51139990636684
  0
LINE
  5
126
100
AcDbEntity
  8
0
  6
CONTINUOUS
 62
             7
100
AcDbLine
 10
167.52205450853171
 20
25.99999999999977
 11
167.52205450853171
 21
28.51139990636684
  0
LINE
  5
125
100
AcDbEntity
  8
0
  6
CONTINUOUS
 62
             7
100
AcDbLine
 10
167.52205450853171
 20
21.8886000936327
 11
167.52205450853171
 21
20.11139990636687
  0
LINE
  5
124
100
AcDbEntity
  8
0
  6
CONTINUOUS
 62
             7
100
AcDbLine
 10
167.52205450853171
 20
23.74999999999978
 11
168.26117465015619
 21
23.74999999999978
  0
LINE
  5
123
100
AcDbEntity
  8
0
  6
CONTINUOUS
 62
             7
100
AcDbLine
 10
168.26117465015619
 20
18.24999999999979
 11
167.52205450853171
 21
18.24999999999979
  0
LINE
  5
122
100
AcDbEntity
  8
0
  6
CONTINUOUS
 62
             7
100
AcDbLine
 10
167.1220545085317
 20
24.3999999999998
 11
166.1220545085317
 21
24.3999999999998
  0
LINE
  5
121
100
AcDbEntity
  8
0
  6
CONTINUOUS
 62
             7
100
AcDbLine
 10
167.1220545085317
 20
17.59999999999979
 11
166.1220545085317
 21
17.59999999999979
  0
LINE
  5
120
100
AcDbEntity
  8
0
  6
CONTINUOUS
 62
             7
100
AcDbLine
 10
167.1220545085317
 20
24.3999999999998
 11
167.52205450853171
 21
22.74999999999978
  0
LINE
  5
11F
100
AcDbEntity
  8
0
  6
CONTINUOUS
 62
             7
100
AcDbLine
 10
166.1220545085317
 20
24.3999999999998
 11
166.52205450853171
 21
22.74999999999978
  0
LINE
  5
11E
100
AcDbEntity
  8
0
  6
CONTINUOUS
 62
             7
100
AcDbLine
 10
167.1220545085317
 20
21.59999999999979
 11
167.3922791968495
 21
21.70133425811893
  0
LINE
  5
11D
100
AcDbEntity
  8
0
  6
CONTINUOUS
 62
             7
100
AcDbLine
 10
167.1220545085317
 20
21.59999999999979
 11
167.1220545085317
 21
20.3999999999998
  0
LINE
  5
11C
100
AcDbEntity
  8
0
  6
CONTINUOUS
 62
             7
100
AcDbLine
 10
167.1220545085317
 20
20.3999999999998
 11
167.3922791968495
 21
20.29866574188067
  0
LINE
  5
11B
100
AcDbEntity
  8
0
  6
CONTINUOUS
 62
             7
100
AcDbLine
 10
166.1220545085317
 20
21.59999999999979
 11
166.3922791968495
 21
21.70133425811893
  0
LINE
  5
11A
100
AcDbEntity
  8
0
  6
CONTINUOUS
 62
             7
100
AcDbLine
 10
166.1220545085317
 20
20.3999999999998
 11
166.3922791968495
 21
20.29866574188067
  0
LINE
  5
119
100
AcDbEntity
  8
0
  6
CONTINUOUS
 62
             7
100
AcDbLine
 10
167.52205450853171
 20
24.3999999999998
 11
167.52205450853171
 21
21.8886000936327
  0
LINE
  5
118
100
AcDbEntity
  8
0
  6
CONTINUOUS
 62
             7
100
AcDbLine
 10
167.52205450853171
 20
19.24999999999978
 11
167.1220545085317
 21
17.59999999999979
  0
LINE
  5
117
100
AcDbEntity
  8
0
  6
CONTINUOUS
 62
             7
100
AcDbLine
 10
166.52205450853171
 20
19.24999999999978
 11
166.1220545085317
 21
17.59999999999979
  0
LINE
  5
116
100
AcDbEntity
  8
0
  6
CONTINUOUS
 62
             7
100
AcDbLine
 10
167.52205450853171
 20
24.3999999999998
 11
167.1220545085317
 21
24.3999999999998
  0
LINE
  5
115
100
AcDbEntity
  8
0
  6
CONTINUOUS
 62
             7
100
AcDbLine
 10
167.52205450853171
 20
17.59999999999979
 11
167.1220545085317
 21
17.59999999999979
  0
LINE
  5
114
100
AcDbEntity
  8
0
  6
CONTINUOUS
 62
             7
100
AcDbLine
 10
166.52205450853171
 20
21.8886000936327
 11
166.52205450853171
 21
22.74999999999978
  0
LINE
  5
113
100
AcDbEntity
  8
0
  6
CONTINUOUS
 62
             7
100
AcDbLine
 10
166.52205450853171
 20
19.24999999999978
 11
166.52205450853171
 21
20.11139990636687
  0
LINE
  5
112
100
AcDbEntity
  8
0
  6
CONTINUOUS
 62
             7
100
AcDbLine
 10
167.52205450853171
 20
17.59999999999979
 11
167.52205450853171
 21
20.11139990636687
  0
LINE
  5
111
100
AcDbEntity
  8
0
  6
CONTINUOUS
 62
             7
100
AcDbLine
 10
167.52205450853171
 20
13.48860009363273
 11
167.52205450853171
 21
11.71139990636687
  0
LINE
  5
110
100
AcDbEntity
  8
0
  6
CONTINUOUS
 62
             7
100
AcDbLine
 10
167.52205450853171
 20
15.3499999999998
 11
168.26117465015619
 21
15.3499999999998
  0
LINE
  5
10F
100
AcDbEntity
  8
0
  6
CONTINUOUS
 62
             7
100
AcDbLine
 10
168.26117465015619
 20
9.8499999999998
 11
167.52205450853171
 21
9.8499999999998
  0
LINE
  5
10E
100
AcDbEntity
  8
0
  6
CONTINUOUS
 62
             7
100
AcDbLine
 10
167.1220545085317
 20
15.99999999999981
 11
166.1220545085317
 21
15.99999999999981
  0
LINE
  5
10D
100
AcDbEntity
  8
0
  6
CONTINUOUS
 62
             7
100
AcDbLine
 10
167.1220545085317
 20
9.1999999999998
 11
166.1220545085317
 21
9.1999999999998
  0
LINE
  5
10C
100
AcDbEntity
  8
0
  6
CONTINUOUS
 62
             7
100
AcDbLine
 10
167.1220545085317
 20
15.99999999999981
 11
167.52205450853171
 21
14.3499999999998
  0
LINE
  5
10B
100
AcDbEntity
  8
0
  6
CONTINUOUS
 62
             7
100
AcDbLine
 10
166.1220545085317
 20
15.99999999999981
 11
166.52205450853171
 21
14.3499999999998
  0
LINE
  5
10A
100
AcDbEntity
  8
0
  6
CONTINUOUS
 62
             7
100
AcDbLine
 10
167.1220545085317
 20
13.1999999999998
 11
167.3922791968495
 21
13.30133425811895
  0
LINE
  5
109
100
AcDbEntity
  8
0
  6
CONTINUOUS
 62
             7
100
AcDbLine
 10
167.1220545085317
 20
13.1999999999998
 11
167.1220545085317
 21
11.99999999999981
  0
LINE
  5
108
100
AcDbEntity
  8
0
  6
CONTINUOUS
 62
             7
100
AcDbLine
 10
167.1220545085317
 20
11.99999999999981
 11
167.3922791968495
 21
11.89866574188068
  0
LINE
  5
107
100
AcDbEntity
  8
0
  6
CONTINUOUS
 62
             7
100
AcDbLine
 10
166.1220545085317
 20
13.1999999999998
 11
166.3922791968495
 21
13.30133425811895
  0
LINE
  5
106
100
AcDbEntity
  8
0
  6
CONTINUOUS
 62
             7
100
AcDbLine
 10
166.1220545085317
 20
11.99999999999981
 11
166.3922791968495
 21
11.89866574188068
  0
LINE
  5
105
100
AcDbEntity
  8
0
  6
CONTINUOUS
 62
             7
100
AcDbLine
 10
167.52205450853171
 20
15.99999999999981
 11
167.52205450853171
 21
13.48860009363273
  0
LINE
  5
104
100
AcDbEntity
  8
0
  6
CONTINUOUS
 62
             7
100
AcDbLine
 10
167.52205450853171
 20
10.8499999999998
 11
167.1220545085317
 21
9.1999999999998
  0
LINE
  5
103
100
AcDbEntity
  8
0
  6
CONTINUOUS
 62
             7
100
AcDbLine
 10
166.52205450853171
 20
10.8499999999998
 11
166.1220545085317
 21
9.1999999999998
  0
LINE
  5
102
100
AcDbEntity
  8
0
  6
CONTINUOUS
 62
             7
100
AcDbLine
 10
167.52205450853171
 20
15.99999999999981
 11
167.1220545085317
 21
15.99999999999981
  0
LINE
  5
101
100
AcDbEntity
  8
0
  6
CONTINUOUS
 62
             7
100
AcDbLine
 10
167.52205450853171
 20
9.1999999999998
 11
167.1220545085317
 21
9.1999999999998
  0
LINE
  5
100
100
AcDbEntity
  8
0
  6
CONTINUOUS
 62
             7
100
AcDbLine
 10
166.52205450853171
 20
13.48860009363273
 11
166.52205450853171
 21
14.3499999999998
  0
LINE
  5
FF
100
AcDbEntity
  8
0
  6
CONTINUOUS
 62
             7
100
AcDbLine
 10
166.52205450853171
 20
10.8499999999998
 11
166.52205450853171
 21
11.71139990636687
  0
LINE
  5
FE
100
AcDbEntity
  8
0
  6
CONTINUOUS
 62
             7
100
AcDbLine
 10
167.52205450853171
 20
9.1999999999998
 11
167.52205450853171
 21
11.71139990636687
  0
LINE
  5
FD
100
AcDbEntity
  8
0
  6
CONTINUOUS
 62
             7
100
AcDbLine
 10
167.52205450853171
 20
5.08860009363276
 11
167.52205450853171
 21
3.31139990636689
  0
LINE
  5
FC
100
AcDbEntity
  8
0
  6
CONTINUOUS
 62
             7
100
AcDbLine
 10
167.52205450853171
 20
6.94999999999983
 11
168.26117465015619
 21
6.94999999999983
  0
LINE
  5
FB
100
AcDbEntity
  8
0
  6
CONTINUOUS
 62
             7
100
AcDbLine
 10
168.26117465015619
 20
1.44999999999983
 11
167.52205450853171
 21
1.44999999999983
  0
LINE
  5
FA
100
AcDbEntity
  8
0
  6
CONTINUOUS
 62
             7
100
AcDbLine
 10
167.1220545085317
 20
7.59999999999983
 11
166.1220545085317
 21
7.59999999999983
  0
LINE
  5
F9
100
AcDbEntity
  8
0
  6
CONTINUOUS
 62
             7
100
AcDbLine
 10
167.1220545085317
 20
0.79999999999982
 11
166.1220545085317
 21
0.79999999999982
  0
LINE
  5
F8
100
AcDbEntity
  8
0
  6
CONTINUOUS
 62
             7
100
AcDbLine
 10
167.1220545085317
 20
7.59999999999983
 11
167.52205450853171
 21
5.94999999999983
  0
LINE
  5
F7
100
AcDbEntity
  8
0
  6
CONTINUOUS
 62
             7
100
AcDbLine
 10
166.1220545085317
 20
7.59999999999983
 11
166.52205450853171
 21
5.94999999999983
  0
LINE
  5
F6
100
AcDbEntity
  8
0
  6
CONTINUOUS
 62
             7
100
AcDbLine
 10
167.1220545085317
 20
4.79999999999982
 11
167.3922791968495
 21
4.90133425811897
  0
LINE
  5
F5
100
AcDbEntity
  8
0
  6
CONTINUOUS
 62
             7
100
AcDbLine
 10
167.1220545085317
 20
4.79999999999982
 11
167.1220545085317
 21
3.59999999999983
  0
LINE
  5
F4
100
AcDbEntity
  8
0
  6
CONTINUOUS
 62
             7
100
AcDbLine
 10
167.1220545085317
 20
3.59999999999983
 11
167.3922791968495
 21
3.49866574188071
  0
LINE
  5
F3
100
AcDbEntity
  8
0
  6
CONTINUOUS
 62
             7
100
AcDbLine
 10
166.1220545085317
 20
4.79999999999982
 11
166.3922791968495
 21
4.90133425811897
  0
LINE
  5
F2
100
AcDbEntity
  8
0
  6
CONTINUOUS
 62
             7
100
AcDbLine
 10
166.1220545085317
 20
3.59999999999983
 11
166.3922791968495
 21
3.49866574188071
  0
LINE
  5
F1
100
AcDbEntity
  8
0
  6
CONTINUOUS
 62
             7
100
AcDbLine
 10
167.52205450853171
 20
7.59999999999983
 11
167.52205450853171
 21
5.08860009363276
  0
LINE
  5
F0
100
AcDbEntity
  8
0
  6
CONTINUOUS
 62
             7
100
AcDbLine
 10
167.52205450853171
 20
2.44999999999983
 11
167.1220545085317
 21
0.79999999999982
  0
LINE
  5
EF
100
AcDbEntity
  8
0
  6
CONTINUOUS
 62
             7
100
AcDbLine
 10
166.52205450853171
 20
2.44999999999983
 11
166.1220545085317
 21
0.79999999999982
  0
LINE
  5
EE
100
AcDbEntity
  8
0
  6
CONTINUOUS
 62
             7
100
AcDbLine
 10
167.52205450853171
 20
7.59999999999983
 11
167.1220545085317
 21
7.59999999999983
  0
LINE
  5
ED
100
AcDbEntity
  8
0
  6
CONTINUOUS
 62
             7
100
AcDbLine
 10
167.52205450853171
 20
0.79999999999982
 11
167.1220545085317
 21
0.79999999999982
  0
LINE
  5
EC
100
AcDbEntity
  8
0
  6
CONTINUOUS
 62
             7
100
AcDbLine
 10
166.52205450853171
 20
5.08860009363276
 11
166.52205450853171
 21
5.94999999999983
  0
LINE
  5
EB
100
AcDbEntity
  8
0
  6
CONTINUOUS
 62
             7
100
AcDbLine
 10
166.52205450853171
 20
2.44999999999983
 11
166.52205450853171
 21
3.31139990636689
  0
LINE
  5
EA
100
AcDbEntity
  8
0
  6
CONTINUOUS
 62
             7
100
AcDbLine
 10
167.52205450853171
 20
0.79999999999982
 11
167.52205450853171
 21
3.31139990636689
  0
LINE
  5
E9
100
AcDbEntity
  8
0
  6
CONTINUOUS
 62
             7
100
AcDbLine
 10
167.52205450853171
 20
-3.31139990636723
 11
167.52205450853171
 21
-5.08860009363308
  0
LINE
  5
E8
100
AcDbEntity
  8
0
  6
CONTINUOUS
 62
             7
100
AcDbLine
 10
167.52205450853171
 20
-1.45000000000015
 11
168.26117465015619
 21
-1.45000000000015
  0
LINE
  5
E7
100
AcDbEntity
  8
0
  6
CONTINUOUS
 62
             7
100
AcDbLine
 10
168.26117465015619
 20
-6.95000000000015
 11
167.52205450853171
 21
-6.95000000000015
  0
LINE
  5
E6
100
AcDbEntity
  8
0
  6
CONTINUOUS
 62
             7
100
AcDbLine
 10
167.1220545085317
 20
-0.80000000000015
 11
166.1220545085317
 21
-0.80000000000015
  0
LINE
  5
E5
100
AcDbEntity
  8
0
  6
CONTINUOUS
 62
             7
100
AcDbLine
 10
167.1220545085317
 20
-7.60000000000015
 11
166.1220545085317
 21
-7.60000000000015
  0
LINE
  5
E4
100
AcDbEntity
  8
0
  6
CONTINUOUS
 62
             7
100
AcDbLine
 10
167.1220545085317
 20
-0.80000000000015
 11
167.52205450853171
 21
-2.45000000000015
  0
LINE
  5
E3
100
AcDbEntity
  8
0
  6
CONTINUOUS
 62
             7
100
AcDbLine
 10
166.1220545085317
 20
-0.80000000000015
 11
166.52205450853171
 21
-2.45000000000015
  0
LINE
  5
E2
100
AcDbEntity
  8
0
  6
CONTINUOUS
 62
             7
100
AcDbLine
 10
167.1220545085317
 20
-3.60000000000015
 11
167.3922791968495
 21
-3.49866574188101
  0
LINE
  5
E1
100
AcDbEntity
  8
0
  6
CONTINUOUS
 62
             7
100
AcDbLine
 10
167.1220545085317
 20
-3.60000000000015
 11
167.1220545085317
 21
-4.80000000000015
  0
LINE
  5
E0
100
AcDbEntity
  8
0
  6
CONTINUOUS
 62
             7
100
AcDbLine
 10
167.1220545085317
 20
-4.80000000000015
 11
167.3922791968495
 21
-4.90133425811928
  0
LINE
  5
DF
100
AcDbEntity
  8
0
  6
CONTINUOUS
 62
             7
100
AcDbLine
 10
166.1220545085317
 20
-3.60000000000015
 11
166.3922791968495
 21
-3.49866574188101
  0
LINE
  5
DE
100
AcDbEntity
  8
0
  6
CONTINUOUS
 62
             7
100
AcDbLine
 10
166.1220545085317
 20
-4.80000000000015
 11
166.3922791968495
 21
-4.90133425811928
  0
LINE
  5
DD
100
AcDbEntity
  8
0
  6
CONTINUOUS
 62
             7
100
AcDbLine
 10
167.52205450853171
 20
-0.80000000000015
 11
167.52205450853171
 21
-3.31139990636723
  0
LINE
  5
DC
100
AcDbEntity
  8
0
  6
CONTINUOUS
 62
             7
100
AcDbLine
 10
167.52205450853171
 20
-5.95000000000015
 11
167.1220545085317
 21
-7.60000000000015
  0
LINE
  5
DB
100
AcDbEntity
  8
0
  6
CONTINUOUS
 62
             7
100
AcDbLine
 10
166.52205450853171
 20
-5.95000000000015
 11
166.1220545085317
 21
-7.60000000000015
  0
LINE
  5
DA
100
AcDbEntity
  8
0
  6
CONTINUOUS
 62
             7
100
AcDbLine
 10
167.52205450853171
 20
-0.80000000000015
 11
167.1220545085317
 21
-0.80000000000015
  0
LINE
  5
D9
100
AcDbEntity
  8
0
  6
CONTINUOUS
 62
             7
100
AcDbLine
 10
167.52205450853171
 20
-7.60000000000015
 11
167.1220545085317
 21
-7.60000000000015
  0
LINE
  5
D8
100
AcDbEntity
  8
0
  6
CONTINUOUS
 62
             7
100
AcDbLine
 10
166.52205450853171
 20
-3.31139990636723
 11
166.52205450853171
 21
-2.45000000000015
  0
LINE
  5
D7
100
AcDbEntity
  8
0
  6
CONTINUOUS
 62
             7
100
AcDbLine
 10
166.52205450853171
 20
-5.95000000000015
 11
166.52205450853171
 21
-5.08860009363308
  0
LINE
  5
D6
100
AcDbEntity
  8
0
  6
CONTINUOUS
 62
             7
100
AcDbLine
 10
167.52205450853171
 20
-7.60000000000015
 11
167.52205450853171
 21
-5.08860009363308
  0
LINE
  5
D5
100
AcDbEntity
  8
0
  6
CONTINUOUS
 62
             7
100
AcDbLine
 10
167.52205450853171
 20
-11.71139990636719
 11
167.52205450853171
 21
-13.48860009363307
  0
LINE
  5
D4
100
AcDbEntity
  8
0
  6
CONTINUOUS
 62
             7
100
AcDbLine
 10
167.52205450853171
 20
-9.85000000000014
 11
168.26117465015619
 21
-9.85000000000014
  0
LINE
  5
D3
100
AcDbEntity
  8
0
  6
CONTINUOUS
 62
             7
100
AcDbLine
 10
168.26117465015619
 20
-15.35000000000014
 11
167.52205450853171
 21
-15.35000000000014
  0
LINE
  5
D2
100
AcDbEntity
  8
0
  6
CONTINUOUS
 62
             7
100
AcDbLine
 10
167.1220545085317
 20
-9.20000000000012
 11
166.1220545085317
 21
-9.20000000000012
  0
LINE
  5
D1
100
AcDbEntity
  8
0
  6
CONTINUOUS
 62
             7
100
AcDbLine
 10
167.1220545085317
 20
-16.00000000000014
 11
166.1220545085317
 21
-16.00000000000014
  0
LINE
  5
D0
100
AcDbEntity
  8
0
  6
CONTINUOUS
 62
             7
100
AcDbLine
 10
167.1220545085317
 20
-9.20000000000012
 11
167.52205450853171
 21
-10.85000000000014
  0
LINE
  5
CF
100
AcDbEntity
  8
0
  6
CONTINUOUS
 62
             7
100
AcDbLine
 10
166.1220545085317
 20
-9.20000000000012
 11
166.52205450853171
 21
-10.85000000000014
  0
LINE
  5
CE
100
AcDbEntity
  8
0
  6
CONTINUOUS
 62
             7
100
AcDbLine
 10
167.1220545085317
 20
-12.00000000000014
 11
167.3922791968495
 21
-11.89866574188098
  0
LINE
  5
CD
100
AcDbEntity
  8
0
  6
CONTINUOUS
 62
             7
100
AcDbLine
 10
167.1220545085317
 20
-12.00000000000014
 11
167.1220545085317
 21
-13.20000000000012
  0
LINE
  5
CC
100
AcDbEntity
  8
0
  6
CONTINUOUS
 62
             7
100
AcDbLine
 10
167.1220545085317
 20
-13.20000000000012
 11
167.3922791968495
 21
-13.30133425811924
  0
LINE
  5
CB
100
AcDbEntity
  8
0
  6
CONTINUOUS
 62
             7
100
AcDbLine
 10
166.1220545085317
 20
-12.00000000000014
 11
166.3922791968495
 21
-11.89866574188098
  0
LINE
  5
CA
100
AcDbEntity
  8
0
  6
CONTINUOUS
 62
             7
100
AcDbLine
 10
166.1220545085317
 20
-13.20000000000012
 11
166.3922791968495
 21
-13.30133425811924
  0
LINE
  5
C9
100
AcDbEntity
  8
0
  6
CONTINUOUS
 62
             7
100
AcDbLine
 10
167.52205450853171
 20
-9.20000000000012
 11
167.52205450853171
 21
-11.71139990636719
  0
LINE
  5
C8
100
AcDbEntity
  8
0
  6
CONTINUOUS
 62
             7
100
AcDbLine
 10
167.52205450853171
 20
-14.35000000000014
 11
167.1220545085317
 21
-16.00000000000014
  0
LINE
  5
C7
100
AcDbEntity
  8
0
  6
CONTINUOUS
 62
             7
100
AcDbLine
 10
166.52205450853171
 20
-14.35000000000014
 11
166.1220545085317
 21
-16.00000000000014
  0
LINE
  5
C6
100
AcDbEntity
  8
0
  6
CONTINUOUS
 62
             7
100
AcDbLine
 10
167.52205450853171
 20
-9.20000000000012
 11
167.1220545085317
 21
-9.20000000000012
  0
LINE
  5
C5
100
AcDbEntity
  8
0
  6
CONTINUOUS
 62
             7
100
AcDbLine
 10
167.52205450853171
 20
-16.00000000000014
 11
167.1220545085317
 21
-16.00000000000014
  0
LINE
  5
C4
100
AcDbEntity
  8
0
  6
CONTINUOUS
 62
             7
100
AcDbLine
 10
166.52205450853171
 20
-11.71139990636719
 11
166.52205450853171
 21
-10.85000000000014
  0
LINE
  5
C3
100
AcDbEntity
  8
0
  6
CONTINUOUS
 62
             7
100
AcDbLine
 10
166.52205450853171
 20
-14.35000000000014
 11
166.52205450853171
 21
-13.48860009363307
  0
LINE
  5
C2
100
AcDbEntity
  8
0
  6
CONTINUOUS
 62
             7
100
AcDbLine
 10
167.52205450853171
 20
-16.00000000000014
 11
167.52205450853171
 21
-13.48860009363307
  0
LINE
  5
C1
100
AcDbEntity
  8
0
  6
CONTINUOUS
 62
             7
100
AcDbLine
 10
167.52205450853171
 20
-20.11139990636717
 11
167.52205450853171
 21
-21.88860009363302
  0
LINE
  5
C0
100
AcDbEntity
  8
0
  6
CONTINUOUS
 62
             7
100
AcDbLine
 10
167.52205450853171
 20
-18.2500000000001
 11
168.26117465015619
 21
-18.2500000000001
  0
LINE
  5
BF
100
AcDbEntity
  8
0
  6
CONTINUOUS
 62
             7
100
AcDbLine
 10
168.26117465015619
 20
-23.7500000000001
 11
167.52205450853171
 21
-23.7500000000001
  0
LINE
  5
BE
100
AcDbEntity
  8
0
  6
CONTINUOUS
 62
             7
100
AcDbLine
 10
167.1220545085317
 20
-17.60000000000011
 11
166.1220545085317
 21
-17.60000000000011
  0
LINE
  5
BD
100
AcDbEntity
  8
0
  6
CONTINUOUS
 62
             7
100
AcDbLine
 10
167.1220545085317
 20
-24.40000000000013
 11
166.1220545085317
 21
-24.40000000000013
  0
LINE
  5
BC
100
AcDbEntity
  8
0
  6
CONTINUOUS
 62
             7
100
AcDbLine
 10
167.1220545085317
 20
-17.60000000000011
 11
167.52205450853171
 21
-19.2500000000001
  0
LINE
  5
BB
100
AcDbEntity
  8
0
  6
CONTINUOUS
 62
             7
100
AcDbLine
 10
166.1220545085317
 20
-17.60000000000011
 11
166.52205450853171
 21
-19.2500000000001
  0
LINE
  5
BA
100
AcDbEntity
  8
0
  6
CONTINUOUS
 62
             7
100
AcDbLine
 10
167.1220545085317
 20
-20.40000000000012
 11
167.3922791968495
 21
-20.29866574188097
  0
LINE
  5
B9
100
AcDbEntity
  8
0
  6
CONTINUOUS
 62
             7
100
AcDbLine
 10
167.1220545085317
 20
-20.40000000000012
 11
167.1220545085317
 21
-21.60000000000012
  0
LINE
  5
B8
100
AcDbEntity
  8
0
  6
CONTINUOUS
 62
             7
100
AcDbLine
 10
167.1220545085317
 20
-21.60000000000012
 11
167.3922791968495
 21
-21.70133425811922
  0
LINE
  5
B7
100
AcDbEntity
  8
0
  6
CONTINUOUS
 62
             7
100
AcDbLine
 10
166.1220545085317
 20
-20.40000000000012
 11
166.3922791968495
 21
-20.29866574188097
  0
LINE
  5
B6
100
AcDbEntity
  8
0
  6
CONTINUOUS
 62
             7
100
AcDbLine
 10
166.1220545085317
 20
-21.60000000000012
 11
166.3922791968495
 21
-21.70133425811922
  0
LINE
  5
B5
100
AcDbEntity
  8
0
  6
CONTINUOUS
 62
             7
100
AcDbLine
 10
167.52205450853171
 20
-17.60000000000011
 11
167.52205450853171
 21
-20.11139990636717
  0
LINE
  5
B4
100
AcDbEntity
  8
0
  6
CONTINUOUS
 62
             7
100
AcDbLine
 10
167.52205450853171
 20
-22.7500000000001
 11
167.1220545085317
 21
-24.40000000000013
  0
LINE
  5
B3
100
AcDbEntity
  8
0
  6
CONTINUOUS
 62
             7
100
AcDbLine
 10
166.52205450853171
 20
-22.7500000000001
 11
166.1220545085317
 21
-24.40000000000013
  0
LINE
  5
B2
100
AcDbEntity
  8
0
  6
CONTINUOUS
 62
             7
100
AcDbLine
 10
167.52205450853171
 20
-17.60000000000011
 11
167.1220545085317
 21
-17.60000000000011
  0
LINE
  5
B1
100
AcDbEntity
  8
0
  6
CONTINUOUS
 62
             7
100
AcDbLine
 10
167.52205450853171
 20
-24.40000000000013
 11
167.1220545085317
 21
-24.40000000000013
  0
LINE
  5
B0
100
AcDbEntity
  8
0
  6
CONTINUOUS
 62
             7
100
AcDbLine
 10
166.52205450853171
 20
-20.11139990636717
 11
166.52205450853171
 21
-19.2500000000001
  0
LINE
  5
AF
100
AcDbEntity
  8
0
  6
CONTINUOUS
 62
             7
100
AcDbLine
 10
166.52205450853171
 20
-22.7500000000001
 11
166.52205450853171
 21
-21.88860009363302
  0
LINE
  5
AE
100
AcDbEntity
  8
0
  6
CONTINUOUS
 62
             7
100
AcDbLine
 10
167.52205450853171
 20
-24.40000000000013
 11
167.52205450853171
 21
-21.88860009363302
  0
LINE
  5
AD
100
AcDbEntity
  8
0
  6
CONTINUOUS
 62
             7
100
AcDbLine
 10
167.52205450853171
 20
-28.51139990636713
 11
167.52205450853171
 21
-30.28860009363301
  0
LINE
  5
AC
100
AcDbEntity
  8
0
  6
CONTINUOUS
 62
             7
100
AcDbLine
 10
167.52205450853171
 20
-26.65000000000008
 11
168.26117465015619
 21
-26.65000000000008
  0
LINE
  5
AB
100
AcDbEntity
  8
0
  6
CONTINUOUS
 62
             7
100
AcDbLine
 10
168.26117465015619
 20
-32.15000000000008
 11
167.52205450853171
 21
-32.15000000000008
  0
LINE
  5
AA
100
AcDbEntity
  8
0
  6
CONTINUOUS
 62
             7
100
AcDbLine
 10
167.1220545085317
 20
-26.00000000000007
 11
166.1220545085317
 21
-26.00000000000007
  0
LINE
  5
A9
100
AcDbEntity
  8
0
  6
CONTINUOUS
 62
             7
100
AcDbLine
 10
167.1220545085317
 20
-32.80000000000011
 11
166.1220545085317
 21
-32.80000000000011
  0
LINE
  5
A8
100
AcDbEntity
  8
0
  6
CONTINUOUS
 62
             7
100
AcDbLine
 10
167.1220545085317
 20
-26.00000000000007
 11
167.52205450853171
 21
-27.65000000000008
  0
LINE
  5
A7
100
AcDbEntity
  8
0
  6
CONTINUOUS
 62
             7
100
AcDbLine
 10
166.1220545085317
 20
-26.00000000000007
 11
166.52205450853171
 21
-27.65000000000008
  0
LINE
  5
A6
100
AcDbEntity
  8
0
  6
CONTINUOUS
 62
             7
100
AcDbLine
 10
167.1220545085317
 20
-28.80000000000011
 11
167.3922791968495
 21
-28.69866574188096
  0
LINE
  5
A5
100
AcDbEntity
  8
0
  6
CONTINUOUS
 62
             7
100
AcDbLine
 10
167.1220545085317
 20
-28.80000000000011
 11
167.1220545085317
 21
-30.00000000000007
  0
LINE
  5
A4
100
AcDbEntity
  8
0
  6
CONTINUOUS
 62
             7
100
AcDbLine
 10
167.1220545085317
 20
-30.00000000000007
 11
167.3922791968495
 21
-30.10133425811918
  0
LINE
  5
A3
100
AcDbEntity
  8
0
  6
CONTINUOUS
 62
             7
100
AcDbLine
 10
166.1220545085317
 20
-28.80000000000011
 11
166.3922791968495
 21
-28.69866574188096
  0
LINE
  5
A2
100
AcDbEntity
  8
0
  6
CONTINUOUS
 62
             7
100
AcDbLine
 10
166.1220545085317
 20
-30.00000000000007
 11
166.3922791968495
 21
-30.10133425811918
  0
LINE
  5
A1
100
AcDbEntity
  8
0
  6
CONTINUOUS
 62
             7
100
AcDbLine
 10
167.52205450853171
 20
-26.00000000000007
 11
167.52205450853171
 21
-28.51139990636713
  0
LINE
  5
A0
100
AcDbEntity
  8
0
  6
CONTINUOUS
 62
             7
100
AcDbLine
 10
167.52205450853171
 20
-31.15000000000008
 11
167.1220545085317
 21
-32.80000000000011
  0
LINE
  5
9F
100
AcDbEntity
  8
0
  6
CONTINUOUS
 62
             7
100
AcDbLine
 10
166.52205450853171
 20
-31.15000000000008
 11
166.1220545085317
 21
-32.80000000000011
  0
LINE
  5
9E
100
AcDbEntity
  8
0
  6
CONTINUOUS
 62
             7
100
AcDbLine
 10
167.52205450853171
 20
-26.00000000000007
 11
167.1220545085317
 21
-26.00000000000007
  0
LINE
  5
9D
100
AcDbEntity
  8
0
  6
CONTINUOUS
 62
             7
100
AcDbLine
 10
167.52205450853171
 20
-32.80000000000011
 11
167.1220545085317
 21
-32.80000000000011
  0
LINE
  5
9C
100
AcDbEntity
  8
0
  6
CONTINUOUS
 62
             7
100
AcDbLine
 10
166.52205450853171
 20
-28.51139990636713
 11
166.52205450853171
 21
-27.65000000000008
  0
LINE
  5
9B
100
AcDbEntity
  8
0
  6
CONTINUOUS
 62
             7
100
AcDbLine
 10
166.52205450853171
 20
-31.15000000000008
 11
166.52205450853171
 21
-30.28860009363301
  0
LINE
  5
9A
100
AcDbEntity
  8
0
  6
CONTINUOUS
 62
             7
100
AcDbLine
 10
167.52205450853171
 20
-32.80000000000011
 11
167.52205450853171
 21
-30.28860009363301
  0
LINE
  5
99
100
AcDbEntity
  8
0
  6
CONTINUOUS
 62
             7
100
AcDbLine
 10
167.52205450853171
 20
-36.91139990636715
 11
167.52205450853171
 21
-38.68860009363297
  0
LINE
  5
98
100
AcDbEntity
  8
0
  6
CONTINUOUS
 62
             7
100
AcDbLine
 10
167.52205450853171
 20
-35.05000000000005
 11
168.26117465015619
 21
-35.05000000000005
  0
LINE
  5
97
100
AcDbEntity
  8
0
  6
CONTINUOUS
 62
             7
100
AcDbLine
 10
168.26117465015619
 20
-40.55000000000005
 11
167.52205450853171
 21
-40.55000000000005
  0
LINE
  5
96
100
AcDbEntity
  8
0
  6
CONTINUOUS
 62
             7
100
AcDbLine
 10
167.1220545085317
 20
-34.40000000000008
 11
166.1220545085317
 21
-34.40000000000008
  0
LINE
  5
95
100
AcDbEntity
  8
0
  6
CONTINUOUS
 62
             7
100
AcDbLine
 10
167.1220545085317
 20
-41.20000000000009
 11
166.1220545085317
 21
-41.20000000000009
  0
LINE
  5
94
100
AcDbEntity
  8
0
  6
CONTINUOUS
 62
             7
100
AcDbLine
 10
167.1220545085317
 20
-34.40000000000008
 11
167.52205450853171
 21
-36.05000000000005
  0
LINE
  5
93
100
AcDbEntity
  8
0
  6
CONTINUOUS
 62
             7
100
AcDbLine
 10
166.1220545085317
 20
-34.40000000000008
 11
166.52205450853171
 21
-36.05000000000005
  0
LINE
  5
92
100
AcDbEntity
  8
0
  6
CONTINUOUS
 62
             7
100
AcDbLine
 10
167.1220545085317
 20
-37.20000000000009
 11
167.3922791968495
 21
-37.09866574188092
  0
LINE
  5
91
100
AcDbEntity
  8
0
  6
CONTINUOUS
 62
             7
100
AcDbLine
 10
167.1220545085317
 20
-37.20000000000009
 11
167.1220545085317
 21
-38.40000000000008
  0
LINE
  5
90
100
AcDbEntity
  8
0
  6
CONTINUOUS
 62
             7
100
AcDbLine
 10
167.1220545085317
 20
-38.40000000000008
 11
167.3922791968495
 21
-38.5013342581192
  0
LINE
  5
8F
100
AcDbEntity
  8
0
  6
CONTINUOUS
 62
             7
100
AcDbLine
 10
166.1220545085317
 20
-37.20000000000009
 11
166.3922791968495
 21
-37.09866574188092
  0
LINE
  5
8E
100
AcDbEntity
  8
0
  6
CONTINUOUS
 62
             7
100
AcDbLine
 10
166.1220545085317
 20
-38.40000000000008
 11
166.3922791968495
 21
-38.5013342581192
  0
LINE
  5
8D
100
AcDbEntity
  8
0
  6
CONTINUOUS
 62
             7
100
AcDbLine
 10
167.52205450853171
 20
-34.40000000000008
 11
167.52205450853171
 21
-36.91139990636715
  0
LINE
  5
8C
100
AcDbEntity
  8
0
  6
CONTINUOUS
 62
             7
100
AcDbLine
 10
167.52205450853171
 20
-39.55000000000005
 11
167.1220545085317
 21
-41.20000000000009
  0
LINE
  5
8B
100
AcDbEntity
  8
0
  6
CONTINUOUS
 62
             7
100
AcDbLine
 10
166.52205450853171
 20
-39.55000000000005
 11
166.1220545085317
 21
-41.20000000000009
  0
LINE
  5
8A
100
AcDbEntity
  8
0
  6
CONTINUOUS
 62
             7
100
AcDbLine
 10
167.52205450853171
 20
-34.40000000000008
 11
167.1220545085317
 21
-34.40000000000008
  0
LINE
  5
89
100
AcDbEntity
  8
0
  6
CONTINUOUS
 62
             7
100
AcDbLine
 10
167.52205450853171
 20
-41.20000000000009
 11
167.1220545085317
 21
-41.20000000000009
  0
LINE
  5
88
100
AcDbEntity
  8
0
  6
CONTINUOUS
 62
             7
100
AcDbLine
 10
166.52205450853171
 20
-36.91139990636715
 11
166.52205450853171
 21
-36.05000000000005
  0
LINE
  5
87
100
AcDbEntity
  8
0
  6
CONTINUOUS
 62
             7
100
AcDbLine
 10
166.52205450853171
 20
-39.55000000000005
 11
166.52205450853171
 21
-38.68860009363297
  0
LINE
  5
86
100
AcDbEntity
  8
0
  6
CONTINUOUS
 62
             7
100
AcDbLine
 10
167.52205450853171
 20
-41.20000000000009
 11
167.52205450853171
 21
-38.68860009363297
  0
LINE
  5
85
100
AcDbEntity
  8
1
  6
CONTINUOUS
 62
             7
100
AcDbLine
 10
75.50000000000011
 20
-45.5
 11
75.50000000000011
 21
-48.5
  0
LINE
  5
84
100
AcDbEntity
  8
1
  6
CONTINUOUS
 62
             7
100
AcDbLine
 10
166.40000000000009
 20
-46.09999999999997
 11
166.40000000000009
 21
-45.5
  0
LINE
  5
83
100
AcDbEntity
  8
1
  6
CONTINUOUS
 62
             7
100
AcDbLine
 10
166.90000000000009
 20
-47.49999999999999
 11
166.90000000000009
 21
-47.99999999999999
  0
LINE
  5
82
100
AcDbEntity
  8
1
  6
CONTINUOUS
 62
             7
100
AcDbLine
 10
166.40000000000009
 20
-48.5
 11
166.40000000000009
 21
-47.99999999999999
  0
LINE
  5
81
100
AcDbEntity
  8
1
  6
CONTINUOUS
 62
             7
100
AcDbLine
 10
166.90000000000009
 20
-47.99999999999999
 11
166.40000000000009
 21
-47.99999999999999
  0
LINE
  5
80
100
AcDbEntity
  8
1
  6
CONTINUOUS
 62
             7
100
AcDbLine
 10
166.90000000000009
 20
-47.99999999999999
 11
166.90000000000009
 21
-49.99999999999999
  0
LINE
  5
7F
100
AcDbEntity
  8
1
  6
CONTINUOUS
 62
             7
100
AcDbLine
 10
160.8000000000001
 20
-48.5
 11
160.8000000000001
 21
-49.99999999999999
  0
LINE
  5
7E
100
AcDbEntity
  8
1
  6
CONTINUOUS
 62
             7
100
AcDbLine
 10
160.8000000000001
 20
-48.5
 11
160.8000000000001
 21
-49.99999999999999
  0
LINE
  5
7D
100
AcDbEntity
  8
1
  6
CONTINUOUS
 62
             7
100
AcDbLine
 10
166.90000000000009
 20
-49.99999999999999
 11
160.8000000000001
 21
-49.99999999999999
  0
LINE
  5
7C
100
AcDbEntity
  8
1
  6
CONTINUOUS
 62
             7
100
AcDbLine
 10
159.60000000000011
 20
-48.5
 11
159.60000000000011
 21
-49.99999999999999
  0
LINE
  5
7B
100
AcDbEntity
  8
1
  6
CONTINUOUS
 62
             7
100
AcDbLine
 10
147.50000000000011
 20
-48.5
 11
147.50000000000011
 21
-50.0
  0
LINE
  5
7A
100
AcDbEntity
  8
1
  6
CONTINUOUS
 62
             7
100
AcDbLine
 10
159.60000000000011
 20
-49.99999999999999
 11
147.50000000000011
 21
-50.0
  0
LINE
  5
79
100
AcDbEntity
  8
1
  6
CONTINUOUS
 62
             7
100
AcDbLine
 10
166.40000000000009
 20
-47.99999999999999
 11
166.40000000000009
 21
-47.49999999999999
  0
LINE
  5
78
100
AcDbEntity
  8
1
  6
CONTINUOUS
 62
             7
100
AcDbLine
 10
166.90000000000009
 20
-46.09999999999998
 11
166.90000000000009
 21
-47.49999999999999
  0
LINE
  5
77
100
AcDbEntity
  8
1
  6
CONTINUOUS
 62
             7
100
AcDbLine
 10
166.40000000000009
 20
-47.49999999999999
 11
166.90000000000009
 21
-47.49999999999999
  0
LINE
  5
76
100
AcDbEntity
  8
1
  6
CONTINUOUS
 62
             7
100
AcDbLine
 10
137.2000000000001
 20
-48.5
 11
147.50000000000011
 21
-48.5
  0
LINE
  5
75
100
AcDbEntity
  8
1
  6
CONTINUOUS
 62
             7
100
AcDbLine
 10
147.50000000000011
 20
-50.0
 11
147.50000000000011
 21
-50.5
  0
LINE
  5
74
100
AcDbEntity
  8
1
  6
CONTINUOUS
 62
             7
100
AcDbLine
 10
159.60000000000011
 20
-49.99999999999999
 11
159.60000000000011
 21
-50.49999999999999
  0
LINE
  5
73
100
AcDbEntity
  8
1
  6
CONTINUOUS
 62
             7
100
AcDbLine
 10
147.50000000000011
 20
-50.5
 11
159.60000000000011
 21
-50.49999999999999
  0
LINE
  5
72
100
AcDbEntity
  8
1
  6
CONTINUOUS
 62
             7
100
AcDbLine
 10
160.8000000000001
 20
-49.99999999999999
 11
160.8000000000001
 21
-50.49999999999999
  0
LINE
  5
71
100
AcDbEntity
  8
1
  6
CONTINUOUS
 62
             7
100
AcDbLine
 10
160.8000000000001
 20
-49.99999999999999
 11
160.8000000000001
 21
-50.49999999999999
  0
LINE
  5
70
100
AcDbEntity
  8
1
  6
CONTINUOUS
 62
             7
100
AcDbLine
 10
166.90000000000009
 20
-49.99999999999999
 11
166.90000000000009
 21
-50.49999999999999
  0
LINE
  5
6F
100
AcDbEntity
  8
1
  6
CONTINUOUS
 62
             7
100
AcDbLine
 10
160.8000000000001
 20
-50.49999999999999
 11
166.90000000000009
 21
-50.49999999999999
  0
LINE
  5
6E
100
AcDbEntity
  8
1
  6
CONTINUOUS
 62
             7
100
AcDbLine
 10
167.50000000000011
 20
-52.5
 11
167.50000000000011
 21
-51.74999999999999
  0
LINE
  5
6D
100
AcDbEntity
  8
1
  6
CONTINUOUS
 62
             7
100
AcDbLine
 10
167.50000000000011
 20
-51.74999999999999
 11
168.50000000000011
 21
-51.75
  0
LINE
  5
6C
100
AcDbEntity
  8
1
  6
CONTINUOUS
 62
             7
100
AcDbLine
 10
169.50000000000011
 20
-50.75
 11
169.50000000000011
 21
-47.25
  0
LINE
  5
6B
100
AcDbEntity
  8
1
  6
CONTINUOUS
 62
             7
100
AcDbLine
 10
167.50000000000011
 20
-51.74999999999999
 11
167.50000000000011
 21
-46.25
  0
LINE
  5
6A
100
AcDbEntity
  8
1
  6
CONTINUOUS
 62
             7
100
AcDbLine
 10
168.50000000000011
 20
-46.25
 11
167.50000000000011
 21
-46.25
  0
LINE
  5
69
100
AcDbEntity
  8
1
  6
CONTINUOUS
 62
             7
100
AcDbLine
 10
147.50000000000011
 20
-48.5
 11
159.60000000000011
 21
-48.5
  0
LINE
  5
68
100
AcDbEntity
  8
1
  6
CONTINUOUS
 62
             7
100
AcDbLine
 10
159.60000000000011
 20
-50.49999999999999
 11
159.60000000000011
 21
-51.89999999999998
  0
LINE
  5
67
100
AcDbEntity
  8
1
  6
CONTINUOUS
 62
             7
100
AcDbLine
 10
159.60000000000011
 20
-48.5
 11
160.8000000000001
 21
-48.5
  0
LINE
  5
66
100
AcDbEntity
  8
1
  6
CONTINUOUS
 62
             7
100
AcDbLine
 10
160.8000000000001
 20
-50.49999999999999
 11
160.8000000000001
 21
-51.89999999999998
  0
LINE
  5
65
100
AcDbEntity
  8
1
  6
CONTINUOUS
 62
             7
100
AcDbLine
 10
159.60000000000011
 20
-51.89999999999998
 11
136.00000000000011
 21
-51.89999999999998
  0
LINE
  5
64
100
AcDbEntity
  8
1
  6
CONTINUOUS
 62
             7
100
AcDbLine
 10
136.00000000000011
 20
-48.5
 11
137.2000000000001
 21
-48.5
  0
LINE
  5
63
100
AcDbEntity
  8
1
  6
CONTINUOUS
 62
             7
100
AcDbLine
 10
136.00000000000011
 20
-51.89999999999998
 11
136.00000000000011
 21
-48.5
  0
LINE
  5
62
100
AcDbEntity
  8
1
  6
CONTINUOUS
 62
             7
100
AcDbLine
 10
160.8000000000001
 20
-48.5
 11
162.00000000000011
 21
-48.5
  0
LINE
  5
61
100
AcDbEntity
  8
1
  6
CONTINUOUS
 62
             7
100
AcDbLine
 10
160.8000000000001
 20
-50.49999999999999
 11
160.8000000000001
 21
-51.89999999999998
  0
LINE
  5
60
100
AcDbEntity
  8
1
  6
CONTINUOUS
 62
             7
100
AcDbLine
 10
159.60000000000011
 20
-53.09999999999998
 11
136.00000000000011
 21
-53.09999999999998
  0
LINE
  5
5F
100
AcDbEntity
  8
1
  6
CONTINUOUS
 62
             7
100
AcDbLine
 10
75.50000000000011
 20
-48.5
 11
136.00000000000011
 21
-48.5
  0
LINE
  5
5E
100
AcDbEntity
  8
1
  6
CONTINUOUS
 62
             7
100
AcDbLine
 10
134.8000000000001
 20
-51.89999999999998
 11
134.8000000000001
 21
-48.5
  0
LINE
  5
5D
100
AcDbEntity
  8
1
  6
CONTINUOUS
 62
             7
100
AcDbLine
 10
162.00000000000011
 20
-48.5
 11
166.40000000000009
 21
-48.5
  0
LINE
  5
5C
100
AcDbEntity
  8
1
  6
CONTINUOUS
 62
             7
100
AcDbLine
 10
166.40000000000009
 20
-47.49999999999999
 11
166.40000000000009
 21
-46.09999999999997
  0
LINE
  5
5B
100
AcDbEntity
  8
1
  6
CONTINUOUS
 62
             7
100
AcDbLine
 10
166.40000000000009
 20
-46.09999999999997
 11
166.90000000000009
 21
-46.09999999999998
  0
LINE
  5
5A
100
AcDbEntity
  8
1
  6
CONTINUOUS
 62
             7
100
AcDbLine
 10
166.90000000000009
 20
-50.49999999999999
 11
166.90000000000009
 21
-52.5
  0
LINE
  5
59
100
AcDbEntity
  8
1
  6
CONTINUOUS
 62
             7
100
AcDbLine
 10
166.90000000000009
 20
-52.5
 11
167.50000000000011
 21
-52.5
  0
LINE
  5
58
100
AcDbEntity
  8
1
  6
CONTINUOUS
 62
             7
100
AcDbLine
 10
167.50000000000011
 20
-46.25
 11
167.50000000000011
 21
-46.09999999999997
  0
LINE
  5
57
100
AcDbEntity
  8
1
  6
CONTINUOUS
 62
             7
100
AcDbLine
 10
166.90000000000009
 20
48.0
 11
166.90000000000009
 21
47.5
  0
LINE
  5
56
100
AcDbEntity
  8
1
  6
CONTINUOUS
 62
             7
100
AcDbLine
 10
166.40000000000009
 20
48.0
 11
166.40000000000009
 21
48.50000000000001
  0
LINE
  5
55
100
AcDbEntity
  8
1
  6
CONTINUOUS
 62
             7
100
AcDbLine
 10
166.40000000000009
 20
48.0
 11
166.90000000000009
 21
48.0
  0
LINE
  5
54
100
AcDbEntity
  8
1
  6
CONTINUOUS
 62
             7
100
AcDbLine
 10
166.90000000000009
 20
50.0
 11
166.90000000000009
 21
48.0
  0
LINE
  5
53
100
AcDbEntity
  8
1
  6
CONTINUOUS
 62
             7
100
AcDbLine
 10
160.8000000000001
 20
50.0
 11
160.8000000000001
 21
48.50000000000001
  0
LINE
  5
52
100
AcDbEntity
  8
1
  6
CONTINUOUS
 62
             7
100
AcDbLine
 10
160.8000000000001
 20
50.0
 11
160.8000000000001
 21
48.50000000000001
  0
LINE
  5
51
100
AcDbEntity
  8
1
  6
CONTINUOUS
 62
             7
100
AcDbLine
 10
160.8000000000001
 20
50.0
 11
166.90000000000009
 21
50.0
  0
LINE
  5
50
100
AcDbEntity
  8
1
  6
CONTINUOUS
 62
             7
100
AcDbLine
 10
159.60000000000011
 20
50.0
 11
159.60000000000011
 21
48.50000000000001
  0
LINE
  5
4F
100
AcDbEntity
  8
1
  6
CONTINUOUS
 62
             7
100
AcDbLine
 10
147.50000000000011
 20
50.00000000000001
 11
147.50000000000011
 21
48.50000000000001
  0
LINE
  5
4E
100
AcDbEntity
  8
1
  6
CONTINUOUS
 62
             7
100
AcDbLine
 10
147.50000000000011
 20
50.00000000000001
 11
159.60000000000011
 21
50.0
  0
LINE
  5
4D
100
AcDbEntity
  8
1
  6
CONTINUOUS
 62
             7
100
AcDbLine
 10
166.40000000000009
 20
47.5
 11
166.40000000000009
 21
48.0
  0
LINE
  5
4C
100
AcDbEntity
  8
1
  6
CONTINUOUS
 62
             7
100
AcDbLine
 10
166.90000000000009
 20
47.5
 11
166.90000000000009
 21
46.09999999999999
  0
LINE
  5
4B
100
AcDbEntity
  8
1
  6
CONTINUOUS
 62
             7
100
AcDbLine
 10
166.90000000000009
 20
47.5
 11
166.40000000000009
 21
47.5
  0
LINE
  5
4A
100
AcDbEntity
  8
1
  6
CONTINUOUS
 62
             7
100
AcDbLine
 10
147.50000000000011
 20
48.50000000000001
 11
137.2000000000001
 21
48.50000000000001
  0
LINE
  5
49
100
AcDbEntity
  8
1
  6
CONTINUOUS
 62
             7
100
AcDbLine
 10
147.50000000000011
 20
50.50000000000001
 11
147.50000000000011
 21
50.00000000000001
  0
LINE
  5
48
100
AcDbEntity
  8
1
  6
CONTINUOUS
 62
             7
100
AcDbLine
 10
159.60000000000011
 20
50.5
 11
159.60000000000011
 21
50.0
  0
LINE
  5
47
100
AcDbEntity
  8
1
  6
CONTINUOUS
 62
             7
100
AcDbLine
 10
159.60000000000011
 20
50.5
 11
147.50000000000011
 21
50.50000000000001
  0
LINE
  5
46
100
AcDbEntity
  8
1
  6
CONTINUOUS
 62
             7
100
AcDbLine
 10
160.8000000000001
 20
50.5
 11
160.8000000000001
 21
50.0
  0
LINE
  5
45
100
AcDbEntity
  8
1
  6
CONTINUOUS
 62
             7
100
AcDbLine
 10
160.8000000000001
 20
50.5
 11
160.8000000000001
 21
50.0
  0
LINE
  5
44
100
AcDbEntity
  8
1
  6
CONTINUOUS
 62
             7
100
AcDbLine
 10
166.90000000000009
 20
50.5
 11
166.90000000000009
 21
50.0
  0
LINE
  5
43
100
AcDbEntity
  8
1
  6
CONTINUOUS
 62
             7
100
AcDbLine
 10
166.90000000000009
 20
50.5
 11
160.8000000000001
 21
50.5
  0
LINE
  5
42
100
AcDbEntity
  8
1
  6
CONTINUOUS
 62
             7
100
AcDbLine
 10
167.50000000000011
 20
51.75
 11
167.50000000000011
 21
52.50000000000001
  0
LINE
  5
41
100
AcDbEntity
  8
1
  6
CONTINUOUS
 62
             7
100
AcDbLine
 10
168.50000000000011
 20
51.75000000000001
 11
167.50000000000011
 21
51.75
  0
LINE
  5
40
100
AcDbEntity
  8
1
  6
CONTINUOUS
 62
             7
100
AcDbLine
 10
169.50000000000011
 20
47.25000000000001
 11
169.50000000000011
 21
50.75000000000001
  0
LINE
  5
3F
100
AcDbEntity
  8
1
  6
CONTINUOUS
 62
             7
100
AcDbLine
 10
167.50000000000011
 20
46.25000000000001
 11
167.50000000000011
 21
51.75
  0
LINE
  5
3E
100
AcDbEntity
  8
1
  6
CONTINUOUS
 62
             7
100
AcDbLine
 10
167.50000000000011
 20
46.25000000000001
 11
168.50000000000011
 21
46.25000000000001
  0
LINE
  5
3D
100
AcDbEntity
  8
1
  6
CONTINUOUS
 62
             7
100
AcDbLine
 10
159.60000000000011
 20
48.50000000000001
 11
147.50000000000011
 21
48.50000000000001
  0
LINE
  5
3C
100
AcDbEntity
  8
1
  6
CONTINUOUS
 62
             7
100
AcDbLine
 10
159.60000000000011
 20
51.90000000000001
 11
159.60000000000011
 21
50.5
  0
LINE
  5
3B
100
AcDbEntity
  8
1
  6
CONTINUOUS
 62
             7
100
AcDbLine
 10
160.8000000000001
 20
48.50000000000001
 11
159.60000000000011
 21
48.50000000000001
  0
LINE
  5
3A
100
AcDbEntity
  8
1
  6
CONTINUOUS
 62
             7
100
AcDbLine
 10
160.8000000000001
 20
51.90000000000001
 11
160.8000000000001
 21
50.5
  0
LINE
  5
39
100
AcDbEntity
  8
1
  6
CONTINUOUS
 62
             7
100
AcDbLine
 10
137.2000000000001
 20
48.50000000000001
 11
136.00000000000011
 21
48.50000000000001
  0
LINE
  5
38
100
AcDbEntity
  8
1
  6
CONTINUOUS
 62
             7
100
AcDbLine
 10
136.00000000000011
 20
48.50000000000001
 11
136.00000000000011
 21
51.90000000000001
  0
LINE
  5
37
100
AcDbEntity
  8
1
  6
CONTINUOUS
 62
             7
100
AcDbLine
 10
162.00000000000011
 20
48.50000000000001
 11
160.8000000000001
 21
48.50000000000001
  0
LINE
  5
36
100
AcDbEntity
  8
1
  6
CONTINUOUS
 62
             7
100
AcDbLine
 10
160.8000000000001
 20
51.90000000000001
 11
160.8000000000001
 21
50.5
  0
LINE
  5
35
100
AcDbEntity
  8
1
  6
CONTINUOUS
 62
             7
100
AcDbLine
 10
136.00000000000011
 20
53.10000000000001
 11
159.60000000000011
 21
53.10000000000001
  0
LINE
  5
34
100
AcDbEntity
  8
1
  6
CONTINUOUS
 62
             7
100
AcDbLine
 10
136.00000000000011
 20
48.50000000000001
 11
75.5000000000001
 21
48.50000000000001
  0
LINE
  5
33
100
AcDbEntity
  8
1
  6
CONTINUOUS
 62
             7
100
AcDbLine
 10
134.8000000000001
 20
48.50000000000001
 11
134.8000000000001
 21
51.90000000000001
  0
LINE
  5
32
100
AcDbEntity
  8
1
  6
CONTINUOUS
 62
             7
100
AcDbLine
 10
75.5000000000001
 20
48.50000000000001
 11
75.50000000000011
 21
45.50000000000001
  0
LINE
  5
31
100
AcDbEntity
  8
1
  6
CONTINUOUS
 62
             7
100
AcDbLine
 10
166.40000000000009
 20
48.50000000000001
 11
162.00000000000011
 21
48.50000000000001
  0
LINE
  5
30
100
AcDbEntity
  8
1
  6
CONTINUOUS
 62
             7
100
AcDbLine
 10
166.40000000000009
 20
46.09999999999999
 11
166.40000000000009
 21
47.5
  0
LINE
  5
2F
100
AcDbEntity
  8
1
  6
CONTINUOUS
 62
             7
100
AcDbLine
 10
166.40000000000009
 20
45.50000000000001
 11
166.40000000000009
 21
46.09999999999999
  0
LINE
  5
2E
100
AcDbEntity
  8
1
  6
CONTINUOUS
 62
             7
100
AcDbLine
 10
166.90000000000009
 20
46.09999999999999
 11
166.40000000000009
 21
46.09999999999999
  0
LINE
  5
2D
100
AcDbEntity
  8
1
  6
CONTINUOUS
 62
             7
100
AcDbLine
 10
166.90000000000009
 20
52.50000000000001
 11
166.90000000000009
 21
50.5
  0
LINE
  5
2C
100
AcDbEntity
  8
1
  6
CONTINUOUS
 62
             7
100
AcDbLine
 10
167.50000000000011
 20
52.50000000000001
 11
166.90000000000009
 21
52.50000000000001
  0
LINE
  5
2B
100
AcDbEntity
  8
1
  6
CONTINUOUS
 62
             7
100
AcDbLine
 10
167.50000000000011
 20
46.09999999999999
 11
167.50000000000011
 21
46.25000000000001
  0
LINE
  5
2A
100
AcDbEntity
  8
1
  6
CONTINUOUS
 62
             7
100
AcDbLine
 10
166.90000000000009
 20
45.50000000000001
 11
166.40000000000009
 21
45.50000000000001
  0
LINE
  5
29
100
AcDbEntity
  8
1
  6
CONTINUOUS
 62
             7
100
AcDbLine
 10
136.00000000000011
 20
51.90000000000001
 11
159.60000000000011
 21
51.90000000000001
  0
LINE
  5
28
100
AcDbEntity
  8
1
  6
CONTINUOUS
 62
             7
100
AcDbLine
 10
46.00000000000003
 20
-44.49999999999999
 11
-45.99999999999999
 21
-44.49999999999999
  0
ENDSEC
  0
SECTION
  2
OBJECTS
  0
DICTIONARY
  5
19
100
AcDbDictionary
  3
ACAD_GROUP
350
1A
  3
ACAD_MLINESTYLE
350
1B
  0
DICTIONARY
  5
1A
102
{ACAD_REACTORS
330
19
102
}
100
AcDbDictionary
  0
DICTIONARY
  5
1B
102
{ACAD_REACTORS
330
19
102
}
100
AcDbDictionary
  3
STANDARD
350
1C
  0
MLINESTYLE
  5
1C
102
{ACAD_REACTORS
330
1B
102
}
100
AcDbMlineStyle
  2
STANDARD
 70
             0
  3

 62
             0
 51
90.0
 52
90.0
 71
             2
 49
0.5
 62
           256
  6
BYLAYER
 49
-0.5
 62
           256
  6
BYLAYER
  0
ENDSEC
  0
EOF
