  0
SECTION
  2
HEADER
  9
$ACADVER
  1
AC1014
  9
$ACADMAINTVER
 70
             0
  9
$DWGCODEPAGE
  3
ANSI_1252
  9
$INSBASE
 10
0.0
 20
0.0
 30
0.0
  9
$EXTMIN
 10
1.00000000000000E+20
 20
1.00000000000000E+20
 30
1.00000000000000E+20
  9
$EXTMAX
 10
-1.00000000000000E+20
 20
-1.00000000000000E+20
 30
-1.00000000000000E+20
  9
$LIMMIN
 10
0.0
 20
0.0
  9
$LIMMAX
 10
0.0
 20
0.0
  9
$ORTHOMODE
 70
             0
  9
$REGENMODE
 70
             1
  9
$FILLMODE
 70
             1
  9
$QTEXTMODE
 70
             0
  9
$MIRRTEXT
 70
             1
  9
$DRAGMODE
 70
             2
  9
$LTSCALE
 40
1.0
  9
$OSMODE
 70
             0
  9
$ATTMODE
 70
             1
  9
$TEXTSIZE
 40
0.2
  9
$TRACEWID
 40
0.05
  9
$TEXTSTYLE
  7
STANDARD
  9
$CLAYER
  8
0
  9
$CELTYPE
  6
CONTINUOUS
  9
$CECOLOR
 62
           256
  9
$CELTSCALE
 40
1.0
  9
$DELOBJ
 70
             1
  9
$DISPSILH
 70
             0
  9
$DIMSCALE
 40
1.0
  9
$DIMASZ
 40
0.18
  9
$DIMEXO
 40
0.0625
  9
$DIMDLI
 40
0.38
  9
$DIMRND
 40
0.0
  9
$DIMDLE
 40
0.0
  9
$DIMEXE
 40
0.18
  9
$DIMTP
 40
0.0
  9
$DIMTM
 40
0.0
  9
$DIMTXT
 40
0.18
  9
$DIMCEN
 40
0.09
  9
$DIMTSZ
 40
0.0
  9
$DIMTOL
 70
             0
  9
$DIMLIM
 70
             0
  9
$DIMTIH
 70
             1
  9
$DIMTOH
 70
             1
  9
$DIMSE1
 70
             0
  9
$DIMSE2
 70
             0
  9
$DIMTAD
 70
             0
  9
$DIMZIN
 70
             0
  9
$DIMBLK
  1

  9
$DIMASO
 70
             1
  9
$DIMSHO
 70
             1
  9
$DIMPOST
  1

  9
$DIMAPOST
  1

  9
$DIMALT
 70
             0
  9
$DIMALTD
 70
             2
  9
$DIMALTF
 40
25.4
  9
$DIMLFAC
 40
1.0
  9
$DIMTOFL
 70
             0
  9
$DIMTVP
 40
0.0
  9
$DIMTIX
 70
             0
  9
$DIMSOXD
 70
             0
  9
$DIMSAH
 70
             0
  9
$DIMBLK1
  1

  9
$DIMBLK2
  1

  9
$DIMSTYLE
  2
STANDARD
  9
$DIMCLRD
 70
             0
  9
$DIMCLRE
 70
             0
  9
$DIMCLRT
 70
             0
  9
$DIMTFAC
 40
1.0
  9
$DIMGAP
 40
0.09
  9
$DIMJUST
 70
             0
  9
$DIMSD1
 70
             0
  9
$DIMSD2
 70
             0
  9
$DIMTOLJ
 70
             1
  9
$DIMTZIN
 70
             0
  9
$DIMALTZ
 70
             0
  9
$DIMALTTZ
 70
             0
  9
$DIMFIT
 70
             3
  9
$DIMUPT
 70
             0
  9
$DIMUNIT
 70
             2
  9
$DIMDEC
 70
             4
  9
$DIMTDEC
 70
             4
  9
$DIMALTU
 70
             2
  9
$DIMALTTD
 70
             2
  9
$DIMTXSTY
  7
STANDARD
  9
$DIMAUNIT
 70
             0
  9
$LUNITS
 70
             2
  9
$LUPREC
 70
             4
  9
$SKETCHINC
 40
0.1
  9
$FILLETRAD
 40
0.0
  9
$AUNITS
 70
             0
  9
$AUPREC
 70
             0
  9
$MENU
  1
acad
  9
$ELEVATION
 40
0.0
  9
$PELEVATION
 40
0.0
  9
$THICKNESS
 40
0.0
  9
$LIMCHECK
 70
             0
  9
$BLIPMODE
 70
             1
  9
$CHAMFERA
 40
0.0
  9
$CHAMFERB
 40
0.0
  9
$CHAMFERC
 40
0.0
  9
$CHAMFERD
 40
0.0
  9
$SKPOLY
 70
             0
  9
$TDCREATE
 40
0.000000000
  9
$TDUPDATE
 40
0.000000000
  9
$TDINDWG
 40
0.0000000000
  9
$TDUSRTIMER
 40
0.0000000000
  9
$USRTIMER
 70
             1
  9
$ANGBASE
 50
0.0
  9
$ANGDIR
 70
             0
  9
$PDMODE
 70
             0
  9
$PDSIZE
 40
0.0
  9
$PLINEWID
 40
0.0
  9
$COORDS
 70
             0
  9
$SPLFRAME
 70
             0
  9
$SPLINETYPE
 70
             6
  9
$SPLINESEGS
 70
             8
  9
$ATTDIA
 70
             0
  9
$ATTREQ
 70
             1
  9
$HANDLING
 70
             1
  9
$HANDSEED
  5
260
  9
$SURFTAB1
 70
             6
  9
$SURFTAB2
 70
             6
  9
$SURFTYPE
 70
             6
  9
$SURFU
 70
             6
  9
$SURFV
 70
             6
  9
$UCSNAME
  2

  9
$UCSORG
 10
0.0
 20
0.0
 30
0.0
  9
$UCSXDIR
 10
1.0
 20
0.0
 30
0.0
  9
$UCSYDIR
 10
0.0
 20
1.0
 30
0.0
  9
$PUCSNAME
  2

  9
$PUCSORG
 10
0.0
 20
0.0
 30
0.0
  9
$PUCSXDIR
 10
1.0
 20
0.0
 30
0.0
  9
$PUCSYDIR
 10
0.0
 20
1.0
 30
0.0
  9
$USERI1
 70
             0
  9
$USERI2
 70
             0
  9
$USERI3
 70
             0
  9
$USERI4
 70
             0
  9
$USERI5
 70
             0
  9
$USERR1
 40
11.6
  9
$USERR2
 40
0.0
  9
$USERR3
 40
0.0
  9
$USERR4
 40
0.0
  9
$USERR5
 40
0.0
  9
$WORLDVIEW
 70
             1
  9
$SHADEDGE
 70
             3
  9
$SHADEDIF
 70
            70
  9
$TILEMODE
 70
             1
  9
$MAXACTVP
 70
            16
  9
$PINSBASE
 10
0.0
 20
0.0
 30
0.0
  9
$PLIMCHECK
 70
             0
  9
$PEXTMIN
 10
1.00000000000000E+20
 20
1.00000000000000E+20
 30
1.00000000000000E+20
  9
$PEXTMAX
 10
-1.00000000000000E+20
 20
-1.00000000000000E+20
 30
-1.00000000000000E+20
  9
$PLIMMIN
 10
0.0
 20
0.0
  9
$PLIMMAX
 10
12.0
 20
9.0
  9
$UNITMODE
 70
             0
  9
$VISRETAIN
 70
             0
  9
$PLINEGEN
 70
             1
  9
$PSLTSCALE
 70
             0
  9
$TREEDEPTH
 70
          3020
  9
$PICKSTYLE
 70
             1
  9
$CMLSTYLE
  2
STANDARD
  9
$CMLJUST
 70
             0
  9
$CMLSCALE
 40
1.0
  9
$PROXYGRAPHICS
 70
             0
  9
$MEASUREMENT
 70
             1
  0
ENDSEC
  0
SECTION
  2
CLASSES
  0
CLASS
  1
LWPOLYLINE
  2
AcDbPolyline
  3
"AutoCAD"
 90
        0
280
             0
281
             1
  0
CLASS
  1
IMAGE
  2
AcDbRasterImage
  3
ISM
 90
      127
280
             0
281
             1
  0
CLASS
  1
OLE2FRAME
  2
AcDbOle2Frame
  3
""
 90
        0
280
             0
281
             1
  0
CLASS
  1
HATCH
  2
AcDbHatch
  3
"ACAD_SEDONA"
 90
        0
280
             0
281
             1
  0
CLASS
  1
DICTIONARYVAR
  2
AcDbDictionaryVar
  3
"AutoCAD"
 90
        0
280
             0
281
             0
  0
CLASS
  1
RASTERVARIABLES
  2
AcDbRasterVariables
  3
ISM
 90
        0
280
             0
281
             0
  0
CLASS
  1
IMAGEDEF
  2
AcDbRasterImageDef
  3
ISM
 90
        0
280
             0
281
             0
  0
CLASS
  1
IMAGEDEF_REACTOR
  2
AcDbRasterImageDefReactor
  3
ISM
 90
        1
280
             0
281
             0
  0
CLASS
  1
IDBUFFER
  2
AcDbIdBuffer
  3
"Acad"
 90
        0
280
             0
281
             0
  0
CLASS
  1
SPATIAL_FILTER
  2
AcDbSpatialFilter
  3
"Acad"
 90
        0
280
             0
281
             0
  0
CLASS
  1
XRECORD
  2
AcDbXrecord
  3
"<Built In>"
 90
        0
280
             0
281
             0
  0
CLASS
  1
SORTENTSTABLE
  2
AcDbSortentsTable
  3
"AutoCAD"
 90
        0
280
             0
281
             0
  0
CLASS
  1
LAYER_INDEX
  2
AcDbLayerIndex
  3
"Acad"
 90
        0
280
             0
281
             0
  0
CLASS
  1
SPATIAL_INDEX
  2
AcDbSpatialIndex
  3
"Acad"
 90
        0
280
             0
281
             0
  0
CLASS
  1
OBJECT_PTR
  2
CAseDLPNTableRecord
  3
"ASE-LPNTableRecord"
 90
        1
280
             0
281
             0
  0
CLASS
  1
LAYOUT
  2
AcDbLayout
  3
"AutoCAD 2000"
 90
        1
280
             0
281
             0
  0
CLASS
  1
PLOTSETTINGS
  2
AcDbPlotSettings
  3
"AutoCAD 2000"
 90
        1
280
             0
281
             0
  0
CLASS
  1
ACDBDICTIONARYWDFLT
  2
AcDbDictionaryWithDefault
  3
"AutoCAD 2000"
 90
        1
280
             0
281
             0
  0
CLASS
  1
ACDBPLACEHOLDER
  2
AcDbPlaceHolder
  3
"AutoCAD 2000"
 90
        1
280
             0
281
             0
  0
ENDSEC
  0
SECTION
  2
TABLES
  0
TABLE
  2
VPORT
  5
7
100
AcDbSymbolTable
 70
             1
  0
VPORT
  5
15
100
AcDbSymbolTableRecord
100
AcDbViewportTableRecord
  2
*ACTIVE
 70
             0
 10
0.0
 20
0.0
 11
1.0
 21
1.0
 12
765.18435044545515
 22
-2594.8193758026441
 13
0.0
 23
0.0
 14
1.0
 24
1.0
 15
0.0
 25
0.0
 16
0.0
 26
0.0
 36
1.0
 17
0.0
 27
0.0
 37
0.0
 40
108.1958603838596
 41
1.60267857142857
 42
50.0
 43
0.0
 44
0.0
 50
0.0
 51
0.0
 71
             0
 72
           100
 73
             1
 74
             1
 75
             0
 76
             0
 77
             0
 78
             0
  0
ENDTAB
  0
TABLE
  2
LTYPE
  5
4
100
AcDbSymbolTable
 70
            10
  0
LTYPE
  5
11
100
AcDbSymbolTableRecord
100
AcDbLinetypeTableRecord
  2
BYBLOCK
 70
            64
  3

 72
            65
 73
             0
 40
0.0
  0
LTYPE
  5
12
100
AcDbSymbolTableRecord
100
AcDbLinetypeTableRecord
  2
BYLAYER
 70
            64
  3

 72
            65
 73
             0
 40
0.0
  0
LTYPE
  5
13
100
AcDbSymbolTableRecord
100
AcDbLinetypeTableRecord
  2
CONTINUOUS
 70
            64
  3
Solid line
 72
            65
 73
             0
 40
0.0
  0
LTYPE
  5
1D
100
AcDbSymbolTableRecord
100
AcDbLinetypeTableRecord
  2
DASHED
 70
            64
  3
Dashed
 72
            65
 73
             2
 40
15.0
 49
12.0
 74
             0
 49
-3.0
 74
             0
  0
LTYPE
  5
1E
100
AcDbSymbolTableRecord
100
AcDbLinetypeTableRecord
  2
DOTTED
 70
            64
  3
Dotted
 72
            65
 73
             2
 40
3.5
 49
0.5
 74
             0
 49
-3.0
 74
             0
  0
LTYPE
  5
1F
100
AcDbSymbolTableRecord
100
AcDbLinetypeTableRecord
  2
DOT_CENTER
 70
            64
  3
Dot_Center
 72
            65
 73
             4
 40
2.0
 49
1.25
 74
             0
 49
-0.25
 74
             0
 49
0.25
 74
             0
 49
-0.25
 74
             0
  0
LTYPE
  5
20
100
AcDbSymbolTableRecord
100
AcDbLinetypeTableRecord
  2
LONG_DASHED
 70
            64
  3
Long_Dashed
 72
            65
 73
             2
 40
2.0
 49
1.5
 74
             0
 49
-0.5
 74
             0
  0
LTYPE
  5
21
100
AcDbSymbolTableRecord
100
AcDbLinetypeTableRecord
  2
DASH_CENTER
 70
            64
  3
Dash_Center
 72
            65
 73
             4
 40
36.0
 49
24.0
 74
             0
 49
-3.0
 74
             0
 49
6.0
 74
             0
 49
-3.0
 74
             0
  0
LTYPE
  5
22
100
AcDbSymbolTableRecord
100
AcDbLinetypeTableRecord
  2
PHANTOM
 70
            64
  3
Phantom
 72
            65
 73
             6
 40
2.5
 49
1.25
 74
             0
 49
-0.25
 74
             0
 49
0.25
 74
             0
 49
-0.25
 74
             0
 49
0.25
 74
             0
 49
-0.25
 74
             0
  0
LTYPE
  5
23
100
AcDbSymbolTableRecord
100
AcDbLinetypeTableRecord
  2
CENTER_DASH_DASH
 70
            64
  3
Center_Dash_Dash
 72
            65
 73
             6
 40
22.0
 49
12.0
 74
             0
 49
-3.0
 74
             0
 49
0.5
 74
             0
 49
-3.0
 74
             0
 49
0.5
 74
             0
 49
-3.0
 74
             0
  0
ENDTAB
  0
TABLE
  2
LAYER
  5
2
100
AcDbSymbolTable
 70
             2
  0
LAYER
  5
14
100
AcDbSymbolTableRecord
100
AcDbLayerTableRecord
  2
0
 70
             0
 62
             7
  6
CONTINUOUS
  0
LAYER
  5
24
100
AcDbSymbolTableRecord
100
AcDbLayerTableRecord
  2
1
 70
             0
 62
             7
  6
CONTINUOUS
  0
ENDTAB
  0
TABLE
  2
STYLE
  5
3
100
AcDbSymbolTable
 70
             1
  0
STYLE
  5
17
100
AcDbSymbolTableRecord
100
AcDbTextStyleTableRecord
  2
STANDARD
 70
             0
 40
0.0
 41
1.0
 50
0.0
 71
             0
 42
0.0
  3
txt
  4

  0
ENDTAB
  0
TABLE
  2
VIEW
  5
5
100
AcDbSymbolTable
 70
             0
  0
ENDTAB
  0
TABLE
  2
UCS
  5
6
100
AcDbSymbolTable
 70
             0
  0
ENDTAB
  0
TABLE
  2
APPID
  5
8
100
AcDbSymbolTable
 70
             1
  0
APPID
  5
16
100
AcDbSymbolTableRecord
100
AcDbRegAppTableRecord
  2
ACAD
 70
             0
  0
ENDTAB
  0
TABLE
  2
DIMSTYLE
  5
9
100
AcDbSymbolTable
 70
             1
  0
DIMSTYLE
105
18
100
AcDbSymbolTableRecord
100
AcDbDimStyleTableRecord
  2
STANDARD
 70
             0
  3

  4

  5

  6

  7

 40
1.0
 41
0.18
 42
0.0625
 43
0.38
 44
0.18
 45
0.0
 46
0.0
 47
0.0
 48
0.0
 71
             0
 72
             0
 73
             1
 74
             1
 75
             0
 76
             0
 77
             0
 78
             0
140
0.18
141
0.09
142
0.0
143
25.4
144
1.0
145
0.0
146
1.0
147
0.09
170
             0
171
             2
172
             0
173
             0
174
             0
175
             0
176
             0
177
             0
178
             0
270
             2
271
             4
272
             4
273
             2
274
             2
275
             0
280
             0
281
             0
282
             0
283
             1
284
             0
285
             0
286
             0
287
             0
288
             0
340
17
  0
ENDTAB
  0
TABLE
  2
BLOCK_RECORD
  5
1
100
AcDbSymbolTable
 70
             0
  0
BLOCK_RECORD
  5
A
100
AcDbSymbolTableRecord
100
AcDbBlockTableRecord
  2
*MODEL_SPACE
  0
BLOCK_RECORD
  5
B
100
AcDbSymbolTableRecord
100
AcDbBlockTableRecord
  2
*PAPER_SPACE
  0
ENDTAB
  0
ENDSEC
  0
SECTION
  2
BLOCKS
  0
BLOCK
  5
D
100
AcDbEntity
  8
0
100
AcDbBlockBegin
  2
*MODEL_SPACE
 70
             0
 10
0.0
 20
0.0
 30
0.0
  3
*MODEL_SPACE
  1

  0
ENDBLK
  5
E
100
AcDbEntity
  8
0
100
AcDbBlockEnd
  0
BLOCK
  5
F
100
AcDbEntity
 67
             1
  8
0
100
AcDbBlockBegin
  2
*PAPER_SPACE
 70
             0
 10
0.0
 20
0.0
 30
0.0
  3
*PAPER_SPACE
  1

  0
ENDBLK
  5
10
100
AcDbEntity
 67
             1
  8
0
100
AcDbBlockEnd
  0
ENDSEC
  0
SECTION
  2
ENTITIES
  0
ARC
  5
25E
100
AcDbEntity
  8
1
  6
CONTINUOUS
 62
             7
100
AcDbCircle
 10
750.50398087931399
 20
-2570.819375802645
 40
0.5
100
AcDbArc
 50
180.0
 51
-90.0
  0
ARC
  5
25D
100
AcDbEntity
  8
1
  6
CONTINUOUS
 62
             7
100
AcDbCircle
 10
754.00398087931399
 20
-2570.819375802645
 40
0.5
100
AcDbArc
 50
-90.0
 51
0.0
  0
ARC
  5
25C
100
AcDbEntity
  8
1
  6
CONTINUOUS
 62
             7
100
AcDbCircle
 10
754.00398087931399
 20
-2568.819375802645
 40
0.5
100
AcDbArc
 50
0.0
 51
90.0
  0
ARC
  5
25B
100
AcDbEntity
  8
1
  6
CONTINUOUS
 62
             7
100
AcDbCircle
 10
750.50398087931399
 20
-2568.819375802645
 40
0.5
100
AcDbArc
 50
90.0
 51
180.0
  0
ARC
  5
25A
100
AcDbEntity
  8
1
  6
CONTINUOUS
 62
             7
100
AcDbCircle
 10
750.50398087931399
 20
-2621.2193758026451
 40
0.5
100
AcDbArc
 50
90.0
 51
180.0
  0
ARC
  5
259
100
AcDbEntity
  8
1
  6
CONTINUOUS
 62
             7
100
AcDbCircle
 10
754.00398087931399
 20
-2621.2193758026451
 40
0.5
100
AcDbArc
 50
0.0
 51
90.0
  0
ARC
  5
258
100
AcDbEntity
  8
1
  6
CONTINUOUS
 62
             7
100
AcDbCircle
 10
754.00398087931399
 20
-2623.2193758026451
 40
0.5
100
AcDbArc
 50
-90.0
 51
0.0
  0
ARC
  5
257
100
AcDbEntity
  8
1
  6
CONTINUOUS
 62
             7
100
AcDbCircle
 10
750.50398087931399
 20
-2623.2193758026451
 40
0.5
100
AcDbArc
 50
180.0
 51
-90.0
  0
ARC
  5
256
100
AcDbEntity
  8
1
  6
DOTTED
 62
             7
100
AcDbCircle
 10
843.00398087931387
 20
-2607.6193758026438
 40
1.0
100
AcDbArc
 50
-90.0
 51
0.0
  0
ARC
  5
255
100
AcDbEntity
  8
1
  6
DOTTED
 62
             7
100
AcDbCircle
 10
843.00398087931387
 20
-2581.6193758026438
 40
1.0
100
AcDbArc
 50
0.0
 51
90.0
  0
ARC
  5
254
100
AcDbEntity
  8
1
  6
DOTTED
 62
             7
100
AcDbCircle
 10
838.50398087931387
 20
-2609.1193758026438
 40
2.0
100
AcDbArc
 50
90.0
 51
180.0
  0
ARC
  5
253
100
AcDbEntity
  8
1
  6
DOTTED
 62
             7
100
AcDbCircle
 10
838.50398087931387
 20
-2580.1193758026438
 40
2.0
100
AcDbArc
 50
180.0
 51
-90.0
  0
ARC
  5
252
100
AcDbEntity
  8
1
  6
CONTINUOUS
 62
             7
100
AcDbCircle
 10
689.61472001159632
 20
-2604.919375802644
 40
1.0
100
AcDbArc
 50
90.0
 51
180.0
  0
ARC
  5
251
100
AcDbEntity
  8
1
  6
CONTINUOUS
 62
             7
100
AcDbCircle
 10
694.61472001159632
 20
-2604.919375802644
 40
1.0
100
AcDbArc
 50
0.0
 51
90.0
  0
ARC
  5
250
100
AcDbEntity
  8
1
  6
CONTINUOUS
 62
             7
100
AcDbCircle
 10
694.61472001159632
 20
-2608.919375802644
 40
1.0
100
AcDbArc
 50
-90.0
 51
0.0
  0
ARC
  5
24F
100
AcDbEntity
  8
1
  6
CONTINUOUS
 62
             7
100
AcDbCircle
 10
689.61472001159632
 20
-2608.919375802644
 40
1.0
100
AcDbArc
 50
180.0
 51
-90.0
  0
ARC
  5
24E
100
AcDbEntity
  8
1
  6
CONTINUOUS
 62
             7
100
AcDbCircle
 10
694.61472001159643
 20
-2612.919375802644
 40
1.0
100
AcDbArc
 50
0.0
 51
90.0
  0
ARC
  5
24D
100
AcDbEntity
  8
1
  6
CONTINUOUS
 62
             7
100
AcDbCircle
 10
689.61472001159643
 20
-2612.919375802644
 40
1.0
100
AcDbArc
 50
90.0
 51
180.0
  0
ARC
  5
24C
100
AcDbEntity
  8
1
  6
CONTINUOUS
 62
             7
100
AcDbCircle
 10
689.61472001159643
 20
-2616.919375802644
 40
1.0
100
AcDbArc
 50
180.0
 51
-90.0
  0
ARC
  5
24B
100
AcDbEntity
  8
1
  6
CONTINUOUS
 62
             7
100
AcDbCircle
 10
694.61472001159643
 20
-2616.919375802644
 40
1.0
100
AcDbArc
 50
-90.0
 51
0.0
  0
ARC
  5
24A
100
AcDbEntity
  8
1
  6
CONTINUOUS
 62
             7
100
AcDbCircle
 10
705.61472001159643
 20
-2604.919375802644
 40
1.0
100
AcDbArc
 50
0.0
 51
90.0
  0
ARC
  5
249
100
AcDbEntity
  8
1
  6
CONTINUOUS
 62
             7
100
AcDbCircle
 10
705.61472001159643
 20
-2608.919375802644
 40
1.0
100
AcDbArc
 50
-90.0
 51
0.0
  0
ARC
  5
248
100
AcDbEntity
  8
1
  6
CONTINUOUS
 62
             7
100
AcDbCircle
 10
700.61472001159643
 20
-2608.919375802644
 40
1.0
100
AcDbArc
 50
180.0
 51
-90.0
  0
ARC
  5
247
100
AcDbEntity
  8
1
  6
CONTINUOUS
 62
             7
100
AcDbCircle
 10
700.61472001159643
 20
-2604.919375802644
 40
1.0
100
AcDbArc
 50
90.0
 51
180.0
  0
CIRCLE
  5
246
100
AcDbEntity
  8
1
  6
CONTINUOUS
 62
             7
100
AcDbCircle
 10
694.81472001159648
 20
-2562.1193758026452
 40
2.0
  0
CIRCLE
  5
245
100
AcDbEntity
  8
1
  6
CONTINUOUS
 62
             7
100
AcDbCircle
 10
699.81472001159648
 20
-2562.1193758026452
 40
2.0
  0
CIRCLE
  5
244
100
AcDbEntity
  8
1
  6
CONTINUOUS
 62
             7
100
AcDbCircle
 10
704.81472001159648
 20
-2562.1193758026452
 40
2.0
  0
CIRCLE
  5
243
100
AcDbEntity
  8
1
  6
CONTINUOUS
 62
             7
100
AcDbCircle
 10
704.61472001159643
 20
-2628.1693758026449
 40
1.25
  0
CIRCLE
  5
242
100
AcDbEntity
  8
1
  6
CONTINUOUS
 62
             7
100
AcDbCircle
 10
701.11472001159643
 20
-2628.1693758026449
 40
1.25
  0
CIRCLE
  5
241
100
AcDbEntity
  8
1
  6
CONTINUOUS
 62
             7
100
AcDbCircle
 10
697.61472001159643
 20
-2628.1693758026449
 40
1.25
  0
CIRCLE
  5
240
100
AcDbEntity
  8
1
  6
CONTINUOUS
 62
             7
100
AcDbCircle
 10
694.11472001159643
 20
-2628.1693758026449
 40
1.25
  0
CIRCLE
  5
23F
100
AcDbEntity
  8
1
  6
CONTINUOUS
 62
             7
100
AcDbCircle
 10
692.86472001159643
 20
-2591.9193758026449
 40
0.50000000000011
  0
CIRCLE
  5
23E
100
AcDbEntity
  8
1
  6
CONTINUOUS
 62
             7
100
AcDbCircle
 10
697.56472001159648
 20
-2591.9193758026449
 40
0.50000000000011
  0
CIRCLE
  5
23D
100
AcDbEntity
  8
1
  6
CONTINUOUS
 62
             7
100
AcDbCircle
 10
702.26472001159641
 20
-2591.9193758026449
 40
0.5
  0
ARC
  5
23C
100
AcDbEntity
  8
1
  6
CONTINUOUS
 62
             7
100
AcDbCircle
 10
755.90398087931362
 20
-2567.5048446895748
 40
0.39999999999928
100
AcDbArc
 50
88.99999999995734
 51
-90.99999999997412
  0
ARC
  5
23B
100
AcDbEntity
  8
1
  6
CONTINUOUS
 62
             7
100
AcDbCircle
 10
755.90398087931362
 20
-2572.1339069157139
 40
0.40000000000018
100
AcDbArc
 50
90.99999999997526
 51
-88.99999999996075
  0
ARC
  5
23A
100
AcDbEntity
  8
1
  6
CONTINUOUS
 62
             7
100
AcDbCircle
 10
755.90398087931362
 20
-2624.5339069157139
 40
0.40000000000018
100
AcDbArc
 50
90.99999999997526
 51
-88.99999999996075
  0
ARC
  5
239
100
AcDbEntity
  8
1
  6
CONTINUOUS
 62
             7
100
AcDbCircle
 10
755.90398087931362
 20
-2619.9048446895749
 40
0.39999999999928
100
AcDbArc
 50
88.99999999995734
 51
-90.99999999997412
  0
ARC
  5
238
100
AcDbEntity
  8
1
  6
CONTINUOUS
 62
             7
100
AcDbCircle
 10
690.61472001159643
 20
-2628.1693758026449
 40
1.24999999999981
100
AcDbArc
 50
44.99999999998894
 51
-135.00000000001106
  0
ARC
  5
237
100
AcDbEntity
  8
1
  6
CONTINUOUS
 62
             7
100
AcDbCircle
 10
690.61472001159643
 20
-2628.1693758026449
 40
1.24999999999981
100
AcDbArc
 50
-135.00000000001106
 51
44.99999999998894
  0
ARC
  5
236
100
AcDbEntity
  8
1
  6
CONTINUOUS
 62
             7
100
AcDbCircle
 10
689.81472001159648
 20
-2562.1193758026452
 40
2.00000000000082
100
AcDbArc
 50
45.00000000002304
 51
-135.00000000002302
  0
ARC
  5
235
100
AcDbEntity
  8
1
  6
CONTINUOUS
 62
             7
100
AcDbCircle
 10
689.81472001159648
 20
-2562.1193758026452
 40
1.99999999999921
100
AcDbArc
 50
-135.00000000002302
 51
45.00000000002304
  0
ARC
  5
234
100
AcDbEntity
  8
1
  6
CONTINUOUS
 62
             7
100
AcDbCircle
 10
835.00398087931387
 20
-2580.1193758026438
 40
1.50000000000014
100
AcDbArc
 50
-48.18968510422624
 51
48.18968510421467
  0
ARC
  5
233
100
AcDbEntity
  8
1
  6
CONTINUOUS
 62
             7
100
AcDbCircle
 10
789.10398087931401
 20
-2565.3193758026441
 40
0.5
100
AcDbArc
 50
90.0
 51
180.0
  0
ARC
  5
232
100
AcDbEntity
  8
1
  6
CONTINUOUS
 62
             7
100
AcDbCircle
 10
828.10398087931401
 20
-2565.3193758026441
 40
0.5
100
AcDbArc
 50
0.0
 51
90.0
  0
ARC
  5
231
100
AcDbEntity
  8
1
  6
CONTINUOUS
 62
             7
100
AcDbCircle
 10
828.10398087931401
 20
-2624.3193758026441
 40
0.5
100
AcDbArc
 50
-90.0
 51
0.0
  0
ARC
  5
230
100
AcDbEntity
  8
1
  6
CONTINUOUS
 62
             7
100
AcDbCircle
 10
747.50398087931444
 20
-2625.1154349231492
 40
0.50000000000038
100
AcDbArc
 50
110.0000000000293
 51
180.0
  0
ARC
  5
22F
100
AcDbEntity
  8
1
  6
CONTINUOUS
 62
             7
100
AcDbCircle
 10
747.50398087931399
 20
-2631.609838859667
 40
0.5
100
AcDbArc
 50
180.0
 51
-90.99999999991104
  0
ARC
  5
22E
100
AcDbEntity
  8
1
  6
CONTINUOUS
 62
             7
100
AcDbCircle
 10
740.20398087931414
 20
-2566.8481485568209
 40
0.5
100
AcDbArc
 50
-179.99984069398764
 51
-100.00000000000389
  0
LINE
  5
22D
100
AcDbEntity
  8
1
  6
CONTINUOUS
 62
             7
100
AcDbLine
 10
739.70398087931403
 20
-2566.8481485568209
 11
739.70398087931608
 21
-2566.8481499470281
  0
ARC
  5
22C
100
AcDbEntity
  8
1
  6
CONTINUOUS
 62
             7
100
AcDbCircle
 10
740.20398087931221
 20
-2558.156334719783
 40
0.5000000000016
100
AcDbArc
 50
91.00000000002463
 51
179.99999999979156
  0
ARC
  5
22B
100
AcDbEntity
  8
1
  6
CONTINUOUS
 62
             7
100
AcDbCircle
 10
687.86472001159643
 20
-2572.3193758026441
 40
0.5
100
AcDbArc
 50
89.99999999998697
 51
180.0
  0
ARC
  5
22A
100
AcDbEntity
  8
1
  6
CONTINUOUS
 62
             7
100
AcDbCircle
 10
707.36472001159643
 20
-2572.3193758026441
 40
0.5
100
AcDbArc
 50
0.0
 51
90.0
  0
ARC
  5
229
100
AcDbEntity
  8
1
  6
CONTINUOUS
 62
             7
100
AcDbCircle
 10
687.86472001159643
 20
-2620.7193758026442
 40
0.5
100
AcDbArc
 50
180.0
 51
-90.0
  0
ARC
  5
228
100
AcDbEntity
  8
1
  6
CONTINUOUS
 62
             7
100
AcDbCircle
 10
707.36472001159643
 20
-2620.7193758026442
 40
0.5
100
AcDbArc
 50
-89.99999999998697
 51
0.0
  0
ARC
  5
227
100
AcDbEntity
  8
1
  6
CONTINUOUS
 62
             7
100
AcDbCircle
 10
702.86472001159643
 20
-2584.5057719057122
 40
0.24999999999972
100
AcDbArc
 50
44.99999999992631
 51
180.0
  0
ARC
  5
226
100
AcDbEntity
  8
1
  6
CONTINUOUS
 62
             7
100
AcDbCircle
 10
703.45111611466439
 20
-2583.8193758026441
 40
0.25
100
AcDbArc
 50
89.99999999997395
 51
-135.00000000014739
  0
ARC
  5
225
100
AcDbEntity
  8
1
  6
CONTINUOUS
 62
             7
100
AcDbCircle
 10
702.86472001159655
 20
-2590.1329796995769
 40
0.25
100
AcDbArc
 50
180.0
 51
-44.99999999994473
  0
ARC
  5
224
100
AcDbEntity
  8
1
  6
CONTINUOUS
 62
             7
100
AcDbCircle
 10
706.46472001159634
 20
-2584.5057719057122
 40
0.25000000000011
100
AcDbArc
 50
0.0
 51
135.00000000005525
  0
ARC
  5
223
100
AcDbEntity
  8
1
  6
CONTINUOUS
 62
             7
100
AcDbCircle
 10
705.87832390852839
 20
-2583.8193758026441
 40
0.24999999999956
100
AcDbArc
 50
-44.99999999981576
 51
90.0
  0
ARC
  5
222
100
AcDbEntity
  8
1
  6
CONTINUOUS
 62
             7
100
AcDbCircle
 10
706.46472001159634
 20
-2590.1329796995769
 40
0.24999999999964
100
AcDbArc
 50
-135.00000000005525
 51
0.0
  0
ARC
  5
221
100
AcDbEntity
  8
1
  6
CONTINUOUS
 62
             7
100
AcDbCircle
 10
703.45111611466439
 20
-2590.8193758026441
 40
0.24999999999964
100
AcDbArc
 50
135.00000000005525
 51
-90.0
  0
ARC
  5
220
100
AcDbEntity
  8
1
  6
CONTINUOUS
 62
             7
100
AcDbCircle
 10
705.87832390852839
 20
-2590.8193758026441
 40
0.25
100
AcDbArc
 50
-89.99999999997395
 51
44.99999999988945
  0
ARC
  5
21F
100
AcDbEntity
  8
1
  6
CONTINUOUS
 62
             7
100
AcDbCircle
 10
705.67832390852857
 20
-2587.3193758026441
 40
0.2499999999994
100
AcDbArc
 50
-44.99999999985261
 51
44.99999999992631
  0
ARC
  5
21E
100
AcDbEntity
  8
1
  6
CONTINUOUS
 62
             7
100
AcDbCircle
 10
703.65111611466432
 20
-2587.3193758026441
 40
0.24999999999972
100
AcDbArc
 50
135.00000000007373
 51
-135.00000000014739
  0
ARC
  5
21D
100
AcDbEntity
  8
1
  6
CONTINUOUS
 62
             7
100
AcDbCircle
 10
703.01472001159618
 20
-2586.6829796995762
 40
0.24999999999916
100
AcDbArc
 50
-135.00000000009214
 51
-44.99999999981576
  0
ARC
  5
21C
100
AcDbEntity
  8
1
  6
CONTINUOUS
 62
             7
100
AcDbCircle
 10
706.31472001159648
 20
-2586.6829796995762
 40
0.2499999999994
100
AcDbArc
 50
-135.00000000014739
 51
-44.99999999985261
  0
ARC
  5
21B
100
AcDbEntity
  8
1
  6
CONTINUOUS
 62
             7
100
AcDbCircle
 10
706.31472001159659
 20
-2587.9557719057129
 40
0.25000000000093
100
AcDbArc
 50
45.00000000023951
 51
134.99999999979732
  0
ARC
  5
21A
100
AcDbEntity
  8
1
  6
CONTINUOUS
 62
             7
100
AcDbCircle
 10
703.01472001159618
 20
-2587.9557719057129
 40
0.25000000000109
100
AcDbArc
 50
45.00000000020267
 51
134.99999999974207
  0
ARC
  5
219
100
AcDbEntity
  8
1
  6
CONTINUOUS
 62
             7
100
AcDbCircle
 10
698.31472001159648
 20
-2587.9557719057129
 40
0.25000000000101
100
AcDbArc
 50
45.00000000022109
 51
134.99999999979732
  0
ARC
  5
218
100
AcDbEntity
  8
1
  6
CONTINUOUS
 62
             7
100
AcDbCircle
 10
701.61472001159655
 20
-2587.9557719057129
 40
0.25000000000093
100
AcDbArc
 50
45.00000000023951
 51
134.99999999977891
  0
ARC
  5
217
100
AcDbEntity
  8
1
  6
CONTINUOUS
 62
             7
100
AcDbCircle
 10
701.61472001159655
 20
-2586.6829796995762
 40
0.2499999999994
100
AcDbArc
 50
-135.00000000014739
 51
-44.99999999987104
  0
ARC
  5
216
100
AcDbEntity
  8
1
  6
CONTINUOUS
 62
             7
100
AcDbCircle
 10
698.31472001159636
 20
-2586.6829796995762
 40
0.2499999999994
100
AcDbArc
 50
-135.00000000014739
 51
-44.99999999983419
  0
ARC
  5
215
100
AcDbEntity
  8
1
  6
CONTINUOUS
 62
             7
100
AcDbCircle
 10
698.95111611466439
 20
-2587.3193758026441
 40
0.2499999999998
100
AcDbArc
 50
135.00000000009214
 51
-135.00000000016581
  0
ARC
  5
214
100
AcDbEntity
  8
1
  6
CONTINUOUS
 62
             7
100
AcDbCircle
 10
700.97832390852864
 20
-2587.3193758026441
 40
0.24999999999932
100
AcDbArc
 50
-44.99999999987104
 51
44.99999999994473
  0
ARC
  5
213
100
AcDbEntity
  8
1
  6
CONTINUOUS
 62
             7
100
AcDbCircle
 10
701.17832390852845
 20
-2590.8193758026441
 40
0.25
100
AcDbArc
 50
-89.99999999997395
 51
44.99999999990789
  0
ARC
  5
212
100
AcDbEntity
  8
1
  6
CONTINUOUS
 62
             7
100
AcDbCircle
 10
698.75111611466446
 20
-2590.8193758026441
 40
0.24999999999972
100
AcDbArc
 50
135.00000000007373
 51
-90.0
  0
ARC
  5
211
100
AcDbEntity
  8
1
  6
CONTINUOUS
 62
             7
100
AcDbCircle
 10
701.76472001159641
 20
-2590.1329796995769
 40
0.24999999999964
100
AcDbArc
 50
-135.00000000005525
 51
0.0
  0
ARC
  5
210
100
AcDbEntity
  8
1
  6
CONTINUOUS
 62
             7
100
AcDbCircle
 10
701.17832390852845
 20
-2583.8193758026441
 40
0.24999999999948
100
AcDbArc
 50
-44.99999999983419
 51
89.99999999997395
  0
ARC
  5
20F
100
AcDbEntity
  8
1
  6
CONTINUOUS
 62
             7
100
AcDbCircle
 10
701.76472001159641
 20
-2584.5057719057122
 40
0.24999999999989
100
AcDbArc
 50
0.0
 51
135.00000000007373
  0
ARC
  5
20E
100
AcDbEntity
  8
1
  6
CONTINUOUS
 62
             7
100
AcDbCircle
 10
698.1647200115965
 20
-2590.1329796995769
 40
0.25
100
AcDbArc
 50
180.0
 51
-44.99999999994473
  0
ARC
  5
20D
100
AcDbEntity
  8
1
  6
CONTINUOUS
 62
             7
100
AcDbCircle
 10
698.75111611466434
 20
-2583.8193758026441
 40
0.25
100
AcDbArc
 50
90.0
 51
-135.00000000012898
  0
ARC
  5
20C
100
AcDbEntity
  8
1
  6
CONTINUOUS
 62
             7
100
AcDbCircle
 10
698.1647200115965
 20
-2584.5057719057122
 40
0.24999999999964
100
AcDbArc
 50
44.99999999994473
 51
180.0
  0
ARC
  5
20B
100
AcDbEntity
  8
1
  6
CONTINUOUS
 62
             7
100
AcDbCircle
 10
693.46472001159657
 20
-2584.5057719057122
 40
0.24999999999964
100
AcDbArc
 50
44.99999999994473
 51
180.0
  0
ARC
  5
20A
100
AcDbEntity
  8
1
  6
CONTINUOUS
 62
             7
100
AcDbCircle
 10
694.05111611466418
 20
-2583.8193758026441
 40
0.25
100
AcDbArc
 50
89.99999999997395
 51
-135.00000000009214
  0
ARC
  5
209
100
AcDbEntity
  8
1
  6
CONTINUOUS
 62
             7
100
AcDbCircle
 10
693.46472001159657
 20
-2590.1329796995769
 40
0.25
100
AcDbArc
 50
180.0
 51
-44.99999999994473
  0
ARC
  5
208
100
AcDbEntity
  8
1
  6
CONTINUOUS
 62
             7
100
AcDbCircle
 10
697.06472001159648
 20
-2584.5057719057122
 40
0.25
100
AcDbArc
 50
0.0
 51
135.00000000007373
  0
ARC
  5
207
100
AcDbEntity
  8
1
  6
CONTINUOUS
 62
             7
100
AcDbCircle
 10
696.47832390852841
 20
-2583.8193758026441
 40
0.24999999999948
100
AcDbArc
 50
-44.99999999983419
 51
89.99999999997395
  0
ARC
  5
206
100
AcDbEntity
  8
1
  6
CONTINUOUS
 62
             7
100
AcDbCircle
 10
697.06472001159648
 20
-2590.1329796995769
 40
0.24999999999972
100
AcDbArc
 50
-135.00000000007373
 51
0.0
  0
ARC
  5
205
100
AcDbEntity
  8
1
  6
CONTINUOUS
 62
             7
100
AcDbCircle
 10
694.0511161146643
 20
-2590.8193758026441
 40
0.24999999999956
100
AcDbArc
 50
135.00000000003683
 51
-90.0
  0
ARC
  5
204
100
AcDbEntity
  8
1
  6
CONTINUOUS
 62
             7
100
AcDbCircle
 10
696.47832390852841
 20
-2590.8193758026441
 40
0.25
100
AcDbArc
 50
-89.99999999997395
 51
44.99999999990789
  0
ARC
  5
203
100
AcDbEntity
  8
1
  6
CONTINUOUS
 62
             7
100
AcDbCircle
 10
696.27832390852848
 20
-2587.3193758026441
 40
0.24999999999956
100
AcDbArc
 50
-44.99999999981576
 51
44.99999999988945
  0
ARC
  5
202
100
AcDbEntity
  8
1
  6
CONTINUOUS
 62
             7
100
AcDbCircle
 10
694.25111611466434
 20
-2587.3193758026441
 40
0.24999999999964
100
AcDbArc
 50
135.00000000005525
 51
-135.00000000012898
  0
ARC
  5
201
100
AcDbEntity
  8
1
  6
CONTINUOUS
 62
             7
100
AcDbCircle
 10
693.61472001159632
 20
-2586.6829796995762
 40
0.24999999999924
100
AcDbArc
 50
-135.00000000011056
 51
-44.99999999983419
  0
ARC
  5
200
100
AcDbEntity
  8
1
  6
CONTINUOUS
 62
             7
100
AcDbCircle
 10
696.9147200115965
 20
-2586.6829796995762
 40
0.2499999999994
100
AcDbArc
 50
-135.00000000014739
 51
-44.99999999983419
  0
ARC
  5
1FF
100
AcDbEntity
  8
1
  6
CONTINUOUS
 62
             7
100
AcDbCircle
 10
696.9147200115965
 20
-2587.9557719057129
 40
0.25000000000109
100
AcDbArc
 50
45.00000000020267
 51
134.99999999976049
  0
ARC
  5
1FE
100
AcDbEntity
  8
1
  6
CONTINUOUS
 62
             7
100
AcDbCircle
 10
693.61472001159643
 20
-2587.9557719057129
 40
0.25000000000101
100
AcDbArc
 50
45.00000000022109
 51
134.99999999976049
  0
ARC
  5
1FD
100
AcDbEntity
  8
1
  6
CONTINUOUS
 62
             7
100
AcDbCircle
 10
688.9147200115965
 20
-2587.9557719057129
 40
0.25000000000093
100
AcDbArc
 50
45.00000000023951
 51
134.99999999979732
  0
ARC
  5
1FC
100
AcDbEntity
  8
1
  6
CONTINUOUS
 62
             7
100
AcDbCircle
 10
692.21472001159657
 20
-2587.9557719057129
 40
0.25000000000101
100
AcDbArc
 50
45.00000000022109
 51
134.99999999977891
  0
ARC
  5
1FB
100
AcDbEntity
  8
1
  6
CONTINUOUS
 62
             7
100
AcDbCircle
 10
692.21472001159657
 20
-2586.6829796995762
 40
0.2499999999994
100
AcDbArc
 50
-135.00000000014739
 51
-44.99999999985261
  0
ARC
  5
1FA
100
AcDbEntity
  8
1
  6
CONTINUOUS
 62
             7
100
AcDbCircle
 10
688.91472001159639
 20
-2586.6829796995762
 40
0.2499999999994
100
AcDbArc
 50
-135.00000000014739
 51
-44.99999999985261
  0
ARC
  5
1F9
100
AcDbEntity
  8
1
  6
CONTINUOUS
 62
             7
100
AcDbCircle
 10
689.5511161146643
 20
-2587.3193758026441
 40
0.24999999999972
100
AcDbArc
 50
135.00000000007373
 51
-135.00000000014739
  0
ARC
  5
1F8
100
AcDbEntity
  8
1
  6
CONTINUOUS
 62
             7
100
AcDbCircle
 10
691.57832390852866
 20
-2587.3193758026441
 40
0.2499999999994
100
AcDbArc
 50
-44.99999999985261
 51
44.99999999992631
  0
ARC
  5
1F7
100
AcDbEntity
  8
1
  6
CONTINUOUS
 62
             7
100
AcDbCircle
 10
691.77832390852859
 20
-2590.8193758026441
 40
0.25
100
AcDbArc
 50
-90.0
 51
44.99999999992631
  0
ARC
  5
1F6
100
AcDbEntity
  8
1
  6
CONTINUOUS
 62
             7
100
AcDbCircle
 10
689.35111611466436
 20
-2590.8193758026441
 40
0.2499999999998
100
AcDbArc
 50
135.00000000009214
 51
-90.0
  0
ARC
  5
1F5
100
AcDbEntity
  8
1
  6
CONTINUOUS
 62
             7
100
AcDbCircle
 10
692.36472001159655
 20
-2590.1329796995769
 40
0.24999999999972
100
AcDbArc
 50
-135.00000000007373
 51
0.0
  0
ARC
  5
1F4
100
AcDbEntity
  8
1
  6
CONTINUOUS
 62
             7
100
AcDbCircle
 10
691.77832390852848
 20
-2583.8193758026441
 40
0.24999999999948
100
AcDbArc
 50
-44.99999999983419
 51
89.99999999997395
  0
ARC
  5
1F3
100
AcDbEntity
  8
1
  6
CONTINUOUS
 62
             7
100
AcDbCircle
 10
692.36472001159655
 20
-2584.5057719057122
 40
0.24999999999989
100
AcDbArc
 50
0.0
 51
135.00000000007373
  0
ARC
  5
1F2
100
AcDbEntity
  8
1
  6
CONTINUOUS
 62
             7
100
AcDbCircle
 10
688.76472001159652
 20
-2590.1329796995769
 40
0.25000000000011
100
AcDbArc
 50
180.0
 51
-44.99999999996316
  0
ARC
  5
1F1
100
AcDbEntity
  8
1
  6
CONTINUOUS
 62
             7
100
AcDbCircle
 10
689.35111611466436
 20
-2583.8193758026441
 40
0.25
100
AcDbArc
 50
90.0
 51
-135.00000000016581
  0
ARC
  5
1F0
100
AcDbEntity
  8
1
  6
CONTINUOUS
 62
             7
100
AcDbCircle
 10
688.76472001159652
 20
-2584.5057719057122
 40
0.24999999999956
100
AcDbArc
 50
44.99999999996316
 51
180.0
  0
ARC
  5
1EF
100
AcDbEntity
  8
1
  6
CONTINUOUS
 62
             7
100
AcDbCircle
 10
689.81472001159648
 20
-2562.1193758026438
 40
2.3002806900319
100
AcDbArc
 50
145.68859991077028
 51
-145.68859991076096
  0
ARC
  5
1EE
100
AcDbEntity
  8
1
  6
CONTINUOUS
 62
             7
100
AcDbCircle
 10
702.61472001159643
 20
-2606.919375802644
 40
1.5
100
AcDbArc
 50
90.0
 51
-90.0
  0
ARC
  5
1ED
100
AcDbEntity
  8
1
  6
CONTINUOUS
 62
             7
100
AcDbCircle
 10
703.61472001159643
 20
-2606.919375802644
 40
1.5
100
AcDbArc
 50
-90.0
 51
90.0
  0
ARC
  5
1EC
100
AcDbEntity
  8
1
  6
CONTINUOUS
 62
             7
100
AcDbCircle
 10
702.11472001159643
 20
-2606.919375802644
 40
2.0
100
AcDbArc
 50
90.0
 51
-90.0
  0
ARC
  5
1EB
100
AcDbEntity
  8
1
  6
CONTINUOUS
 62
             7
100
AcDbCircle
 10
704.11472001159643
 20
-2606.919375802644
 40
2.0
100
AcDbArc
 50
-90.0
 51
90.0
  0
LINE
  5
1EA
100
AcDbEntity
  8
1
  6
CONTINUOUS
 62
             7
100
AcDbLine
 10
759.50398087931399
 20
-2624.8711296131901
 11
759.50398087931399
 21
-2632.3193758026441
  0
LINE
  5
1E9
100
AcDbEntity
  8
1
  6
CONTINUOUS
 62
             7
100
AcDbLine
 10
759.50398087931399
 20
-2572.47112961319
 11
759.50398087931399
 21
-2619.5676219920988
  0
LINE
  5
1E8
100
AcDbEntity
  8
1
  6
CONTINUOUS
 62
             7
100
AcDbLine
 10
759.50398087931399
 20
-2567.1676219920992
 11
759.50398087931399
 21
-2557.3193758026441
  0
LINE
  5
1E7
100
AcDbEntity
  8
1
  6
CONTINUOUS
 62
             7
100
AcDbLine
 10
754.00398087931399
 20
-2568.819375802645
 11
750.50398087931399
 21
-2568.819375802645
  0
LINE
  5
1E6
100
AcDbEntity
  8
1
  6
CONTINUOUS
 62
             7
100
AcDbLine
 10
750.50398087931399
 20
-2568.819375802645
 11
750.50398087931399
 21
-2570.819375802645
  0
LINE
  5
1E5
100
AcDbEntity
  8
1
  6
CONTINUOUS
 62
             7
100
AcDbLine
 10
750.50398087931399
 20
-2570.819375802645
 11
754.00398087931399
 21
-2570.819375802645
  0
LINE
  5
1E4
100
AcDbEntity
  8
1
  6
CONTINUOUS
 62
             7
100
AcDbLine
 10
754.00398087931399
 20
-2570.819375802645
 11
754.00398087931399
 21
-2568.819375802645
  0
LINE
  5
1E3
100
AcDbEntity
  8
1
  6
CONTINUOUS
 62
             7
100
AcDbLine
 10
754.00398087931399
 20
-2568.319375802645
 11
750.50398087931399
 21
-2568.319375802645
  0
LINE
  5
1E2
100
AcDbEntity
  8
1
  6
CONTINUOUS
 62
             7
100
AcDbLine
 10
750.00398087931399
 20
-2568.819375802645
 11
750.00398087931399
 21
-2570.819375802645
  0
LINE
  5
1E1
100
AcDbEntity
  8
1
  6
CONTINUOUS
 62
             7
100
AcDbLine
 10
750.50398087931399
 20
-2571.319375802645
 11
754.00398087931399
 21
-2571.319375802645
  0
LINE
  5
1E0
100
AcDbEntity
  8
1
  6
CONTINUOUS
 62
             7
100
AcDbLine
 10
754.50398087931399
 20
-2570.819375802645
 11
754.50398087931399
 21
-2568.819375802645
  0
LINE
  5
1DF
100
AcDbEntity
  8
1
  6
CONTINUOUS
 62
             7
100
AcDbLine
 10
755.91096184188882
 20
-2567.104905611513
 11
759.50398087931399
 21
-2567.1676219920992
  0
LINE
  5
1DE
100
AcDbEntity
  8
1
  6
CONTINUOUS
 62
             7
100
AcDbLine
 10
755.91096184188882
 20
-2572.533845993777
 11
759.50398087931399
 21
-2572.47112961319
  0
LINE
  5
1DD
100
AcDbEntity
  8
1
  6
CONTINUOUS
 62
             7
100
AcDbLine
 10
759.60398087931367
 20
-2571.669262244262
 11
755.89699991673888
 21
-2571.7339678376511
  0
LINE
  5
1DC
100
AcDbEntity
  8
1
  6
CONTINUOUS
 62
             7
100
AcDbLine
 10
759.60398087931412
 20
-2567.9694893610272
 11
755.89699991673888
 21
-2567.904783767638
  0
LINE
  5
1DB
100
AcDbEntity
  8
1
  6
CONTINUOUS
 62
             7
100
AcDbLine
 10
755.50398087931399
 20
-2572.1339069157139
 11
755.50398087931399
 21
-2567.5048446895748
  0
LINE
  5
1DA
100
AcDbEntity
  8
1
  6
CONTINUOUS
 62
             7
100
AcDbLine
 10
755.50398087931399
 20
-2624.5339069157139
 11
755.50398087931399
 21
-2619.9048446895749
  0
LINE
  5
1D9
100
AcDbEntity
  8
1
  6
CONTINUOUS
 62
             7
100
AcDbLine
 10
759.60398087931412
 20
-2620.3694893610268
 11
755.89699991673888
 21
-2620.3047837676381
  0
LINE
  5
1D8
100
AcDbEntity
  8
1
  6
CONTINUOUS
 62
             7
100
AcDbLine
 10
759.60398087931367
 20
-2624.0692622442621
 11
755.89699991673888
 21
-2624.1339678376512
  0
LINE
  5
1D7
100
AcDbEntity
  8
1
  6
CONTINUOUS
 62
             7
100
AcDbLine
 10
755.91096184188882
 20
-2624.9338459937771
 11
759.50398087931399
 21
-2624.8711296131901
  0
LINE
  5
1D6
100
AcDbEntity
  8
1
  6
CONTINUOUS
 62
             7
100
AcDbLine
 10
755.91096184188882
 20
-2619.5049056115131
 11
759.50398087931399
 21
-2619.5676219920988
  0
LINE
  5
1D5
100
AcDbEntity
  8
1
  6
CONTINUOUS
 62
             7
100
AcDbLine
 10
754.50398087931399
 20
-2623.2193758026451
 11
754.50398087931399
 21
-2621.2193758026451
  0
LINE
  5
1D4
100
AcDbEntity
  8
1
  6
CONTINUOUS
 62
             7
100
AcDbLine
 10
750.50398087931399
 20
-2623.7193758026451
 11
754.00398087931399
 21
-2623.7193758026451
  0
LINE
  5
1D3
100
AcDbEntity
  8
1
  6
CONTINUOUS
 62
             7
100
AcDbLine
 10
750.00398087931399
 20
-2621.2193758026451
 11
750.00398087931399
 21
-2623.2193758026451
  0
LINE
  5
1D2
100
AcDbEntity
  8
1
  6
CONTINUOUS
 62
             7
100
AcDbLine
 10
754.00398087931399
 20
-2620.7193758026451
 11
750.50398087931399
 21
-2620.7193758026451
  0
LINE
  5
1D1
100
AcDbEntity
  8
1
  6
CONTINUOUS
 62
             7
100
AcDbLine
 10
754.00398087931399
 20
-2623.2193758026451
 11
754.00398087931399
 21
-2621.2193758026451
  0
LINE
  5
1D0
100
AcDbEntity
  8
1
  6
CONTINUOUS
 62
             7
100
AcDbLine
 10
750.50398087931399
 20
-2623.2193758026451
 11
754.00398087931399
 21
-2623.2193758026451
  0
LINE
  5
1CF
100
AcDbEntity
  8
1
  6
CONTINUOUS
 62
             7
100
AcDbLine
 10
750.50398087931399
 20
-2621.2193758026451
 11
750.50398087931399
 21
-2623.2193758026451
  0
LINE
  5
1CE
100
AcDbEntity
  8
1
  6
CONTINUOUS
 62
             7
100
AcDbLine
 10
754.00398087931399
 20
-2621.2193758026451
 11
750.50398087931399
 21
-2621.2193758026451
  0
LINE
  5
1CD
100
AcDbEntity
  8
1
  6
CONTINUOUS
 62
             7
100
AcDbLine
 10
759.60398087931401
 20
-2632.3193758026441
 11
759.60398087931401
 21
-2557.3193758026441
  0
LINE
  5
1CC
100
AcDbEntity
  8
1
  6
CONTINUOUS
 62
             7
100
AcDbLine
 10
703.73083653511299
 20
-2629.0532592791278
 11
705.49860348807943
 21
-2627.2854923261621
  0
LINE
  5
1CB
100
AcDbEntity
  8
1
  6
CONTINUOUS
 62
             7
100
AcDbLine
 10
700.2308365351131
 20
-2629.0532592791278
 11
701.99860348807954
 21
-2627.2854923261621
  0
LINE
  5
1CA
100
AcDbEntity
  8
1
  6
CONTINUOUS
 62
             7
100
AcDbLine
 10
696.73083653511321
 20
-2629.0532592791278
 11
698.49860348807965
 21
-2627.2854923261621
  0
LINE
  5
1C9
100
AcDbEntity
  8
1
  6
CONTINUOUS
 62
             7
100
AcDbLine
 10
693.23083653511321
 20
-2629.0532592791278
 11
694.99860348807965
 21
-2627.2854923261621
  0
LINE
  5
1C8
100
AcDbEntity
  8
1
  6
CONTINUOUS
 62
             7
100
AcDbLine
 10
689.73083653511321
 20
-2629.0532592791278
 11
691.49860348807965
 21
-2627.2854923261621
  0
LINE
  5
1C7
100
AcDbEntity
  8
1
  6
CONTINUOUS
 62
             7
100
AcDbLine
 10
703.40050644922337
 20
-2563.5335893650172
 11
706.22893357396958
 21
-2560.705162240271
  0
LINE
  5
1C6
100
AcDbEntity
  8
1
  6
CONTINUOUS
 62
             7
100
AcDbLine
 10
698.40050644922337
 20
-2563.5335893650172
 11
701.22893357396958
 21
-2560.705162240271
  0
LINE
  5
1C5
100
AcDbEntity
  8
1
  6
CONTINUOUS
 62
             7
100
AcDbLine
 10
693.40050644922337
 20
-2563.5335893650172
 11
696.22893357396958
 21
-2560.705162240271
  0
LINE
  5
1C4
100
AcDbEntity
  8
1
  6
CONTINUOUS
 62
             7
100
AcDbLine
 10
688.40050644922337
 20
-2563.5335893650172
 11
691.22893357396958
 21
-2560.705162240271
  0
LINE
  5
1C3
100
AcDbEntity
  8
1
  6
CONTINUOUS
 62
             7
100
AcDbLine
 10
764.90398087931396
 20
-2571.607296763767
 11
764.90398087931396
 21
-2568.0314548415222
  0
LINE
  5
1C2
100
AcDbEntity
  8
1
  6
CONTINUOUS
 62
             7
100
AcDbLine
 10
764.90398087931396
 20
-2568.0314548415222
 11
763.45398087931414
 21
-2568.0061449973759
  0
LINE
  5
1C1
100
AcDbEntity
  8
1
  6
CONTINUOUS
 62
             7
100
AcDbLine
 10
764.90398087931396
 20
-2568.0314548415222
 11
764.90398087931396
 21
-2567.8193758026441
  0
LINE
  5
1C0
100
AcDbEntity
  8
1
  6
CONTINUOUS
 62
             7
100
AcDbLine
 10
762.90398087931396
 20
-2571.6422068936222
 11
762.95398087931437
 21
-2571.641334140375
  0
LINE
  5
1BF
100
AcDbEntity
  8
1
  6
CONTINUOUS
 62
             7
100
AcDbLine
 10
762.90398087931396
 20
-2571.6422068936222
 11
762.90398087931396
 21
-2567.996544711666
  0
LINE
  5
1BE
100
AcDbEntity
  8
1
  6
CONTINUOUS
 62
             7
100
AcDbLine
 10
762.90398087931396
 20
-2567.996544711666
 11
762.90398087931396
 21
-2567.8193758026441
  0
LINE
  5
1BD
100
AcDbEntity
  8
1
  6
CONTINUOUS
 62
             7
100
AcDbLine
 10
764.90398087931396
 20
-2624.007296763767
 11
764.90398087931396
 21
-2620.4314548415232
  0
LINE
  5
1BC
100
AcDbEntity
  8
1
  6
CONTINUOUS
 62
             7
100
AcDbLine
 10
764.90398087931396
 20
-2620.4314548415232
 11
763.45398087931414
 21
-2620.4061449973769
  0
LINE
  5
1BB
100
AcDbEntity
  8
1
  6
CONTINUOUS
 62
             7
100
AcDbLine
 10
764.90398087931396
 20
-2620.4314548415232
 11
764.90398087931396
 21
-2620.2193758026442
  0
LINE
  5
1BA
100
AcDbEntity
  8
1
  6
CONTINUOUS
 62
             7
100
AcDbLine
 10
762.90398087931396
 20
-2624.0422068936232
 11
762.95398087931414
 21
-2624.0413341403769
  0
LINE
  5
1B9
100
AcDbEntity
  8
1
  6
CONTINUOUS
 62
             7
100
AcDbLine
 10
762.90398087931396
 20
-2624.0422068936232
 11
762.90398087931396
 21
-2620.3965447116661
  0
LINE
  5
1B8
100
AcDbEntity
  8
1
  6
CONTINUOUS
 62
             7
100
AcDbLine
 10
762.90398087931396
 20
-2620.3965447116661
 11
762.90398087931396
 21
-2620.2193758026442
  0
LINE
  5
1B7
100
AcDbEntity
  8
1
  6
CONTINUOUS
 62
             7
100
AcDbLine
 10
762.95398087931414
 20
-2620.3974174649129
 11
762.90398087931396
 21
-2620.3965447116661
  0
LINE
  5
1B6
100
AcDbEntity
  8
1
  6
CONTINUOUS
 62
             7
100
AcDbLine
 10
762.95398087931414
 20
-2567.9974174649119
 11
762.90398087931396
 21
-2567.996544711666
  0
LINE
  5
1B5
100
AcDbEntity
  8
1
  6
CONTINUOUS
 62
             7
100
AcDbLine
 10
762.95398087931414
 20
-2624.0413341403769
 11
763.45398087931414
 21
-2624.0326066079128
  0
LINE
  5
1B4
100
AcDbEntity
  8
1
  6
CONTINUOUS
 62
             7
100
AcDbLine
 10
763.45398087931414
 20
-2624.0326066079128
 11
764.90398087931396
 21
-2624.007296763767
  0
LINE
  5
1B3
100
AcDbEntity
  8
1
  6
CONTINUOUS
 62
             7
100
AcDbLine
 10
763.45398087931414
 20
-2620.4061449973769
 11
763.45398087931414
 21
-2624.0326066079128
  0
LINE
  5
1B2
100
AcDbEntity
  8
1
  6
CONTINUOUS
 62
             7
100
AcDbLine
 10
763.45398087931414
 20
-2620.4061449973769
 11
762.95398087931414
 21
-2620.3974174649129
  0
LINE
  5
1B1
100
AcDbEntity
  8
1
  6
CONTINUOUS
 62
             7
100
AcDbLine
 10
762.95398087931414
 20
-2620.3974174649129
 11
762.95398087931414
 21
-2624.0413341403769
  0
LINE
  5
1B0
100
AcDbEntity
  8
1
  6
CONTINUOUS
 62
             7
100
AcDbLine
 10
762.95398087931414
 20
-2567.9974174649119
 11
762.95398087931437
 21
-2571.641334140375
  0
LINE
  5
1AF
100
AcDbEntity
  8
1
  6
CONTINUOUS
 62
             7
100
AcDbLine
 10
762.95398087931437
 20
-2571.641334140375
 11
763.45398087931414
 21
-2571.6326066079109
  0
LINE
  5
1AE
100
AcDbEntity
  8
1
  6
CONTINUOUS
 62
             7
100
AcDbLine
 10
763.45398087931414
 20
-2568.0061449973759
 11
763.45398087931414
 21
-2571.6326066079109
  0
LINE
  5
1AD
100
AcDbEntity
  8
1
  6
CONTINUOUS
 62
             7
100
AcDbLine
 10
763.45398087931414
 20
-2571.6326066079109
 11
764.90398087931396
 21
-2571.607296763767
  0
LINE
  5
1AC
100
AcDbEntity
  8
1
  6
CONTINUOUS
 62
             7
100
AcDbLine
 10
763.45398087931414
 20
-2568.0061449973759
 11
762.95398087931414
 21
-2567.9974174649119
  0
LINE
  5
1AB
100
AcDbEntity
  8
1
  6
CONTINUOUS
 62
             7
100
AcDbLine
 10
839.00398087931387
 20
-2577.1193758026438
 11
840.00398087931387
 21
-2577.1193758026438
  0
LINE
  5
1AA
100
AcDbEntity
  8
1
  6
CONTINUOUS
 62
             7
100
AcDbLine
 10
839.00398087931387
 20
-2557.3193758026441
 11
839.00398087931387
 21
-2577.1193758026438
  0
LINE
  5
1A9
100
AcDbEntity
  8
1
  6
CONTINUOUS
 62
             7
100
AcDbLine
 10
839.00398087931387
 20
-2616.5193758026439
 11
836.00398087931387
 21
-2616.5193758026439
  0
LINE
  5
1A8
100
AcDbEntity
  8
1
  6
CONTINUOUS
 62
             7
100
AcDbLine
 10
839.00398087931387
 20
-2612.5193758026439
 11
836.00398087931387
 21
-2612.5193758026439
  0
LINE
  5
1A7
100
AcDbEntity
  8
1
  6
CONTINUOUS
 62
             7
100
AcDbLine
 10
839.00398087931387
 20
-2616.5193758026439
 11
839.00398087931387
 21
-2612.5193758026439
  0
LINE
  5
1A6
100
AcDbEntity
  8
1
  6
CONTINUOUS
 62
             7
100
AcDbLine
 10
839.00398087931387
 20
-2620.0193758026439
 11
840.00398087931387
 21
-2620.0193758026439
  0
LINE
  5
1A5
100
AcDbEntity
  8
1
  6
CONTINUOUS
 62
             7
100
AcDbLine
 10
839.00398087931387
 20
-2620.0193758026439
 11
839.00398087931387
 21
-2632.3193758026441
  0
LINE
  5
1A4
100
AcDbEntity
  8
1
  6
CONTINUOUS
 62
             7
100
AcDbLine
 10
836.00398087931387
 20
-2620.0193758026439
 11
839.00398087931387
 21
-2620.0193758026439
  0
LINE
  5
1A3
100
AcDbEntity
  8
1
  6
CONTINUOUS
 62
             7
100
AcDbLine
 10
836.00398087931387
 20
-2616.5193758026439
 11
836.00398087931387
 21
-2620.0193758026439
  0
LINE
  5
1A2
100
AcDbEntity
  8
1
  6
CONTINUOUS
 62
             7
100
AcDbLine
 10
840.00398087931387
 20
-2616.5193758026439
 11
840.00398087931387
 21
-2612.5193758026439
  0
LINE
  5
1A1
100
AcDbEntity
  8
1
  6
CONTINUOUS
 62
             7
100
AcDbLine
 10
840.00398087931387
 20
-2616.5193758026439
 11
839.00398087931387
 21
-2616.5193758026439
  0
LINE
  5
1A0
100
AcDbEntity
  8
1
  6
CONTINUOUS
 62
             7
100
AcDbLine
 10
836.00398087931387
 20
-2610.5193758026439
 11
836.00398087931387
 21
-2608.5193758026439
  0
LINE
  5
19F
100
AcDbEntity
  8
1
  6
CONTINUOUS
 62
             7
100
AcDbLine
 10
836.50398087931387
 20
-2610.5193758026439
 11
836.00398087931387
 21
-2610.5193758026439
  0
LINE
  5
19E
100
AcDbEntity
  8
1
  6
CONTINUOUS
 62
             7
100
AcDbLine
 10
836.50398087931387
 20
-2608.5193758026439
 11
836.50398087931387
 21
-2610.5193758026439
  0
LINE
  5
19D
100
AcDbEntity
  8
1
  6
CONTINUOUS
 62
             7
100
AcDbLine
 10
836.00398087931387
 20
-2608.5193758026439
 11
836.00398087931387
 21
-2581.2374097913939
  0
LINE
  5
19C
100
AcDbEntity
  8
1
  6
CONTINUOUS
 62
             7
100
AcDbLine
 10
836.00398087931387
 20
-2608.5193758026439
 11
836.50398087931387
 21
-2608.5193758026439
  0
LINE
  5
19B
100
AcDbEntity
  8
1
  6
CONTINUOUS
 62
             7
100
AcDbLine
 10
836.00398087931387
 20
-2581.2374097913939
 11
836.00398087931387
 21
-2579.0013418138942
  0
LINE
  5
19A
100
AcDbEntity
  8
1
  6
CONTINUOUS
 62
             7
100
AcDbLine
 10
836.00398087931387
 20
-2579.0013418138942
 11
836.00398087931387
 21
-2577.1193758026438
  0
LINE
  5
199
100
AcDbEntity
  8
1
  6
CONTINUOUS
 62
             7
100
AcDbLine
 10
838.70398087931392
 20
-2579.1193758026438
 11
840.00398087931387
 21
-2577.1193758026438
  0
LINE
  5
198
100
AcDbEntity
  8
1
  6
CONTINUOUS
 62
             7
100
AcDbLine
 10
837.70398087931392
 20
-2579.1193758026438
 11
838.70398087931392
 21
-2579.1193758026438
  0
LINE
  5
197
100
AcDbEntity
  8
1
  6
CONTINUOUS
 62
             7
100
AcDbLine
 10
837.40398087931396
 20
-2577.1193758026438
 11
839.00398087931387
 21
-2577.1193758026438
  0
LINE
  5
196
100
AcDbEntity
  8
1
  6
CONTINUOUS
 62
             7
100
AcDbLine
 10
837.40398087931396
 20
-2577.1193758026438
 11
837.70398087931392
 21
-2579.1193758026438
  0
LINE
  5
195
100
AcDbEntity
  8
1
  6
CONTINUOUS
 62
             7
100
AcDbLine
 10
759.60398087931401
 20
-2632.3193758026441
 11
839.00398087931387
 21
-2632.3193758026441
  0
LINE
  5
194
100
AcDbEntity
  8
1
  6
CONTINUOUS
 62
             7
100
AcDbLine
 10
839.00398087931387
 20
-2632.3193758026441
 11
840.00398087931387
 21
-2631.3193758026441
  0
LINE
  5
193
100
AcDbEntity
  8
1
  6
CONTINUOUS
 62
             7
100
AcDbLine
 10
759.60398087931401
 20
-2557.3193758026441
 11
839.00398087931387
 21
-2557.3193758026441
  0
LINE
  5
192
100
AcDbEntity
  8
1
  6
CONTINUOUS
 62
             7
100
AcDbLine
 10
840.00398087931387
 20
-2577.1193758026438
 11
840.00398087931387
 21
-2558.3193758026441
  0
LINE
  5
191
100
AcDbEntity
  8
1
  6
CONTINUOUS
 62
             7
100
AcDbLine
 10
839.00398087931387
 20
-2557.3193758026441
 11
840.00398087931387
 21
-2558.3193758026441
  0
LINE
  5
190
100
AcDbEntity
  8
1
  6
CONTINUOUS
 62
             7
100
AcDbLine
 10
762.90398087931396
 20
-2567.8193758026441
 11
764.90398087931396
 21
-2567.8193758026441
  0
LINE
  5
18F
100
AcDbEntity
  8
1
  6
CONTINUOUS
 62
             7
100
AcDbLine
 10
762.90398087931396
 20
-2571.8193758026441
 11
762.90398087931396
 21
-2571.6422068936222
  0
LINE
  5
18E
100
AcDbEntity
  8
1
  6
CONTINUOUS
 62
             7
100
AcDbLine
 10
764.90398087931396
 20
-2571.8193758026441
 11
764.90398087931396
 21
-2571.607296763767
  0
LINE
  5
18D
100
AcDbEntity
  8
1
  6
CONTINUOUS
 62
             7
100
AcDbLine
 10
762.90398087931396
 20
-2571.8193758026441
 11
764.90398087931396
 21
-2571.8193758026441
  0
LINE
  5
18C
100
AcDbEntity
  8
1
  6
CONTINUOUS
 62
             7
100
AcDbLine
 10
762.90398087931396
 20
-2624.2193758026442
 11
764.90398087931396
 21
-2624.2193758026442
  0
LINE
  5
18B
100
AcDbEntity
  8
1
  6
CONTINUOUS
 62
             7
100
AcDbLine
 10
764.90398087931396
 20
-2624.2193758026442
 11
764.90398087931396
 21
-2624.007296763767
  0
LINE
  5
18A
100
AcDbEntity
  8
1
  6
CONTINUOUS
 62
             7
100
AcDbLine
 10
762.90398087931396
 20
-2624.2193758026442
 11
762.90398087931396
 21
-2624.0422068936232
  0
LINE
  5
189
100
AcDbEntity
  8
1
  6
CONTINUOUS
 62
             7
100
AcDbLine
 10
762.90398087931396
 20
-2620.2193758026442
 11
764.90398087931396
 21
-2620.2193758026442
  0
LINE
  5
188
100
AcDbEntity
  8
1
  6
CONTINUOUS
 62
             7
100
AcDbLine
 10
828.10398087931401
 20
-2564.8193758026441
 11
789.10398087931401
 21
-2564.8193758026441
  0
LINE
  5
187
100
AcDbEntity
  8
1
  6
CONTINUOUS
 62
             7
100
AcDbLine
 10
828.60398087931401
 20
-2624.3193758026441
 11
828.60398087931401
 21
-2565.3193758026441
  0
LINE
  5
186
100
AcDbEntity
  8
1
  6
CONTINUOUS
 62
             7
100
AcDbLine
 10
790.10398087931401
 20
-2624.8193758026441
 11
788.60398087931401
 21
-2623.3193758026441
  0
LINE
  5
185
100
AcDbEntity
  8
1
  6
CONTINUOUS
 62
             7
100
AcDbLine
 10
828.10398087931401
 20
-2624.8193758026441
 11
790.10398087931401
 21
-2624.8193758026441
  0
LINE
  5
184
100
AcDbEntity
  8
1
  6
CONTINUOUS
 62
             7
100
AcDbLine
 10
788.60398087931401
 20
-2565.3193758026441
 11
788.60398087931401
 21
-2623.3193758026441
  0
LINE
  5
183
100
AcDbEntity
  8
1
  6
CONTINUOUS
 62
             7
100
AcDbLine
 10
836.00398087931387
 20
-2577.1193758026438
 11
837.40398087931396
 21
-2577.1193758026438
  0
LINE
  5
182
100
AcDbEntity
  8
1
  6
CONTINUOUS
 62
             7
100
AcDbLine
 10
836.00398087931387
 20
-2612.5193758026439
 11
836.00398087931387
 21
-2610.5193758026439
  0
LINE
  5
181
100
AcDbEntity
  8
1
  6
CONTINUOUS
 62
             7
100
AcDbLine
 10
840.00398087931387
 20
-2612.5193758026439
 11
839.00398087931387
 21
-2612.5193758026439
  0
LINE
  5
180
100
AcDbEntity
  8
1
  6
CONTINUOUS
 62
             7
100
AcDbLine
 10
840.00398087931387
 20
-2631.3193758026441
 11
840.00398087931387
 21
-2620.0193758026439
  0
LINE
  5
17F
100
AcDbEntity
  8
1
  6
CONTINUOUS
 62
             7
100
AcDbLine
 10
687.91472001159707
 20
-2559.3481543232688
 11
707.31472001159614
 21
-2559.3481543232688
  0
LINE
  5
17E
100
AcDbEntity
  8
1
  6
CONTINUOUS
 62
             7
100
AcDbLine
 10
706.86472001159643
 20
-2629.5193758026439
 11
706.86472001159643
 21
-2630.3193758026441
  0
LINE
  5
17D
100
AcDbEntity
  8
1
  6
CONTINUOUS
 62
             7
100
AcDbLine
 10
706.36472001159643
 20
-2629.5193758026439
 11
706.36472001159643
 21
-2630.3193758026441
  0
LINE
  5
17C
100
AcDbEntity
  8
1
  6
CONTINUOUS
 62
             7
100
AcDbLine
 10
706.86472001159643
 20
-2629.5193758026439
 11
706.36472001159643
 21
-2629.5193758026439
  0
LINE
  5
17B
100
AcDbEntity
  8
1
  6
CONTINUOUS
 62
             7
100
AcDbLine
 10
706.86472001159643
 20
-2630.3193758026441
 11
706.36472001159643
 21
-2630.3193758026441
  0
LINE
  5
17A
100
AcDbEntity
  8
1
  6
CONTINUOUS
 62
             7
100
AcDbLine
 10
688.36472001159643
 20
-2625.6166733720238
 11
688.36472001159643
 21
-2625.8193758026441
  0
LINE
  5
179
100
AcDbEntity
  8
1
  6
CONTINUOUS
 62
             7
100
AcDbLine
 10
688.86472001159643
 20
-2625.8193758026441
 11
688.86472001159643
 21
-2625.6166733720238
  0
LINE
  5
178
100
AcDbEntity
  8
1
  6
CONTINUOUS
 62
             7
100
AcDbLine
 10
688.36472001159643
 20
-2625.8193758026441
 11
688.86472001159643
 21
-2625.8193758026441
  0
LINE
  5
177
100
AcDbEntity
  8
1
  6
CONTINUOUS
 62
             7
100
AcDbLine
 10
706.36472001159643
 20
-2630.3193758026441
 11
706.36472001159643
 21
-2630.7193758026442
  0
LINE
  5
176
100
AcDbEntity
  8
1
  6
CONTINUOUS
 62
             7
100
AcDbLine
 10
688.86472001159643
 20
-2630.3193758026441
 11
688.86472001159643
 21
-2626.0193758026439
  0
LINE
  5
175
100
AcDbEntity
  8
1
  6
CONTINUOUS
 62
             7
100
AcDbLine
 10
688.86472001159643
 20
-2630.3193758026441
 11
706.36472001159643
 21
-2630.3193758026441
  0
LINE
  5
174
100
AcDbEntity
  8
1
  6
CONTINUOUS
 62
             7
100
AcDbLine
 10
688.86472001159643
 20
-2626.0193758026439
 11
688.86472001159643
 21
-2625.8193758026441
  0
LINE
  5
173
100
AcDbEntity
  8
1
  6
CONTINUOUS
 62
             7
100
AcDbLine
 10
706.36472001159643
 20
-2626.0193758026439
 11
706.36472001159643
 21
-2629.5193758026439
  0
LINE
  5
172
100
AcDbEntity
  8
1
  6
CONTINUOUS
 62
             7
100
AcDbLine
 10
688.86472001159643
 20
-2626.0193758026439
 11
706.36472001159643
 21
-2626.0193758026439
  0
LINE
  5
171
100
AcDbEntity
  8
1
  6
CONTINUOUS
 62
             7
100
AcDbLine
 10
706.36472001159643
 20
-2625.6166733720238
 11
706.36472001159643
 21
-2626.0193758026439
  0
LINE
  5
170
100
AcDbEntity
  8
1
  6
CONTINUOUS
 62
             7
100
AcDbLine
 10
707.31472001159614
 20
-2564.8905972820189
 11
687.91472001159707
 21
-2564.8905972820189
  0
LINE
  5
16F
100
AcDbEntity
  8
1
  6
CONTINUOUS
 62
             7
100
AcDbLine
 10
688.86472001159643
 20
-2630.7193758026442
 11
688.86472001159643
 21
-2630.3193758026441
  0
LINE
  5
16E
100
AcDbEntity
  8
1
  6
CONTINUOUS
 62
             7
100
AcDbLine
 10
840.00398087931387
 20
-2620.0193758026439
 11
840.00398087931387
 21
-2616.5193758026439
  0
LINE
  5
16D
100
AcDbEntity
  8
1
  6
DOTTED
 62
             7
100
AcDbLine
 10
838.50398087931387
 20
-2580.6193758026438
 11
837.50398087931387
 21
-2579.1193758026438
  0
LINE
  5
16C
100
AcDbEntity
  8
1
  6
DOTTED
 62
             7
100
AcDbLine
 10
843.00398087931387
 20
-2580.6193758026438
 11
838.50398087931387
 21
-2580.6193758026438
  0
LINE
  5
16B
100
AcDbEntity
  8
1
  6
DOTTED
 62
             7
100
AcDbLine
 10
844.00398087931387
 20
-2607.6193758026438
 11
844.00398087931387
 21
-2581.6193758026438
  0
LINE
  5
16A
100
AcDbEntity
  8
1
  6
DOTTED
 62
             7
100
AcDbLine
 10
838.50398087931387
 20
-2608.6193758026438
 11
843.00398087931387
 21
-2608.6193758026438
  0
LINE
  5
169
100
AcDbEntity
  8
1
  6
DOTTED
 62
             7
100
AcDbLine
 10
837.50398087931387
 20
-2610.1193758026438
 11
838.50398087931387
 21
-2608.6193758026438
  0
LINE
  5
168
100
AcDbEntity
  8
1
  6
DOTTED
 62
             7
100
AcDbLine
 10
836.50398087931387
 20
-2612.0193758026439
 11
837.50398087931387
 21
-2612.0193758026439
  0
LINE
  5
167
100
AcDbEntity
  8
1
  6
DOTTED
 62
             7
100
AcDbLine
 10
836.50398087931387
 20
-2609.1193758026438
 11
836.50398087931387
 21
-2612.0193758026439
  0
LINE
  5
166
100
AcDbEntity
  8
1
  6
DOTTED
 62
             7
100
AcDbLine
 10
842.40398087931396
 20
-2607.1193758026438
 11
838.50398087931387
 21
-2607.1193758026438
  0
LINE
  5
165
100
AcDbEntity
  8
1
  6
DOTTED
 62
             7
100
AcDbLine
 10
842.40398087931396
 20
-2582.1193758026438
 11
842.40398087931396
 21
-2607.1193758026438
  0
LINE
  5
164
100
AcDbEntity
  8
1
  6
DOTTED
 62
             7
100
AcDbLine
 10
838.50398087931387
 20
-2582.1193758026438
 11
842.40398087931396
 21
-2582.1193758026438
  0
LINE
  5
163
100
AcDbEntity
  8
1
  6
DOTTED
 62
             7
100
AcDbLine
 10
836.50398087931387
 20
-2577.2193758026442
 11
836.50398087931387
 21
-2580.1193758026438
  0
LINE
  5
162
100
AcDbEntity
  8
1
  6
DOTTED
 62
             7
100
AcDbLine
 10
837.50398087931387
 20
-2577.2193758026442
 11
836.50398087931387
 21
-2577.2193758026442
  0
LINE
  5
161
100
AcDbEntity
  8
1
  6
DOTTED
 62
             7
100
AcDbLine
 10
836.40398087931396
 20
-2608.6193758026438
 11
836.40398087931396
 21
-2610.6193758026438
  0
LINE
  5
160
100
AcDbEntity
  8
1
  6
DOTTED
 62
             7
100
AcDbLine
 10
837.50398087931387
 20
-2579.1193758026438
 11
837.50398087931387
 21
-2577.1193758026438
  0
LINE
  5
15F
100
AcDbEntity
  8
1
  6
DOTTED
 62
             7
100
AcDbLine
 10
837.50398087931387
 20
-2612.0193758026439
 11
837.50398087931387
 21
-2610.1193758026438
  0
LINE
  5
15E
100
AcDbEntity
  8
1
  6
CONTINUOUS
 62
             7
100
AcDbLine
 10
750.70398087931392
 20
-2601.3193758026441
 11
750.70398087931392
 21
-2588.3193758026441
  0
LINE
  5
15D
100
AcDbEntity
  8
1
  6
CONTINUOUS
 62
             7
100
AcDbLine
 10
750.70398087931392
 20
-2588.3193758026441
 11
753.80398087931405
 21
-2588.3193758026441
  0
LINE
  5
15C
100
AcDbEntity
  8
1
  6
CONTINUOUS
 62
             7
100
AcDbLine
 10
753.80398087931405
 20
-2588.3193758026441
 11
753.80398087931405
 21
-2601.3193758026441
  0
LINE
  5
15B
100
AcDbEntity
  8
1
  6
CONTINUOUS
 62
             7
100
AcDbLine
 10
753.80398087931405
 20
-2601.3193758026441
 11
750.70398087931392
 21
-2601.3193758026441
  0
LINE
  5
15A
100
AcDbEntity
  8
1
  6
CONTINUOUS
 62
             7
100
AcDbLine
 10
750.50398087931399
 20
-2601.8193758026441
 11
750.50398087931399
 21
-2587.8193758026441
  0
LINE
  5
159
100
AcDbEntity
  8
1
  6
CONTINUOUS
 62
             7
100
AcDbLine
 10
750.50398087931399
 20
-2587.8193758026441
 11
754.00398087931399
 21
-2587.8193758026441
  0
LINE
  5
158
100
AcDbEntity
  8
1
  6
CONTINUOUS
 62
             7
100
AcDbLine
 10
754.00398087931399
 20
-2587.8193758026441
 11
754.00398087931399
 21
-2601.8193758026441
  0
LINE
  5
157
100
AcDbEntity
  8
1
  6
CONTINUOUS
 62
             7
100
AcDbLine
 10
754.00398087931399
 20
-2601.8193758026441
 11
750.50398087931399
 21
-2601.8193758026441
  0
LINE
  5
156
100
AcDbEntity
  8
1
  6
CONTINUOUS
 62
             7
100
AcDbLine
 10
750.50398087931399
 20
-2601.8193758026441
 11
750.70398087931392
 21
-2601.3193758026441
  0
LINE
  5
155
100
AcDbEntity
  8
1
  6
CONTINUOUS
 62
             7
100
AcDbLine
 10
754.00398087931399
 20
-2601.8193758026441
 11
753.80398087931405
 21
-2601.3193758026441
  0
LINE
  5
154
100
AcDbEntity
  8
1
  6
CONTINUOUS
 62
             7
100
AcDbLine
 10
750.50398087931399
 20
-2587.8193758026441
 11
750.70398087931392
 21
-2588.3193758026441
  0
LINE
  5
153
100
AcDbEntity
  8
1
  6
CONTINUOUS
 62
             7
100
AcDbLine
 10
753.80398087931405
 20
-2588.3193758026441
 11
754.00398087931399
 21
-2587.8193758026441
  0
LINE
  5
152
100
AcDbEntity
  8
1
  6
CONTINUOUS
 62
             7
100
AcDbLine
 10
747.50398087931387
 20
-2557.5288365817828
 11
740.19525467609333
 21
-2557.6564108722032
  0
LINE
  5
151
100
AcDbEntity
  8
1
  6
CONTINUOUS
 62
             7
100
AcDbLine
 10
747.50398087931387
 20
-2557.5288365817828
 11
759.50398087931399
 21
-2557.3193758026441
  0
LINE
  5
150
100
AcDbEntity
  8
1
  6
CONTINUOUS
 62
             7
100
AcDbLine
 10
748.50398087931387
 20
-2568.8193758026432
 11
748.5039808793141
 21
-2624.2193758026442
  0
LINE
  5
14F
100
AcDbEntity
  8
1
  6
CONTINUOUS
 62
             7
100
AcDbLine
 10
740.11715679048064
 20
-2567.340552433327
 11
748.50398087931387
 21
-2568.8193758026432
  0
LINE
  5
14E
100
AcDbEntity
  8
1
  6
CONTINUOUS
 62
             7
100
AcDbLine
 10
755.20398087931403
 20
-2632.244319023453
 11
750.20398087931403
 21
-2632.1570436988109
  0
LINE
  5
14D
100
AcDbEntity
  8
1
  6
CONTINUOUS
 62
             7
100
AcDbLine
 10
759.50398087931399
 20
-2632.3193758026441
 11
755.20398087931403
 21
-2632.244319023453
  0
LINE
  5
14C
100
AcDbEntity
  8
1
  6
CONTINUOUS
 62
             7
100
AcDbLine
 10
740.11715679048064
 20
-2567.340552433327
 11
748.50398087931387
 21
-2568.8193758026432
  0
LINE
  5
14B
100
AcDbEntity
  8
1
  6
CONTINUOUS
 62
             7
100
AcDbLine
 10
748.50398087931387
 20
-2568.8193758026432
 11
748.50398087931387
 21
-2568.8193758026432
  0
LINE
  5
14A
100
AcDbEntity
  8
1
  6
CONTINUOUS
 62
             7
100
AcDbLine
 10
748.5039808793141
 20
-2624.2193758026442
 11
747.33297080765124
 21
-2624.645588612756
  0
LINE
  5
149
100
AcDbEntity
  8
1
  6
CONTINUOUS
 62
             7
100
AcDbLine
 10
747.00398087931444
 20
-2625.1154349231492
 11
747.00398087931433
 21
-2625.6166733720238
  0
LINE
  5
148
100
AcDbEntity
  8
1
  6
CONTINUOUS
 62
             7
100
AcDbLine
 10
747.00398087931433
 20
-2625.6166733720238
 11
747.00398087931399
 21
-2630.7193758026442
  0
LINE
  5
147
100
AcDbEntity
  8
1
  6
CONTINUOUS
 62
             7
100
AcDbLine
 10
747.00398087931399
 20
-2630.7193758026442
 11
747.00398087931399
 21
-2631.609838859667
  0
LINE
  5
146
100
AcDbEntity
  8
1
  6
CONTINUOUS
 62
             7
100
AcDbLine
 10
750.20398087931403
 20
-2632.1570436988109
 11
747.49525467609612
 21
-2632.109762707245
  0
LINE
  5
145
100
AcDbEntity
  8
1
  6
CONTINUOUS
 62
             7
100
AcDbLine
 10
739.70395671246581
 20
-2558.1563347198489
 11
739.70398087931608
 21
-2566.8481499470281
  0
LINE
  5
144
100
AcDbEntity
  8
1
  6
CONTINUOUS
 62
             7
100
AcDbLine
 10
739.7039808793121
 20
-2566.8481485568209
 11
739.70398087931233
 21
-2558.1563347197812
  0
LINE
  5
143
100
AcDbEntity
  8
1
  6
CONTINUOUS
 62
             7
100
AcDbLine
 10
752.00398087931399
 20
-2601.3193758026441
 11
752.00398087931399
 21
-2588.3193758026441
  0
LINE
  5
142
100
AcDbEntity
  8
1
  6
CONTINUOUS
 62
             7
100
AcDbLine
 10
707.86472001159643
 20
-2572.3193758026441
 11
707.86472001159643
 21
-2620.7193758026442
  0
LINE
  5
141
100
AcDbEntity
  8
1
  6
CONTINUOUS
 62
             7
100
AcDbLine
 10
687.36472001159643
 20
-2620.7193758026442
 11
687.36472001159643
 21
-2572.3193758026441
  0
LINE
  5
140
100
AcDbEntity
  8
1
  6
CONTINUOUS
 62
             7
100
AcDbLine
 10
686.36472001159655
 20
-2624.7653311540439
 11
686.36472001159643
 21
-2632.3193758026441
  0
LINE
  5
13F
100
AcDbEntity
  8
1
  6
CONTINUOUS
 62
             7
100
AcDbLine
 10
708.86472001159655
 20
-2624.7653311540439
 11
708.86472001159655
 21
-2567.8193758026441
  0
LINE
  5
13E
100
AcDbEntity
  8
1
  6
CONTINUOUS
 62
             7
100
AcDbLine
 10
686.36472001159655
 20
-2624.7653311540439
 11
708.86472001159655
 21
-2624.7653311540439
  0
LINE
  5
13D
100
AcDbEntity
  8
1
  6
CONTINUOUS
 62
             7
100
AcDbLine
 10
688.06472001159648
 20
-2625.6166733720238
 11
688.06472001159648
 21
-2630.7193758026442
  0
LINE
  5
13C
100
AcDbEntity
  8
1
  6
CONTINUOUS
 62
             7
100
AcDbLine
 10
688.06472001159648
 20
-2625.6166733720238
 11
707.16472001159639
 21
-2625.6166733720238
  0
LINE
  5
13B
100
AcDbEntity
  8
1
  6
CONTINUOUS
 62
             7
100
AcDbLine
 10
687.21472001159657
 20
-2557.3193758026441
 11
708.01472001159607
 21
-2557.3193758026441
  0
LINE
  5
13A
100
AcDbEntity
  8
1
  6
CONTINUOUS
 62
             7
100
AcDbLine
 10
708.86472001159643
 20
-2566.967942505205
 11
708.86472001159655
 21
-2557.3193758026441
  0
LINE
  5
139
100
AcDbEntity
  8
1
  6
CONTINUOUS
 62
             7
100
AcDbLine
 10
686.36472001159655
 20
-2566.967942505205
 11
686.36472001159655
 21
-2567.8193758026441
  0
LINE
  5
138
100
AcDbEntity
  8
1
  6
CONTINUOUS
 62
             7
100
AcDbLine
 10
686.36472001159643
 20
-2567.2676983724091
 11
708.86472001159643
 21
-2567.2676983724091
  0
LINE
  5
137
100
AcDbEntity
  8
1
  6
CONTINUOUS
 62
             7
100
AcDbLine
 10
687.91472001159696
 20
-2565.1193758026429
 11
687.91472001159696
 21
-2563.4160219582841
  0
LINE
  5
136
100
AcDbEntity
  8
1
  6
CONTINUOUS
 62
             7
100
AcDbLine
 10
687.91472001159696
 20
-2565.1193758026429
 11
707.31472001159625
 21
-2565.1193758026429
  0
LINE
  5
135
100
AcDbEntity
  8
1
  6
CONTINUOUS
 62
             7
100
AcDbLine
 10
694.96472001159657
 20
-2623.3693758026438
 11
696.46472001159657
 21
-2623.3693758026438
  0
LINE
  5
134
100
AcDbEntity
  8
1
  6
CONTINUOUS
 62
             7
100
AcDbLine
 10
696.46472001159657
 20
-2621.6693758026449
 11
694.96472001159646
 21
-2621.6693758026449
  0
LINE
  5
133
100
AcDbEntity
  8
1
  6
CONTINUOUS
 62
             7
100
AcDbLine
 10
696.46472001159657
 20
-2623.3693758026438
 11
696.46472001159657
 21
-2621.6693758026449
  0
LINE
  5
132
100
AcDbEntity
  8
1
  6
CONTINUOUS
 62
             7
100
AcDbLine
 10
694.96472001159646
 20
-2621.6693758026449
 11
694.96472001159657
 21
-2623.3693758026438
  0
LINE
  5
131
100
AcDbEntity
  8
1
  6
CONTINUOUS
 62
             7
100
AcDbLine
 10
691.1647200115965
 20
-2623.3693758026438
 11
691.16472001159639
 21
-2621.6693758026449
  0
LINE
  5
130
100
AcDbEntity
  8
1
  6
CONTINUOUS
 62
             7
100
AcDbLine
 10
691.16472001159639
 20
-2621.6693758026449
 11
692.66472001159639
 21
-2621.6693758026449
  0
LINE
  5
12F
100
AcDbEntity
  8
1
  6
CONTINUOUS
 62
             7
100
AcDbLine
 10
708.86472001159643
 20
-2624.2193758026442
 11
697.61472001159655
 21
-2624.2193758026442
  0
LINE
  5
12E
100
AcDbEntity
  8
1
  6
CONTINUOUS
 62
             7
100
AcDbLine
 10
707.16472001159639
 20
-2630.7193758026442
 11
707.16472001159639
 21
-2625.6166733720238
  0
LINE
  5
12D
100
AcDbEntity
  8
1
  6
CONTINUOUS
 62
             7
100
AcDbLine
 10
697.61472001159655
 20
-2632.3193758026441
 11
708.86472001159643
 21
-2632.3193758026441
  0
LINE
  5
12C
100
AcDbEntity
  8
1
  6
CONTINUOUS
 62
             7
100
AcDbLine
 10
697.61472001159643
 20
-2630.7193758026442
 11
707.16472001159639
 21
-2630.7193758026442
  0
LINE
  5
12B
100
AcDbEntity
  8
1
  6
CONTINUOUS
 62
             7
100
AcDbLine
 10
686.36472001159643
 20
-2624.2193758026442
 11
686.36472001159655
 21
-2624.7653311540439
  0
LINE
  5
12A
100
AcDbEntity
  8
1
  6
CONTINUOUS
 62
             7
100
AcDbLine
 10
697.61472001159655
 20
-2624.2193758026442
 11
686.36472001159643
 21
-2624.2193758026442
  0
LINE
  5
129
100
AcDbEntity
  8
1
  6
CONTINUOUS
 62
             7
100
AcDbLine
 10
686.36472001159643
 20
-2632.3193758026441
 11
697.61472001159655
 21
-2632.3193758026441
  0
LINE
  5
128
100
AcDbEntity
  8
1
  6
CONTINUOUS
 62
             7
100
AcDbLine
 10
688.06472001159648
 20
-2630.7193758026442
 11
697.61472001159643
 21
-2630.7193758026442
  0
LINE
  5
127
100
AcDbEntity
  8
1
  6
CONTINUOUS
 62
             7
100
AcDbLine
 10
686.36472001159655
 20
-2567.8193758026441
 11
686.36472001159643
 21
-2624.2193758026442
  0
LINE
  5
126
100
AcDbEntity
  8
1
  6
CONTINUOUS
 62
             7
100
AcDbLine
 10
687.21472001159668
 20
-2568.8193758026441
 11
686.36472001159655
 21
-2568.8193758026441
  0
LINE
  5
125
100
AcDbEntity
  8
1
  6
CONTINUOUS
 62
             7
100
AcDbLine
 10
708.86472001159655
 20
-2567.8193758026441
 11
708.86472001159643
 21
-2566.967942505205
  0
LINE
  5
124
100
AcDbEntity
  8
1
  6
CONTINUOUS
 62
             7
100
AcDbLine
 10
708.01472001159607
 20
-2568.8193758026441
 11
708.86472001159643
 21
-2568.8193758026441
  0
LINE
  5
123
100
AcDbEntity
  8
1
  6
CONTINUOUS
 62
             7
100
AcDbLine
 10
687.21472001159668
 20
-2568.8193758026441
 11
708.01472001159607
 21
-2568.8193758026441
  0
LINE
  5
122
100
AcDbEntity
  8
1
  6
CONTINUOUS
 62
             7
100
AcDbLine
 10
708.01472001159607
 20
-2557.3193758026441
 11
708.86472001159655
 21
-2557.3193758026441
  0
LINE
  5
121
100
AcDbEntity
  8
1
  6
CONTINUOUS
 62
             7
100
AcDbLine
 10
687.2147200115968
 20
-2559.1193758026438
 11
687.91472001159707
 21
-2559.1193758026438
  0
LINE
  5
120
100
AcDbEntity
  8
1
  6
CONTINUOUS
 62
             7
100
AcDbLine
 10
687.2147200115968
 20
-2559.1193758026438
 11
687.21472001159657
 21
-2557.3193758026441
  0
LINE
  5
11F
100
AcDbEntity
  8
1
  6
CONTINUOUS
 62
             7
100
AcDbLine
 10
708.01472001159607
 20
-2557.3193758026441
 11
708.01472001159607
 21
-2559.1193758026438
  0
LINE
  5
11E
100
AcDbEntity
  8
1
  6
CONTINUOUS
 62
             7
100
AcDbLine
 10
707.31472001159614
 20
-2559.1193758026438
 11
707.31472001159625
 21
-2565.1193758026429
  0
LINE
  5
11D
100
AcDbEntity
  8
1
  6
CONTINUOUS
 62
             7
100
AcDbLine
 10
707.31472001159614
 20
-2559.1193758026438
 11
708.01472001159607
 21
-2559.1193758026438
  0
LINE
  5
11C
100
AcDbEntity
  8
1
  6
CONTINUOUS
 62
             7
100
AcDbLine
 10
689.11472001159643
 20
-2579.4193758026449
 11
689.11472001159643
 21
-2581.0193758026439
  0
LINE
  5
11B
100
AcDbEntity
  8
1
  6
CONTINUOUS
 62
             7
100
AcDbLine
 10
689.11472001159643
 20
-2581.0193758026439
 11
691.11472001159655
 21
-2581.0193758026439
  0
LINE
  5
11A
100
AcDbEntity
  8
1
  6
CONTINUOUS
 62
             7
100
AcDbLine
 10
691.11472001159655
 20
-2579.4193758026449
 11
689.11472001159643
 21
-2579.4193758026449
  0
LINE
  5
119
100
AcDbEntity
  8
1
  6
CONTINUOUS
 62
             7
100
AcDbLine
 10
691.11472001159655
 20
-2581.0193758026439
 11
691.11472001159655
 21
-2579.4193758026449
  0
LINE
  5
118
100
AcDbEntity
  8
1
  6
CONTINUOUS
 62
             7
100
AcDbLine
 10
701.11472001159655
 20
-2581.0193758026439
 11
699.11472001159643
 21
-2581.0193758026439
  0
LINE
  5
117
100
AcDbEntity
  8
1
  6
CONTINUOUS
 62
             7
100
AcDbLine
 10
699.11472001159643
 20
-2581.0193758026439
 11
699.11472001159643
 21
-2579.4193758026449
  0
LINE
  5
116
100
AcDbEntity
  8
1
  6
CONTINUOUS
 62
             7
100
AcDbLine
 10
699.11472001159643
 20
-2579.4193758026449
 11
701.11472001159655
 21
-2579.4193758026449
  0
LINE
  5
115
100
AcDbEntity
  8
1
  6
CONTINUOUS
 62
             7
100
AcDbLine
 10
701.11472001159655
 20
-2579.4193758026449
 11
701.11472001159655
 21
-2581.0193758026439
  0
LINE
  5
114
100
AcDbEntity
  8
1
  6
CONTINUOUS
 62
             7
100
AcDbLine
 10
704.11472001159643
 20
-2579.4193758026449
 11
704.11472001159643
 21
-2581.0193758026439
  0
LINE
  5
113
100
AcDbEntity
  8
1
  6
CONTINUOUS
 62
             7
100
AcDbLine
 10
704.11472001159643
 20
-2581.0193758026439
 11
706.11472001159655
 21
-2581.0193758026439
  0
LINE
  5
112
100
AcDbEntity
  8
1
  6
CONTINUOUS
 62
             7
100
AcDbLine
 10
706.11472001159655
 20
-2581.0193758026439
 11
706.11472001159655
 21
-2579.4193758026449
  0
LINE
  5
111
100
AcDbEntity
  8
1
  6
CONTINUOUS
 62
             7
100
AcDbLine
 10
706.11472001159655
 20
-2579.4193758026449
 11
704.11472001159643
 21
-2579.4193758026449
  0
LINE
  5
110
100
AcDbEntity
  8
1
  6
CONTINUOUS
 62
             7
100
AcDbLine
 10
705.11472001159655
 20
-2571.8193758026441
 11
707.36472001159643
 21
-2571.8193758026441
  0
LINE
  5
10F
100
AcDbEntity
  8
1
  6
CONTINUOUS
 62
             7
100
AcDbLine
 10
686.36472001159655
 20
-2557.3193758026441
 11
687.21472001159657
 21
-2557.3193758026441
  0
LINE
  5
10E
100
AcDbEntity
  8
1
  6
CONTINUOUS
 62
             7
100
AcDbLine
 10
687.86472001159655
 20
-2571.8193758026441
 11
705.11472001159655
 21
-2571.8193758026441
  0
LINE
  5
10D
100
AcDbEntity
  8
1
  6
CONTINUOUS
 62
             7
100
AcDbLine
 10
708.86472001159643
 20
-2632.3193758026441
 11
708.86472001159655
 21
-2624.7653311540439
  0
LINE
  5
10C
100
AcDbEntity
  8
1
  6
CONTINUOUS
 62
             7
100
AcDbLine
 10
686.36472001159655
 20
-2557.3193758026441
 11
686.36472001159655
 21
-2566.967942505205
  0
LINE
  5
10B
100
AcDbEntity
  8
1
  6
CONTINUOUS
 62
             7
100
AcDbLine
 10
707.36472001159655
 20
-2621.2193758026442
 11
687.86472001159643
 21
-2621.2193758026442
  0
LINE
  5
10A
100
AcDbEntity
  8
1
  6
CONTINUOUS
 62
             7
100
AcDbLine
 10
704.6647200115965
 20
-2583.5693758026441
 11
703.4511161146645
 21
-2583.5693758026441
  0
LINE
  5
109
100
AcDbEntity
  8
1
  6
CONTINUOUS
 62
             7
100
AcDbLine
 10
704.6647200115965
 20
-2584.4693758026442
 11
703.74756272407114
 21
-2584.4693758026442
  0
LINE
  5
108
100
AcDbEntity
  8
1
  6
CONTINUOUS
 62
             7
100
AcDbLine
 10
704.6647200115965
 20
-2586.8693758026429
 11
705.58187729912186
 21
-2586.8693758026429
  0
LINE
  5
107
100
AcDbEntity
  8
1
  6
CONTINUOUS
 62
             7
100
AcDbLine
 10
703.51472001159652
 20
-2585.6693758026449
 11
703.51472001159641
 21
-2584.8022185151181
  0
LINE
  5
106
100
AcDbEntity
  8
1
  6
CONTINUOUS
 62
             7
100
AcDbLine
 10
703.0414967068931
 20
-2584.328995210416
 11
703.51472001159641
 21
-2584.8022185151181
  0
LINE
  5
105
100
AcDbEntity
  8
1
  6
CONTINUOUS
 62
             7
100
AcDbLine
 10
702.61472001159655
 20
-2584.5057719057122
 11
702.61472001159655
 21
-2585.6693758026449
  0
LINE
  5
104
100
AcDbEntity
  8
1
  6
CONTINUOUS
 62
             7
100
AcDbLine
 10
703.27433941936772
 20
-2583.9961524979399
 11
703.74756272407114
 21
-2584.4693758026442
  0
LINE
  5
103
100
AcDbEntity
  8
1
  6
CONTINUOUS
 62
             7
100
AcDbLine
 10
703.51472001159641
 20
-2586.53653309017
 11
703.51472001159652
 21
-2585.6693758026449
  0
LINE
  5
102
100
AcDbEntity
  8
1
  6
CONTINUOUS
 62
             7
100
AcDbLine
 10
703.51472001159641
 20
-2586.53653309017
 11
703.19149670689308
 21
-2586.859756394872
  0
LINE
  5
101
100
AcDbEntity
  8
1
  6
CONTINUOUS
 62
             7
100
AcDbLine
 10
702.61472001159655
 20
-2585.6693758026449
 11
702.61472001159655
 21
-2586.6365330901699
  0
LINE
  5
100
100
AcDbEntity
  8
1
  6
CONTINUOUS
 62
             7
100
AcDbLine
 10
703.51472001159641
 20
-2589.8365330901688
 11
703.51472001159641
 21
-2588.9693758026442
  0
LINE
  5
FF
100
AcDbEntity
  8
1
  6
CONTINUOUS
 62
             7
100
AcDbLine
 10
702.61472001159655
 20
-2588.9693758026442
 11
702.61472001159655
 21
-2590.1329796995769
  0
LINE
  5
FE
100
AcDbEntity
  8
1
  6
CONTINUOUS
 62
             7
100
AcDbLine
 10
703.51472001159641
 20
-2589.8365330901688
 11
703.0414967068931
 21
-2590.3097563948731
  0
LINE
  5
FD
100
AcDbEntity
  8
1
  6
CONTINUOUS
 62
             7
100
AcDbLine
 10
705.81472001159648
 20
-2584.8022185151181
 11
706.28794331629979
 21
-2584.328995210416
  0
LINE
  5
FC
100
AcDbEntity
  8
1
  6
CONTINUOUS
 62
             7
100
AcDbLine
 10
705.81472001159648
 20
-2584.8022185151181
 11
705.81472001159636
 21
-2585.6693758026449
  0
LINE
  5
FB
100
AcDbEntity
  8
1
  6
CONTINUOUS
 62
             7
100
AcDbLine
 10
706.71472001159646
 20
-2585.6693758026449
 11
706.71472001159646
 21
-2584.5057719057122
  0
LINE
  5
FA
100
AcDbEntity
  8
1
  6
CONTINUOUS
 62
             7
100
AcDbLine
 10
705.58187729912186
 20
-2584.4693758026442
 11
704.6647200115965
 21
-2584.4693758026442
  0
LINE
  5
F9
100
AcDbEntity
  8
1
  6
CONTINUOUS
 62
             7
100
AcDbLine
 10
705.58187729912186
 20
-2584.4693758026442
 11
706.05510060382528
 21
-2583.9961524979399
  0
LINE
  5
F8
100
AcDbEntity
  8
1
  6
CONTINUOUS
 62
             7
100
AcDbLine
 10
705.87832390852839
 20
-2583.5693758026441
 11
704.6647200115965
 21
-2583.5693758026441
  0
LINE
  5
F7
100
AcDbEntity
  8
1
  6
CONTINUOUS
 62
             7
100
AcDbLine
 10
705.81472001159648
 20
-2588.9693758026442
 11
705.81472001159636
 21
-2589.8365330901688
  0
LINE
  5
F6
100
AcDbEntity
  8
1
  6
CONTINUOUS
 62
             7
100
AcDbLine
 10
706.28794331629979
 20
-2590.3097563948731
 11
705.81472001159636
 21
-2589.8365330901688
  0
LINE
  5
F5
100
AcDbEntity
  8
1
  6
CONTINUOUS
 62
             7
100
AcDbLine
 10
706.71472001159646
 20
-2590.1329796995769
 11
706.71472001159634
 21
-2588.9693758026442
  0
LINE
  5
F4
100
AcDbEntity
  8
1
  6
CONTINUOUS
 62
             7
100
AcDbLine
 10
704.6647200115965
 20
-2590.1693758026449
 11
705.58187729912186
 21
-2590.1693758026449
  0
LINE
  5
F3
100
AcDbEntity
  8
1
  6
CONTINUOUS
 62
             7
100
AcDbLine
 10
703.74756272407103
 20
-2590.1693758026449
 11
704.6647200115965
 21
-2590.1693758026449
  0
LINE
  5
F2
100
AcDbEntity
  8
1
  6
CONTINUOUS
 62
             7
100
AcDbLine
 10
703.74756272407103
 20
-2590.1693758026449
 11
703.27433941936783
 21
-2590.6425991073479
  0
LINE
  5
F1
100
AcDbEntity
  8
1
  6
CONTINUOUS
 62
             7
100
AcDbLine
 10
703.45111611466439
 20
-2591.0693758026441
 11
704.66472001159639
 21
-2591.0693758026441
  0
LINE
  5
F0
100
AcDbEntity
  8
1
  6
CONTINUOUS
 62
             7
100
AcDbLine
 10
704.66472001159639
 20
-2591.0693758026441
 11
705.8783239085285
 21
-2591.0693758026441
  0
LINE
  5
EF
100
AcDbEntity
  8
1
  6
CONTINUOUS
 62
             7
100
AcDbLine
 10
706.05510060382528
 20
-2590.6425991073479
 11
705.58187729912186
 21
-2590.1693758026449
  0
LINE
  5
EE
100
AcDbEntity
  8
1
  6
CONTINUOUS
 62
             7
100
AcDbLine
 10
705.58187729912186
 20
-2587.7693758026439
 11
704.6647200115965
 21
-2587.7693758026439
  0
LINE
  5
ED
100
AcDbEntity
  8
1
  6
CONTINUOUS
 62
             7
100
AcDbLine
 10
705.85510060382524
 20
-2587.1425991073479
 11
705.58187729912186
 21
-2586.8693758026429
  0
LINE
  5
EC
100
AcDbEntity
  8
1
  6
CONTINUOUS
 62
             7
100
AcDbLine
 10
705.85510060382524
 20
-2587.4961524979399
 11
705.58187729912186
 21
-2587.7693758026439
  0
LINE
  5
EB
100
AcDbEntity
  8
1
  6
CONTINUOUS
 62
             7
100
AcDbLine
 10
703.74756272407103
 20
-2586.8693758026429
 11
704.6647200115965
 21
-2586.8693758026429
  0
LINE
  5
EA
100
AcDbEntity
  8
1
  6
CONTINUOUS
 62
             7
100
AcDbLine
 10
704.6647200115965
 20
-2587.7693758026439
 11
703.74756272407114
 21
-2587.7693758026439
  0
LINE
  5
E9
100
AcDbEntity
  8
1
  6
CONTINUOUS
 62
             7
100
AcDbLine
 10
703.74756272407114
 20
-2587.7693758026439
 11
703.47433941936765
 21
-2587.4961524979399
  0
LINE
  5
E8
100
AcDbEntity
  8
1
  6
CONTINUOUS
 62
             7
100
AcDbLine
 10
703.74756272407103
 20
-2586.8693758026429
 11
703.47433941936765
 21
-2587.1425991073479
  0
LINE
  5
E7
100
AcDbEntity
  8
1
  6
CONTINUOUS
 62
             7
100
AcDbLine
 10
702.83794331629986
 20
-2586.859756394872
 11
702.61472001159655
 21
-2586.6365330901699
  0
LINE
  5
E6
100
AcDbEntity
  8
1
  6
CONTINUOUS
 62
             7
100
AcDbLine
 10
706.13794331629981
 20
-2586.859756394872
 11
705.81472001159636
 21
-2586.53653309017
  0
LINE
  5
E5
100
AcDbEntity
  8
1
  6
CONTINUOUS
 62
             7
100
AcDbLine
 10
705.81472001159636
 20
-2585.6693758026449
 11
705.81472001159636
 21
-2586.53653309017
  0
LINE
  5
E4
100
AcDbEntity
  8
1
  6
CONTINUOUS
 62
             7
100
AcDbLine
 10
706.71472001159634
 20
-2586.6365330901699
 11
706.49149670689314
 21
-2586.859756394872
  0
LINE
  5
E3
100
AcDbEntity
  8
1
  6
CONTINUOUS
 62
             7
100
AcDbLine
 10
706.71472001159634
 20
-2586.6365330901699
 11
706.71472001159646
 21
-2585.6693758026449
  0
LINE
  5
E2
100
AcDbEntity
  8
1
  6
CONTINUOUS
 62
             7
100
AcDbLine
 10
705.81472001159636
 20
-2588.1022185151191
 11
706.13794331629981
 21
-2587.7789952104149
  0
LINE
  5
E1
100
AcDbEntity
  8
1
  6
CONTINUOUS
 62
             7
100
AcDbLine
 10
705.81472001159636
 20
-2588.1022185151191
 11
705.81472001159648
 21
-2588.9693758026442
  0
LINE
  5
E0
100
AcDbEntity
  8
1
  6
CONTINUOUS
 62
             7
100
AcDbLine
 10
706.71472001159634
 20
-2588.9693758026442
 11
706.71472001159646
 21
-2588.0022185151179
  0
LINE
  5
DF
100
AcDbEntity
  8
1
  6
CONTINUOUS
 62
             7
100
AcDbLine
 10
706.49149670689314
 20
-2587.7789952104149
 11
706.71472001159646
 21
-2588.0022185151179
  0
LINE
  5
DE
100
AcDbEntity
  8
1
  6
CONTINUOUS
 62
             7
100
AcDbLine
 10
703.19149670689296
 20
-2587.7789952104149
 11
703.51472001159641
 21
-2588.1022185151191
  0
LINE
  5
DD
100
AcDbEntity
  8
1
  6
CONTINUOUS
 62
             7
100
AcDbLine
 10
703.51472001159641
 20
-2588.9693758026442
 11
703.51472001159641
 21
-2588.1022185151191
  0
LINE
  5
DC
100
AcDbEntity
  8
1
  6
CONTINUOUS
 62
             7
100
AcDbLine
 10
702.61472001159655
 20
-2588.0022185151179
 11
702.83794331629974
 21
-2587.7789952104149
  0
LINE
  5
DB
100
AcDbEntity
  8
1
  6
CONTINUOUS
 62
             7
100
AcDbLine
 10
702.61472001159655
 20
-2588.0022185151179
 11
702.61472001159655
 21
-2588.9693758026442
  0
LINE
  5
DA
100
AcDbEntity
  8
1
  6
CONTINUOUS
 62
             7
100
AcDbLine
 10
697.9147200115965
 20
-2588.0022185151179
 11
697.9147200115965
 21
-2588.9693758026442
  0
LINE
  5
D9
100
AcDbEntity
  8
1
  6
CONTINUOUS
 62
             7
100
AcDbLine
 10
697.9147200115965
 20
-2588.0022185151179
 11
698.1379433162997
 21
-2587.7789952104149
  0
LINE
  5
D8
100
AcDbEntity
  8
1
  6
CONTINUOUS
 62
             7
100
AcDbLine
 10
698.81472001159659
 20
-2588.9693758026442
 11
698.81472001159659
 21
-2588.1022185151191
  0
LINE
  5
D7
100
AcDbEntity
  8
1
  6
CONTINUOUS
 62
             7
100
AcDbLine
 10
698.49149670689314
 20
-2587.7789952104149
 11
698.81472001159659
 21
-2588.1022185151191
  0
LINE
  5
D6
100
AcDbEntity
  8
1
  6
CONTINUOUS
 62
             7
100
AcDbLine
 10
701.7914967068931
 20
-2587.7789952104149
 11
702.01472001159618
 21
-2588.0022185151179
  0
LINE
  5
D5
100
AcDbEntity
  8
1
  6
CONTINUOUS
 62
             7
100
AcDbLine
 10
702.01472001159652
 20
-2588.9693758026442
 11
702.01472001159618
 21
-2588.0022185151179
  0
LINE
  5
D4
100
AcDbEntity
  8
1
  6
CONTINUOUS
 62
             7
100
AcDbLine
 10
701.11472001159632
 20
-2588.1022185151191
 11
701.11472001159643
 21
-2588.9693758026442
  0
LINE
  5
D3
100
AcDbEntity
  8
1
  6
CONTINUOUS
 62
             7
100
AcDbLine
 10
701.11472001159632
 20
-2588.1022185151191
 11
701.43794331629988
 21
-2587.7789952104149
  0
LINE
  5
D2
100
AcDbEntity
  8
1
  6
CONTINUOUS
 62
             7
100
AcDbLine
 10
702.0147200115963
 20
-2586.6365330901699
 11
702.01472001159652
 21
-2585.6693758026449
  0
LINE
  5
D1
100
AcDbEntity
  8
1
  6
CONTINUOUS
 62
             7
100
AcDbLine
 10
702.0147200115963
 20
-2586.6365330901699
 11
701.7914967068931
 21
-2586.859756394872
  0
LINE
  5
D0
100
AcDbEntity
  8
1
  6
CONTINUOUS
 62
             7
100
AcDbLine
 10
701.11472001159643
 20
-2585.6693758026449
 11
701.11472001159643
 21
-2586.53653309017
  0
LINE
  5
CF
100
AcDbEntity
  8
1
  6
CONTINUOUS
 62
             7
100
AcDbLine
 10
701.43794331629988
 20
-2586.859756394872
 11
701.11472001159643
 21
-2586.53653309017
  0
LINE
  5
CE
100
AcDbEntity
  8
1
  6
CONTINUOUS
 62
             7
100
AcDbLine
 10
698.1379433162997
 20
-2586.859756394872
 11
697.9147200115965
 21
-2586.6365330901699
  0
LINE
  5
CD
100
AcDbEntity
  8
1
  6
CONTINUOUS
 62
             7
100
AcDbLine
 10
699.0475627240711
 20
-2586.8693758026429
 11
698.77433941936761
 21
-2587.1425991073479
  0
LINE
  5
CC
100
AcDbEntity
  8
1
  6
CONTINUOUS
 62
             7
100
AcDbLine
 10
699.04756272407099
 20
-2587.7693758026439
 11
698.77433941936761
 21
-2587.4961524979399
  0
LINE
  5
CB
100
AcDbEntity
  8
1
  6
CONTINUOUS
 62
             7
100
AcDbLine
 10
699.96472001159657
 20
-2587.7693758026439
 11
699.04756272407099
 21
-2587.7693758026439
  0
LINE
  5
CA
100
AcDbEntity
  8
1
  6
CONTINUOUS
 62
             7
100
AcDbLine
 10
699.0475627240711
 20
-2586.8693758026429
 11
699.96472001159646
 21
-2586.8693758026429
  0
LINE
  5
C9
100
AcDbEntity
  8
1
  6
CONTINUOUS
 62
             7
100
AcDbLine
 10
701.15510060382519
 20
-2587.4961524979399
 11
700.88187729912181
 21
-2587.7693758026439
  0
LINE
  5
C8
100
AcDbEntity
  8
1
  6
CONTINUOUS
 62
             7
100
AcDbLine
 10
701.15510060382519
 20
-2587.1425991073479
 11
700.88187729912181
 21
-2586.8693758026429
  0
LINE
  5
C7
100
AcDbEntity
  8
1
  6
CONTINUOUS
 62
             7
100
AcDbLine
 10
700.88187729912181
 20
-2587.7693758026439
 11
699.96472001159657
 21
-2587.7693758026439
  0
LINE
  5
C6
100
AcDbEntity
  8
1
  6
CONTINUOUS
 62
             7
100
AcDbLine
 10
701.35510060382524
 20
-2590.6425991073479
 11
700.8818772991217
 21
-2590.1693758026449
  0
LINE
  5
C5
100
AcDbEntity
  8
1
  6
CONTINUOUS
 62
             7
100
AcDbLine
 10
699.96472001159657
 20
-2591.0693758026441
 11
701.17832390852857
 21
-2591.0693758026441
  0
LINE
  5
C4
100
AcDbEntity
  8
1
  6
CONTINUOUS
 62
             7
100
AcDbLine
 10
698.75111611466446
 20
-2591.0693758026441
 11
699.96472001159657
 21
-2591.0693758026441
  0
LINE
  5
C3
100
AcDbEntity
  8
1
  6
CONTINUOUS
 62
             7
100
AcDbLine
 10
699.0475627240711
 20
-2590.1693758026449
 11
698.57433941936779
 21
-2590.6425991073479
  0
LINE
  5
C2
100
AcDbEntity
  8
1
  6
CONTINUOUS
 62
             7
100
AcDbLine
 10
699.0475627240711
 20
-2590.1693758026449
 11
699.96472001159657
 21
-2590.1693758026449
  0
LINE
  5
C1
100
AcDbEntity
  8
1
  6
CONTINUOUS
 62
             7
100
AcDbLine
 10
699.96472001159657
 20
-2590.1693758026449
 11
700.8818772991217
 21
-2590.1693758026449
  0
LINE
  5
C0
100
AcDbEntity
  8
1
  6
CONTINUOUS
 62
             7
100
AcDbLine
 10
702.0147200115963
 20
-2590.1329796995769
 11
702.01472001159652
 21
-2588.9693758026442
  0
LINE
  5
BF
100
AcDbEntity
  8
1
  6
CONTINUOUS
 62
             7
100
AcDbLine
 10
701.58794331629986
 20
-2590.3097563948731
 11
701.11472001159632
 21
-2589.8365330901688
  0
LINE
  5
BE
100
AcDbEntity
  8
1
  6
CONTINUOUS
 62
             7
100
AcDbLine
 10
701.11472001159643
 20
-2588.9693758026442
 11
701.11472001159632
 21
-2589.8365330901688
  0
LINE
  5
BD
100
AcDbEntity
  8
1
  6
CONTINUOUS
 62
             7
100
AcDbLine
 10
701.17832390852857
 20
-2583.5693758026441
 11
699.96472001159657
 21
-2583.5693758026441
  0
LINE
  5
BC
100
AcDbEntity
  8
1
  6
CONTINUOUS
 62
             7
100
AcDbLine
 10
700.8818772991217
 20
-2584.4693758026442
 11
701.35510060382524
 21
-2583.9961524979399
  0
LINE
  5
BB
100
AcDbEntity
  8
1
  6
CONTINUOUS
 62
             7
100
AcDbLine
 10
700.8818772991217
 20
-2584.4693758026442
 11
699.96472001159657
 21
-2584.4693758026442
  0
LINE
  5
BA
100
AcDbEntity
  8
1
  6
CONTINUOUS
 62
             7
100
AcDbLine
 10
702.01472001159652
 20
-2585.6693758026449
 11
702.0147200115963
 21
-2584.5057719057122
  0
LINE
  5
B9
100
AcDbEntity
  8
1
  6
CONTINUOUS
 62
             7
100
AcDbLine
 10
701.11472001159643
 20
-2584.8022185151181
 11
701.11472001159643
 21
-2585.6693758026449
  0
LINE
  5
B8
100
AcDbEntity
  8
1
  6
CONTINUOUS
 62
             7
100
AcDbLine
 10
701.11472001159643
 20
-2584.8022185151181
 11
701.58794331629974
 21
-2584.328995210416
  0
LINE
  5
B7
100
AcDbEntity
  8
1
  6
CONTINUOUS
 62
             7
100
AcDbLine
 10
698.81472001159648
 20
-2589.8365330901688
 11
698.34149670689305
 21
-2590.3097563948731
  0
LINE
  5
B6
100
AcDbEntity
  8
1
  6
CONTINUOUS
 62
             7
100
AcDbLine
 10
697.9147200115965
 20
-2588.9693758026442
 11
697.9147200115965
 21
-2590.1329796995769
  0
LINE
  5
B5
100
AcDbEntity
  8
1
  6
CONTINUOUS
 62
             7
100
AcDbLine
 10
698.81472001159648
 20
-2589.8365330901688
 11
698.81472001159659
 21
-2588.9693758026442
  0
LINE
  5
B4
100
AcDbEntity
  8
1
  6
CONTINUOUS
 62
             7
100
AcDbLine
 10
697.9147200115965
 20
-2585.6693758026449
 11
697.9147200115965
 21
-2586.6365330901699
  0
LINE
  5
B3
100
AcDbEntity
  8
1
  6
CONTINUOUS
 62
             7
100
AcDbLine
 10
698.81472001159659
 20
-2586.53653309017
 11
698.49149670689314
 21
-2586.859756394872
  0
LINE
  5
B2
100
AcDbEntity
  8
1
  6
CONTINUOUS
 62
             7
100
AcDbLine
 10
698.81472001159659
 20
-2586.53653309017
 11
698.81472001159659
 21
-2585.6693758026449
  0
LINE
  5
B1
100
AcDbEntity
  8
1
  6
CONTINUOUS
 62
             7
100
AcDbLine
 10
698.57433941936779
 20
-2583.9961524979399
 11
699.0475627240711
 21
-2584.4693758026442
  0
LINE
  5
B0
100
AcDbEntity
  8
1
  6
CONTINUOUS
 62
             7
100
AcDbLine
 10
697.9147200115965
 20
-2584.5057719057122
 11
697.9147200115965
 21
-2585.6693758026449
  0
LINE
  5
AF
100
AcDbEntity
  8
1
  6
CONTINUOUS
 62
             7
100
AcDbLine
 10
698.34149670689305
 20
-2584.328995210416
 11
698.81472001159659
 21
-2584.8022185151181
  0
LINE
  5
AE
100
AcDbEntity
  8
1
  6
CONTINUOUS
 62
             7
100
AcDbLine
 10
698.81472001159659
 20
-2585.6693758026449
 11
698.81472001159659
 21
-2584.8022185151181
  0
LINE
  5
AD
100
AcDbEntity
  8
1
  6
CONTINUOUS
 62
             7
100
AcDbLine
 10
699.96472001159646
 20
-2586.8693758026429
 11
700.88187729912181
 21
-2586.8693758026429
  0
LINE
  5
AC
100
AcDbEntity
  8
1
  6
CONTINUOUS
 62
             7
100
AcDbLine
 10
699.96472001159657
 20
-2584.4693758026442
 11
699.0475627240711
 21
-2584.4693758026442
  0
LINE
  5
AB
100
AcDbEntity
  8
1
  6
CONTINUOUS
 62
             7
100
AcDbLine
 10
699.96472001159657
 20
-2583.5693758026441
 11
698.75111611466434
 21
-2583.5693758026441
  0
LINE
  5
AA
100
AcDbEntity
  8
1
  6
CONTINUOUS
 62
             7
100
AcDbLine
 10
695.26472001159652
 20
-2583.5693758026441
 11
694.0511161146643
 21
-2583.5693758026441
  0
LINE
  5
A9
100
AcDbEntity
  8
1
  6
CONTINUOUS
 62
             7
100
AcDbLine
 10
695.26472001159652
 20
-2584.4693758026442
 11
694.34756272407128
 21
-2584.4693758026442
  0
LINE
  5
A8
100
AcDbEntity
  8
1
  6
CONTINUOUS
 62
             7
100
AcDbLine
 10
695.26472001159652
 20
-2586.8693758026429
 11
696.18187729912188
 21
-2586.8693758026429
  0
LINE
  5
A7
100
AcDbEntity
  8
1
  6
CONTINUOUS
 62
             7
100
AcDbLine
 10
694.11472001159655
 20
-2585.6693758026449
 11
694.11472001159655
 21
-2584.8022185151181
  0
LINE
  5
A6
100
AcDbEntity
  8
1
  6
CONTINUOUS
 62
             7
100
AcDbLine
 10
693.64149670689312
 20
-2584.328995210416
 11
694.11472001159655
 21
-2584.8022185151181
  0
LINE
  5
A5
100
AcDbEntity
  8
1
  6
CONTINUOUS
 62
             7
100
AcDbLine
 10
693.21472001159657
 20
-2584.5057719057122
 11
693.21472001159657
 21
-2585.6693758026449
  0
LINE
  5
A4
100
AcDbEntity
  8
1
  6
CONTINUOUS
 62
             7
100
AcDbLine
 10
693.87433941936786
 20
-2583.9961524979399
 11
694.34756272407128
 21
-2584.4693758026442
  0
LINE
  5
A3
100
AcDbEntity
  8
1
  6
CONTINUOUS
 62
             7
100
AcDbLine
 10
694.11472001159655
 20
-2586.53653309017
 11
694.11472001159655
 21
-2585.6693758026449
  0
LINE
  5
A2
100
AcDbEntity
  8
1
  6
CONTINUOUS
 62
             7
100
AcDbLine
 10
694.11472001159655
 20
-2586.53653309017
 11
693.7914967068931
 21
-2586.859756394872
  0
LINE
  5
A1
100
AcDbEntity
  8
1
  6
CONTINUOUS
 62
             7
100
AcDbLine
 10
693.21472001159657
 20
-2585.6693758026449
 11
693.21472001159657
 21
-2586.6365330901699
  0
LINE
  5
A0
100
AcDbEntity
  8
1
  6
CONTINUOUS
 62
             7
100
AcDbLine
 10
694.11472001159655
 20
-2589.8365330901688
 11
694.11472001159643
 21
-2588.9693758026442
  0
LINE
  5
9F
100
AcDbEntity
  8
1
  6
CONTINUOUS
 62
             7
100
AcDbLine
 10
693.21472001159657
 20
-2588.9693758026442
 11
693.21472001159657
 21
-2590.1329796995769
  0
LINE
  5
9E
100
AcDbEntity
  8
1
  6
CONTINUOUS
 62
             7
100
AcDbLine
 10
694.11472001159655
 20
-2589.8365330901688
 11
693.64149670689312
 21
-2590.3097563948731
  0
LINE
  5
9D
100
AcDbEntity
  8
1
  6
CONTINUOUS
 62
             7
100
AcDbLine
 10
696.41472001159639
 20
-2584.8022185151181
 11
696.88794331629981
 21
-2584.328995210416
  0
LINE
  5
9C
100
AcDbEntity
  8
1
  6
CONTINUOUS
 62
             7
100
AcDbLine
 10
696.41472001159639
 20
-2584.8022185151181
 11
696.41472001159639
 21
-2585.6693758026449
  0
LINE
  5
9B
100
AcDbEntity
  8
1
  6
CONTINUOUS
 62
             7
100
AcDbLine
 10
697.31472001159659
 20
-2585.6693758026449
 11
697.31472001159648
 21
-2584.5057719057122
  0
LINE
  5
9A
100
AcDbEntity
  8
1
  6
CONTINUOUS
 62
             7
100
AcDbLine
 10
696.18187729912188
 20
-2584.4693758026442
 11
695.26472001159652
 21
-2584.4693758026442
  0
LINE
  5
99
100
AcDbEntity
  8
1
  6
CONTINUOUS
 62
             7
100
AcDbLine
 10
696.18187729912188
 20
-2584.4693758026442
 11
696.65510060382519
 21
-2583.9961524979399
  0
LINE
  5
98
100
AcDbEntity
  8
1
  6
CONTINUOUS
 62
             7
100
AcDbLine
 10
696.47832390852852
 20
-2583.5693758026441
 11
695.26472001159652
 21
-2583.5693758026441
  0
LINE
  5
97
100
AcDbEntity
  8
1
  6
CONTINUOUS
 62
             7
100
AcDbLine
 10
696.4147200115965
 20
-2588.9693758026442
 11
696.41472001159639
 21
-2589.8365330901688
  0
LINE
  5
96
100
AcDbEntity
  8
1
  6
CONTINUOUS
 62
             7
100
AcDbLine
 10
696.88794331629981
 20
-2590.3097563948731
 11
696.41472001159639
 21
-2589.8365330901688
  0
LINE
  5
95
100
AcDbEntity
  8
1
  6
CONTINUOUS
 62
             7
100
AcDbLine
 10
697.31472001159648
 20
-2590.1329796995769
 11
697.31472001159659
 21
-2588.9693758026442
  0
LINE
  5
94
100
AcDbEntity
  8
1
  6
CONTINUOUS
 62
             7
100
AcDbLine
 10
695.26472001159652
 20
-2590.1693758026449
 11
696.18187729912188
 21
-2590.1693758026449
  0
LINE
  5
93
100
AcDbEntity
  8
1
  6
CONTINUOUS
 62
             7
100
AcDbLine
 10
694.34756272407128
 20
-2590.1693758026449
 11
695.26472001159652
 21
-2590.1693758026449
  0
LINE
  5
92
100
AcDbEntity
  8
1
  6
CONTINUOUS
 62
             7
100
AcDbLine
 10
694.34756272407128
 20
-2590.1693758026449
 11
693.87433941936786
 21
-2590.6425991073479
  0
LINE
  5
91
100
AcDbEntity
  8
1
  6
CONTINUOUS
 62
             7
100
AcDbLine
 10
694.0511161146643
 20
-2591.0693758026441
 11
695.26472001159652
 21
-2591.0693758026441
  0
LINE
  5
90
100
AcDbEntity
  8
1
  6
CONTINUOUS
 62
             7
100
AcDbLine
 10
695.26472001159652
 20
-2591.0693758026441
 11
696.47832390852852
 21
-2591.0693758026441
  0
LINE
  5
8F
100
AcDbEntity
  8
1
  6
CONTINUOUS
 62
             7
100
AcDbLine
 10
696.65510060382519
 20
-2590.6425991073479
 11
696.18187729912188
 21
-2590.1693758026449
  0
LINE
  5
8E
100
AcDbEntity
  8
1
  6
CONTINUOUS
 62
             7
100
AcDbLine
 10
696.18187729912188
 20
-2587.7693758026439
 11
695.26472001159652
 21
-2587.7693758026439
  0
LINE
  5
8D
100
AcDbEntity
  8
1
  6
CONTINUOUS
 62
             7
100
AcDbLine
 10
696.45510060382537
 20
-2587.1425991073479
 11
696.18187729912188
 21
-2586.8693758026429
  0
LINE
  5
8C
100
AcDbEntity
  8
1
  6
CONTINUOUS
 62
             7
100
AcDbLine
 10
696.45510060382537
 20
-2587.4961524979399
 11
696.18187729912188
 21
-2587.7693758026439
  0
LINE
  5
8B
100
AcDbEntity
  8
1
  6
CONTINUOUS
 62
             7
100
AcDbLine
 10
694.34756272407128
 20
-2586.8693758026429
 11
695.26472001159652
 21
-2586.8693758026429
  0
LINE
  5
8A
100
AcDbEntity
  8
1
  6
CONTINUOUS
 62
             7
100
AcDbLine
 10
695.26472001159652
 20
-2587.7693758026439
 11
694.34756272407128
 21
-2587.7693758026439
  0
LINE
  5
89
100
AcDbEntity
  8
1
  6
CONTINUOUS
 62
             7
100
AcDbLine
 10
694.34756272407128
 20
-2587.7693758026439
 11
694.07433941936779
 21
-2587.4961524979399
  0
LINE
  5
88
100
AcDbEntity
  8
1
  6
CONTINUOUS
 62
             7
100
AcDbLine
 10
694.34756272407128
 20
-2586.8693758026429
 11
694.07433941936779
 21
-2587.1425991073479
  0
LINE
  5
87
100
AcDbEntity
  8
1
  6
CONTINUOUS
 62
             7
100
AcDbLine
 10
693.43794331629988
 20
-2586.859756394872
 11
693.21472001159657
 21
-2586.6365330901699
  0
LINE
  5
86
100
AcDbEntity
  8
1
  6
CONTINUOUS
 62
             7
100
AcDbLine
 10
696.73794331629983
 20
-2586.859756394872
 11
696.41472001159639
 21
-2586.53653309017
  0
LINE
  5
85
100
AcDbEntity
  8
1
  6
CONTINUOUS
 62
             7
100
AcDbLine
 10
696.41472001159639
 20
-2585.6693758026449
 11
696.41472001159639
 21
-2586.53653309017
  0
LINE
  5
84
100
AcDbEntity
  8
1
  6
CONTINUOUS
 62
             7
100
AcDbLine
 10
697.31472001159648
 20
-2586.6365330901699
 11
697.09149670689328
 21
-2586.859756394872
  0
LINE
  5
83
100
AcDbEntity
  8
1
  6
CONTINUOUS
 62
             7
100
AcDbLine
 10
697.31472001159648
 20
-2586.6365330901699
 11
697.31472001159659
 21
-2585.6693758026449
  0
LINE
  5
82
100
AcDbEntity
  8
1
  6
CONTINUOUS
 62
             7
100
AcDbLine
 10
696.4147200115965
 20
-2588.1022185151191
 11
696.73794331629995
 21
-2587.7789952104149
  0
LINE
  5
81
100
AcDbEntity
  8
1
  6
CONTINUOUS
 62
             7
100
AcDbLine
 10
696.4147200115965
 20
-2588.1022185151191
 11
696.4147200115965
 21
-2588.9693758026442
  0
LINE
  5
80
100
AcDbEntity
  8
1
  6
CONTINUOUS
 62
             7
100
AcDbLine
 10
697.31472001159659
 20
-2588.9693758026442
 11
697.31472001159636
 21
-2588.0022185151179
  0
LINE
  5
7F
100
AcDbEntity
  8
1
  6
CONTINUOUS
 62
             7
100
AcDbLine
 10
697.09149670689328
 20
-2587.7789952104149
 11
697.31472001159636
 21
-2588.0022185151179
  0
LINE
  5
7E
100
AcDbEntity
  8
1
  6
CONTINUOUS
 62
             7
100
AcDbLine
 10
693.7914967068931
 20
-2587.7789952104149
 11
694.11472001159655
 21
-2588.1022185151191
  0
LINE
  5
7D
100
AcDbEntity
  8
1
  6
CONTINUOUS
 62
             7
100
AcDbLine
 10
694.11472001159643
 20
-2588.9693758026442
 11
694.11472001159655
 21
-2588.1022185151191
  0
LINE
  5
7C
100
AcDbEntity
  8
1
  6
CONTINUOUS
 62
             7
100
AcDbLine
 10
693.21472001159657
 20
-2588.0022185151179
 11
693.43794331629988
 21
-2587.7789952104149
  0
LINE
  5
7B
100
AcDbEntity
  8
1
  6
CONTINUOUS
 62
             7
100
AcDbLine
 10
693.21472001159657
 20
-2588.0022185151179
 11
693.21472001159657
 21
-2588.9693758026442
  0
LINE
  5
7A
100
AcDbEntity
  8
1
  6
CONTINUOUS
 62
             7
100
AcDbLine
 10
688.51472001159641
 20
-2588.0022185151179
 11
688.51472001159641
 21
-2588.9693758026442
  0
LINE
  5
79
100
AcDbEntity
  8
1
  6
CONTINUOUS
 62
             7
100
AcDbLine
 10
688.51472001159641
 20
-2588.0022185151179
 11
688.73794331629972
 21
-2587.7789952104149
  0
LINE
  5
78
100
AcDbEntity
  8
1
  6
CONTINUOUS
 62
             7
100
AcDbLine
 10
689.4147200115965
 20
-2588.9693758026442
 11
689.41472001159639
 21
-2588.1022185151191
  0
LINE
  5
77
100
AcDbEntity
  8
1
  6
CONTINUOUS
 62
             7
100
AcDbLine
 10
689.09149670689305
 20
-2587.7789952104149
 11
689.41472001159639
 21
-2588.1022185151191
  0
LINE
  5
76
100
AcDbEntity
  8
1
  6
CONTINUOUS
 62
             7
100
AcDbLine
 10
692.39149670689324
 20
-2587.7789952104149
 11
692.61472001159643
 21
-2588.0022185151179
  0
LINE
  5
75
100
AcDbEntity
  8
1
  6
CONTINUOUS
 62
             7
100
AcDbLine
 10
692.61472001159655
 20
-2588.9693758026442
 11
692.61472001159643
 21
-2588.0022185151179
  0
LINE
  5
74
100
AcDbEntity
  8
1
  6
CONTINUOUS
 62
             7
100
AcDbLine
 10
691.71472001159657
 20
-2588.1022185151191
 11
691.71472001159657
 21
-2588.9693758026442
  0
LINE
  5
73
100
AcDbEntity
  8
1
  6
CONTINUOUS
 62
             7
100
AcDbLine
 10
691.71472001159657
 20
-2588.1022185151191
 11
692.0379433162999
 21
-2587.7789952104149
  0
LINE
  5
72
100
AcDbEntity
  8
1
  6
CONTINUOUS
 62
             7
100
AcDbLine
 10
692.61472001159643
 20
-2586.6365330901699
 11
692.61472001159655
 21
-2585.6693758026449
  0
LINE
  5
71
100
AcDbEntity
  8
1
  6
CONTINUOUS
 62
             7
100
AcDbLine
 10
692.61472001159643
 20
-2586.6365330901699
 11
692.39149670689324
 21
-2586.859756394872
  0
LINE
  5
70
100
AcDbEntity
  8
1
  6
CONTINUOUS
 62
             7
100
AcDbLine
 10
691.71472001159657
 20
-2585.6693758026449
 11
691.71472001159657
 21
-2586.53653309017
  0
LINE
  5
6F
100
AcDbEntity
  8
1
  6
CONTINUOUS
 62
             7
100
AcDbLine
 10
692.0379433162999
 20
-2586.859756394872
 11
691.71472001159657
 21
-2586.53653309017
  0
LINE
  5
6E
100
AcDbEntity
  8
1
  6
CONTINUOUS
 62
             7
100
AcDbLine
 10
688.73794331629972
 20
-2586.859756394872
 11
688.51472001159641
 21
-2586.6365330901699
  0
LINE
  5
6D
100
AcDbEntity
  8
1
  6
CONTINUOUS
 62
             7
100
AcDbLine
 10
689.64756272407112
 20
-2586.8693758026429
 11
689.37433941936763
 21
-2587.1425991073479
  0
LINE
  5
6C
100
AcDbEntity
  8
1
  6
CONTINUOUS
 62
             7
100
AcDbLine
 10
689.64756272407112
 20
-2587.7693758026439
 11
689.37433941936763
 21
-2587.4961524979399
  0
LINE
  5
6B
100
AcDbEntity
  8
1
  6
CONTINUOUS
 62
             7
100
AcDbLine
 10
690.56472001159659
 20
-2587.7693758026439
 11
689.64756272407112
 21
-2587.7693758026439
  0
LINE
  5
6A
100
AcDbEntity
  8
1
  6
CONTINUOUS
 62
             7
100
AcDbLine
 10
689.64756272407112
 20
-2586.8693758026429
 11
690.56472001159659
 21
-2586.8693758026429
  0
LINE
  5
69
100
AcDbEntity
  8
1
  6
CONTINUOUS
 62
             7
100
AcDbLine
 10
691.75510060382533
 20
-2587.4961524979399
 11
691.48187729912195
 21
-2587.7693758026439
  0
LINE
  5
68
100
AcDbEntity
  8
1
  6
CONTINUOUS
 62
             7
100
AcDbLine
 10
691.75510060382533
 20
-2587.1425991073479
 11
691.48187729912195
 21
-2586.8693758026429
  0
LINE
  5
67
100
AcDbEntity
  8
1
  6
CONTINUOUS
 62
             7
100
AcDbLine
 10
691.48187729912195
 20
-2587.7693758026439
 11
690.56472001159659
 21
-2587.7693758026439
  0
LINE
  5
66
100
AcDbEntity
  8
1
  6
CONTINUOUS
 62
             7
100
AcDbLine
 10
691.95510060382526
 20
-2590.6425991073479
 11
691.48187729912183
 21
-2590.1693758026449
  0
LINE
  5
65
100
AcDbEntity
  8
1
  6
CONTINUOUS
 62
             7
100
AcDbLine
 10
690.56472001159659
 20
-2591.0693758026441
 11
691.77832390852859
 21
-2591.0693758026441
  0
LINE
  5
64
100
AcDbEntity
  8
1
  6
CONTINUOUS
 62
             7
100
AcDbLine
 10
689.35111611466436
 20
-2591.0693758026441
 11
690.56472001159659
 21
-2591.0693758026441
  0
LINE
  5
63
100
AcDbEntity
  8
1
  6
CONTINUOUS
 62
             7
100
AcDbLine
 10
689.64756272407112
 20
-2590.1693758026449
 11
689.17433941936758
 21
-2590.6425991073479
  0
LINE
  5
62
100
AcDbEntity
  8
1
  6
CONTINUOUS
 62
             7
100
AcDbLine
 10
689.64756272407112
 20
-2590.1693758026449
 11
690.56472001159659
 21
-2590.1693758026449
  0
LINE
  5
61
100
AcDbEntity
  8
1
  6
CONTINUOUS
 62
             7
100
AcDbLine
 10
690.56472001159659
 20
-2590.1693758026449
 11
691.48187729912183
 21
-2590.1693758026449
  0
LINE
  5
60
100
AcDbEntity
  8
1
  6
CONTINUOUS
 62
             7
100
AcDbLine
 10
692.61472001159643
 20
-2590.1329796995769
 11
692.61472001159655
 21
-2588.9693758026442
  0
LINE
  5
5F
100
AcDbEntity
  8
1
  6
CONTINUOUS
 62
             7
100
AcDbLine
 10
692.18794331629988
 20
-2590.3097563948731
 11
691.71472001159657
 21
-2589.8365330901688
  0
LINE
  5
5E
100
AcDbEntity
  8
1
  6
CONTINUOUS
 62
             7
100
AcDbLine
 10
691.71472001159657
 20
-2588.9693758026442
 11
691.71472001159657
 21
-2589.8365330901688
  0
LINE
  5
5D
100
AcDbEntity
  8
1
  6
CONTINUOUS
 62
             7
100
AcDbLine
 10
691.77832390852859
 20
-2583.5693758026441
 11
690.56472001159659
 21
-2583.5693758026441
  0
LINE
  5
5C
100
AcDbEntity
  8
1
  6
CONTINUOUS
 62
             7
100
AcDbLine
 10
691.48187729912183
 20
-2584.4693758026442
 11
691.95510060382526
 21
-2583.9961524979399
  0
LINE
  5
5B
100
AcDbEntity
  8
1
  6
CONTINUOUS
 62
             7
100
AcDbLine
 10
691.48187729912183
 20
-2584.4693758026442
 11
690.56472001159659
 21
-2584.4693758026442
  0
LINE
  5
5A
100
AcDbEntity
  8
1
  6
CONTINUOUS
 62
             7
100
AcDbLine
 10
692.61472001159655
 20
-2585.6693758026449
 11
692.61472001159643
 21
-2584.5057719057122
  0
LINE
  5
59
100
AcDbEntity
  8
1
  6
CONTINUOUS
 62
             7
100
AcDbLine
 10
691.71472001159657
 20
-2584.8022185151181
 11
691.71472001159657
 21
-2585.6693758026449
  0
LINE
  5
58
100
AcDbEntity
  8
1
  6
CONTINUOUS
 62
             7
100
AcDbLine
 10
691.71472001159657
 20
-2584.8022185151181
 11
692.18794331629988
 21
-2584.328995210416
  0
LINE
  5
57
100
AcDbEntity
  8
1
  6
CONTINUOUS
 62
             7
100
AcDbLine
 10
689.41472001159639
 20
-2589.8365330901688
 11
688.94149670689296
 21
-2590.3097563948731
  0
LINE
  5
56
100
AcDbEntity
  8
1
  6
CONTINUOUS
 62
             7
100
AcDbLine
 10
688.51472001159641
 20
-2588.9693758026442
 11
688.51472001159641
 21
-2590.1329796995769
  0
LINE
  5
55
100
AcDbEntity
  8
1
  6
CONTINUOUS
 62
             7
100
AcDbLine
 10
689.41472001159639
 20
-2589.8365330901688
 11
689.4147200115965
 21
-2588.9693758026442
  0
LINE
  5
54
100
AcDbEntity
  8
1
  6
CONTINUOUS
 62
             7
100
AcDbLine
 10
688.51472001159641
 20
-2585.6693758026449
 11
688.51472001159641
 21
-2586.6365330901699
  0
LINE
  5
53
100
AcDbEntity
  8
1
  6
CONTINUOUS
 62
             7
100
AcDbLine
 10
689.41472001159639
 20
-2586.53653309017
 11
689.09149670689305
 21
-2586.859756394872
  0
LINE
  5
52
100
AcDbEntity
  8
1
  6
CONTINUOUS
 62
             7
100
AcDbLine
 10
689.41472001159639
 20
-2586.53653309017
 11
689.4147200115965
 21
-2585.6693758026449
  0
LINE
  5
51
100
AcDbEntity
  8
1
  6
CONTINUOUS
 62
             7
100
AcDbLine
 10
689.17433941936758
 20
-2583.9961524979399
 11
689.64756272407112
 21
-2584.4693758026442
  0
LINE
  5
50
100
AcDbEntity
  8
1
  6
CONTINUOUS
 62
             7
100
AcDbLine
 10
688.51472001159641
 20
-2584.5057719057122
 11
688.51472001159641
 21
-2585.6693758026449
  0
LINE
  5
4F
100
AcDbEntity
  8
1
  6
CONTINUOUS
 62
             7
100
AcDbLine
 10
688.94149670689296
 20
-2584.328995210416
 11
689.41472001159639
 21
-2584.8022185151181
  0
LINE
  5
4E
100
AcDbEntity
  8
1
  6
CONTINUOUS
 62
             7
100
AcDbLine
 10
689.4147200115965
 20
-2585.6693758026449
 11
689.41472001159639
 21
-2584.8022185151181
  0
LINE
  5
4D
100
AcDbEntity
  8
1
  6
CONTINUOUS
 62
             7
100
AcDbLine
 10
690.56472001159659
 20
-2586.8693758026429
 11
691.48187729912195
 21
-2586.8693758026429
  0
LINE
  5
4C
100
AcDbEntity
  8
1
  6
CONTINUOUS
 62
             7
100
AcDbLine
 10
690.56472001159659
 20
-2584.4693758026442
 11
689.64756272407112
 21
-2584.4693758026442
  0
LINE
  5
4B
100
AcDbEntity
  8
1
  6
CONTINUOUS
 62
             7
100
AcDbLine
 10
690.56472001159659
 20
-2583.5693758026441
 11
689.35111611466436
 21
-2583.5693758026441
  0
LINE
  5
4A
100
AcDbEntity
  8
1
  6
CONTINUOUS
 62
             7
100
AcDbLine
 10
687.91472001159696
 20
-2560.8227296470041
 11
687.91472001159707
 21
-2559.1193758026438
  0
LINE
  5
49
100
AcDbEntity
  8
1
  6
CONTINUOUS
 62
             7
100
AcDbLine
 10
687.91472001159707
 20
-2559.1193758026438
 11
707.31472001159614
 21
-2559.1193758026438
  0
LINE
  5
48
100
AcDbEntity
  8
1
  6
CONTINUOUS
 62
             7
100
AcDbLine
 10
687.36472001159643
 20
-2576.919375802644
 11
707.86472001159643
 21
-2576.919375802644
  0
LINE
  5
47
100
AcDbEntity
  8
1
  6
CONTINUOUS
 62
             7
100
AcDbLine
 10
687.36472001159643
 20
-2602.919375802644
 11
707.86472001159643
 21
-2602.919375802644
  0
LINE
  5
46
100
AcDbEntity
  8
1
  6
CONTINUOUS
 62
             7
100
AcDbLine
 10
689.61472001159632
 20
-2609.919375802644
 11
694.61472001159632
 21
-2609.919375802644
  0
LINE
  5
45
100
AcDbEntity
  8
1
  6
CONTINUOUS
 62
             7
100
AcDbLine
 10
695.61472001159632
 20
-2608.919375802644
 11
695.61472001159632
 21
-2604.919375802644
  0
LINE
  5
44
100
AcDbEntity
  8
1
  6
CONTINUOUS
 62
             7
100
AcDbLine
 10
694.61472001159632
 20
-2603.919375802644
 11
689.61472001159632
 21
-2603.919375802644
  0
LINE
  5
43
100
AcDbEntity
  8
1
  6
CONTINUOUS
 62
             7
100
AcDbLine
 10
688.61472001159632
 20
-2604.919375802644
 11
688.61472001159632
 21
-2608.919375802644
  0
LINE
  5
42
100
AcDbEntity
  8
1
  6
CONTINUOUS
 62
             7
100
AcDbLine
 10
690.11472001159632
 20
-2608.919375802644
 11
692.11472001159643
 21
-2604.919375802644
  0
LINE
  5
41
100
AcDbEntity
  8
1
  6
CONTINUOUS
 62
             7
100
AcDbLine
 10
692.11472001159643
 20
-2604.919375802644
 11
694.11472001159643
 21
-2608.919375802644
  0
LINE
  5
40
100
AcDbEntity
  8
1
  6
CONTINUOUS
 62
             7
100
AcDbLine
 10
694.11472001159643
 20
-2608.919375802644
 11
690.11472001159632
 21
-2608.919375802644
  0
LINE
  5
3F
100
AcDbEntity
  8
1
  6
CONTINUOUS
 62
             7
100
AcDbLine
 10
690.11472001159643
 20
-2612.919375802644
 11
694.11472001159643
 21
-2612.919375802644
  0
LINE
  5
3E
100
AcDbEntity
  8
1
  6
CONTINUOUS
 62
             7
100
AcDbLine
 10
692.11472001159643
 20
-2616.919375802644
 11
690.11472001159643
 21
-2612.919375802644
  0
LINE
  5
3D
100
AcDbEntity
  8
1
  6
CONTINUOUS
 62
             7
100
AcDbLine
 10
694.11472001159643
 20
-2612.919375802644
 11
692.11472001159643
 21
-2616.919375802644
  0
LINE
  5
3C
100
AcDbEntity
  8
1
  6
CONTINUOUS
 62
             7
100
AcDbLine
 10
695.61472001159643
 20
-2616.919375802644
 11
695.61472001159643
 21
-2612.919375802644
  0
LINE
  5
3B
100
AcDbEntity
  8
1
  6
CONTINUOUS
 62
             7
100
AcDbLine
 10
689.61472001159643
 20
-2617.919375802644
 11
694.61472001159643
 21
-2617.919375802644
  0
LINE
  5
3A
100
AcDbEntity
  8
1
  6
CONTINUOUS
 62
             7
100
AcDbLine
 10
688.61472001159643
 20
-2612.919375802644
 11
688.61472001159643
 21
-2616.919375802644
  0
LINE
  5
39
100
AcDbEntity
  8
1
  6
CONTINUOUS
 62
             7
100
AcDbLine
 10
694.61472001159643
 20
-2611.919375802644
 11
689.61472001159643
 21
-2611.919375802644
  0
LINE
  5
38
100
AcDbEntity
  8
1
  6
CONTINUOUS
 62
             7
100
AcDbLine
 10
705.61472001159643
 20
-2603.919375802644
 11
700.61472001159643
 21
-2603.919375802644
  0
LINE
  5
37
100
AcDbEntity
  8
1
  6
CONTINUOUS
 62
             7
100
AcDbLine
 10
706.61472001159643
 20
-2608.919375802644
 11
706.61472001159643
 21
-2604.919375802644
  0
LINE
  5
36
100
AcDbEntity
  8
1
  6
CONTINUOUS
 62
             7
100
AcDbLine
 10
700.61472001159643
 20
-2609.919375802644
 11
705.61472001159643
 21
-2609.919375802644
  0
LINE
  5
35
100
AcDbEntity
  8
1
  6
CONTINUOUS
 62
             7
100
AcDbLine
 10
699.61472001159643
 20
-2604.919375802644
 11
699.61472001159643
 21
-2608.919375802644
  0
LINE
  5
34
100
AcDbEntity
  8
1
  6
CONTINUOUS
 62
             7
100
AcDbLine
 10
702.61472001159643
 20
-2605.419375802644
 11
703.61472001159643
 21
-2605.419375802644
  0
LINE
  5
33
100
AcDbEntity
  8
1
  6
CONTINUOUS
 62
             7
100
AcDbLine
 10
702.11472001159643
 20
-2604.919375802644
 11
704.11472001159643
 21
-2604.919375802644
  0
LINE
  5
32
100
AcDbEntity
  8
1
  6
CONTINUOUS
 62
             7
100
AcDbLine
 10
702.61472001159643
 20
-2608.419375802644
 11
702.11472001159643
 21
-2608.919375802644
  0
LINE
  5
31
100
AcDbEntity
  8
1
  6
CONTINUOUS
 62
             7
100
AcDbLine
 10
703.61472001159643
 20
-2608.419375802644
 11
703.61472001159643
 21
-2607.919375802644
  0
LINE
  5
30
100
AcDbEntity
  8
1
  6
CONTINUOUS
 62
             7
100
AcDbLine
 10
703.61472001159643
 20
-2607.919375802644
 11
702.61472001159643
 21
-2608.919375802644
  0
LINE
  5
2F
100
AcDbEntity
  8
1
  6
CONTINUOUS
 62
             7
100
AcDbLine
 10
702.61472001159643
 20
-2608.919375802644
 11
704.11472001159643
 21
-2608.919375802644
  0
LINE
  5
2E
100
AcDbEntity
  8
1
  6
CONTINUOUS
 62
             7
100
AcDbLine
 10
837.40398087931396
 20
-2612.1193758026438
 11
836.00398087931387
 21
-2612.1193758026438
  0
LINE
  5
2D
100
AcDbEntity
  8
1
  6
CONTINUOUS
 62
             7
100
AcDbLine
 10
837.40398087931396
 20
-2612.5193758026439
 11
837.40398087931396
 21
-2612.1193758026438
  0
LINE
  5
2C
100
AcDbEntity
  8
1
  6
CONTINUOUS
 62
             7
100
AcDbLine
 10
837.40398087931396
 20
-2610.1193758026438
 11
837.40398087931396
 21
-2612.1193758026438
  0
LINE
  5
2B
100
AcDbEntity
  8
1
  6
CONTINUOUS
 62
             7
100
AcDbLine
 10
838.10398087931401
 20
-2610.1193758026438
 11
837.40398087931396
 21
-2610.1193758026438
  0
LINE
  5
2A
100
AcDbEntity
  8
1
  6
CONTINUOUS
 62
             7
100
AcDbLine
 10
839.62398087931365
 20
-2612.5193758026439
 11
838.10398087931401
 21
-2610.1193758026438
  0
LINE
  5
29
100
AcDbEntity
  8
1
  6
CONTINUOUS
 62
             7
100
AcDbLine
 10
692.66472001159639
 20
-2621.6693758026449
 11
692.6647200115965
 21
-2623.3693758026438
  0
LINE
  5
28
100
AcDbEntity
  8
1
  6
CONTINUOUS
 62
             7
100
AcDbLine
 10
692.6647200115965
 20
-2623.3693758026438
 11
691.1647200115965
 21
-2623.3693758026438
  0
ENDSEC
  0
SECTION
  2
OBJECTS
  0
DICTIONARY
  5
19
100
AcDbDictionary
  3
ACAD_GROUP
350
1A
  3
ACAD_MLINESTYLE
350
1B
  0
DICTIONARY
  5
1A
102
{ACAD_REACTORS
330
19
102
}
100
AcDbDictionary
  0
DICTIONARY
  5
1B
102
{ACAD_REACTORS
330
19
102
}
100
AcDbDictionary
  3
STANDARD
350
1C
  0
MLINESTYLE
  5
1C
102
{ACAD_REACTORS
330
1B
102
}
100
AcDbMlineStyle
  2
STANDARD
 70
             0
  3

 62
             0
 51
90.0
 52
90.0
 71
             2
 49
0.5
 62
           256
  6
BYLAYER
 49
-0.5
 62
           256
  6
BYLAYER
  0
ENDSEC
  0
EOF
