  0
SECTION
  2
HEADER
  9
$ACADVER
  1
AC1015
  9
$ACADMAINTVER
 70
     6
  9
$DWGCODEPAGE
  3
ANSI_1252
  9
$INSBASE
 10
0.0
 20
0.0
 30
0.0
  9
$EXTMIN
 10
-215.9999999999997
 20
-41.5
 30
0.0
  9
$EXTMAX
 10
-53.2500000000008
 20
37.5
 30
0.0
  9
$LIMMIN
 10
0.0
 20
0.0
  9
$LIMMAX
 10
12.0
 20
9.0
  9
$ORTHOMODE
 70
     0
  9
$REGENMODE
 70
     1
  9
$FILLMODE
 70
     1
  9
$QTEXTMODE
 70
     0
  9
$MIRRTEXT
 70
     1
  9
$LTSCALE
 40
1.0
  9
$ATTMODE
 70
     1
  9
$TEXTSIZE
 40
0.2
  9
$TRACEWID
 40
0.05
  9
$TEXTSTYLE
  7
Standard
  9
$CLAYER
  8
0
  9
$CELTYPE
  6
ByLayer
  9
$CECOLOR
 62
   256
  9
$CELTSCALE
 40
1.0
  9
$DISPSILH
 70
     0
  9
$DIMSCALE
 40
1.0
  9
$DIMASZ
 40
0.18
  9
$DIMEXO
 40
0.0625
  9
$DIMDLI
 40
0.38
  9
$DIMRND
 40
0.0
  9
$DIMDLE
 40
0.0
  9
$DIMEXE
 40
0.18
  9
$DIMTP
 40
0.0
  9
$DIMTM
 40
0.0
  9
$DIMTXT
 40
0.18
  9
$DIMCEN
 40
0.09
  9
$DIMTSZ
 40
0.0
  9
$DIMTOL
 70
     0
  9
$DIMLIM
 70
     0
  9
$DIMTIH
 70
     1
  9
$DIMTOH
 70
     1
  9
$DIMSE1
 70
     0
  9
$DIMSE2
 70
     0
  9
$DIMTAD
 70
     0
  9
$DIMZIN
 70
     0
  9
$DIMBLK
  1

  9
$DIMASO
 70
     1
  9
$DIMSHO
 70
     1
  9
$DIMPOST
  1

  9
$DIMAPOST
  1

  9
$DIMALT
 70
     0
  9
$DIMALTD
 70
     2
  9
$DIMALTF
 40
25.4
  9
$DIMLFAC
 40
1.0
  9
$DIMTOFL
 70
     0
  9
$DIMTVP
 40
0.0
  9
$DIMTIX
 70
     0
  9
$DIMSOXD
 70
     0
  9
$DIMSAH
 70
     0
  9
$DIMBLK1
  1

  9
$DIMBLK2
  1

  9
$DIMSTYLE
  2
Standard
  9
$DIMCLRD
 70
     0
  9
$DIMCLRE
 70
     0
  9
$DIMCLRT
 70
     0
  9
$DIMTFAC
 40
1.0
  9
$DIMGAP
 40
0.09
  9
$DIMJUST
 70
     0
  9
$DIMSD1
 70
     0
  9
$DIMSD2
 70
     0
  9
$DIMTOLJ
 70
     1
  9
$DIMTZIN
 70
     0
  9
$DIMALTZ
 70
     0
  9
$DIMALTTZ
 70
     0
  9
$DIMUPT
 70
     0
  9
$DIMDEC
 70
     4
  9
$DIMTDEC
 70
     4
  9
$DIMALTU
 70
     2
  9
$DIMALTTD
 70
     2
  9
$DIMTXSTY
  7
Standard
  9
$DIMAUNIT
 70
     0
  9
$DIMADEC
 70
     0
  9
$DIMALTRND
 40
0.0
  9
$DIMAZIN
 70
     0
  9
$DIMDSEP
 70
    46
  9
$DIMATFIT
 70
     3
  9
$DIMFRAC
 70
     0
  9
$DIMLDRBLK
  1

  9
$DIMLUNIT
 70
     2
  9
$DIMLWD
 70
    -2
  9
$DIMLWE
 70
    -2
  9
$DIMTMOVE
 70
     0
  9
$LUNITS
 70
     2
  9
$LUPREC
 70
     4
  9
$SKETCHINC
 40
0.1
  9
$FILLETRAD
 40
0.5
  9
$AUNITS
 70
     0
  9
$AUPREC
 70
     0
  9
$MENU
  1
.
  9
$ELEVATION
 40
0.0
  9
$PELEVATION
 40
0.0
  9
$THICKNESS
 40
0.0
  9
$LIMCHECK
 70
     0
  9
$CHAMFERA
 40
0.5
  9
$CHAMFERB
 40
0.5
  9
$CHAMFERC
 40
1.0
  9
$CHAMFERD
 40
0.0
  9
$SKPOLY
 70
     0
  9
$TDCREATE
 40
2457823.714727604
  9
$TDUCREATE
 40
2457823.339727604
  9
$TDUPDATE
 40
2457823.714728299
  9
$TDUUPDATE
 40
2457823.339728299
  9
$TDINDWG
 40
0.0000000116
  9
$TDUSRTIMER
 40
0.0000000116
  9
$USRTIMER
 70
     1
  9
$ANGBASE
 50
0.0
  9
$ANGDIR
 70
     0
  9
$PDMODE
 70
     0
  9
$PDSIZE
 40
0.0
  9
$PLINEWID
 40
0.0
  9
$SPLFRAME
 70
     0
  9
$SPLINETYPE
 70
     6
  9
$SPLINESEGS
 70
     8
  9
$HANDSEED
  5
550
  9
$SURFTAB1
 70
     6
  9
$SURFTAB2
 70
     6
  9
$SURFTYPE
 70
     6
  9
$SURFU
 70
     6
  9
$SURFV
 70
     6
  9
$UCSBASE
  2

  9
$UCSNAME
  2

  9
$UCSORG
 10
0.0
 20
0.0
 30
0.0
  9
$UCSXDIR
 10
1.0
 20
0.0
 30
0.0
  9
$UCSYDIR
 10
0.0
 20
1.0
 30
0.0
  9
$UCSORTHOREF
  2

  9
$UCSORTHOVIEW
 70
     0
  9
$UCSORGTOP
 10
0.0
 20
0.0
 30
0.0
  9
$UCSORGBOTTOM
 10
0.0
 20
0.0
 30
0.0
  9
$UCSORGLEFT
 10
0.0
 20
0.0
 30
0.0
  9
$UCSORGRIGHT
 10
0.0
 20
0.0
 30
0.0
  9
$UCSORGFRONT
 10
0.0
 20
0.0
 30
0.0
  9
$UCSORGBACK
 10
0.0
 20
0.0
 30
0.0
  9
$PUCSBASE
  2

  9
$PUCSNAME
  2

  9
$PUCSORG
 10
0.0
 20
0.0
 30
0.0
  9
$PUCSXDIR
 10
1.0
 20
0.0
 30
0.0
  9
$PUCSYDIR
 10
0.0
 20
1.0
 30
0.0
  9
$PUCSORTHOREF
  2

  9
$PUCSORTHOVIEW
 70
     0
  9
$PUCSORGTOP
 10
0.0
 20
0.0
 30
0.0
  9
$PUCSORGBOTTOM
 10
0.0
 20
0.0
 30
0.0
  9
$PUCSORGLEFT
 10
0.0
 20
0.0
 30
0.0
  9
$PUCSORGRIGHT
 10
0.0
 20
0.0
 30
0.0
  9
$PUCSORGFRONT
 10
0.0
 20
0.0
 30
0.0
  9
$PUCSORGBACK
 10
0.0
 20
0.0
 30
0.0
  9
$USERI1
 70
     0
  9
$USERI2
 70
     0
  9
$USERI3
 70
     0
  9
$USERI4
 70
     0
  9
$USERI5
 70
     0
  9
$USERR1
 40
18.1
  9
$USERR2
 40
0.0
  9
$USERR3
 40
0.0
  9
$USERR4
 40
0.0
  9
$USERR5
 40
0.0
  9
$WORLDVIEW
 70
     1
  9
$SHADEDGE
 70
     3
  9
$SHADEDIF
 70
    70
  9
$TILEMODE
 70
     1
  9
$MAXACTVP
 70
    64
  9
$PINSBASE
 10
0.0
 20
0.0
 30
0.0
  9
$PLIMCHECK
 70
     0
  9
$PEXTMIN
 10
1.00000000000000E+20
 20
1.00000000000000E+20
 30
1.00000000000000E+20
  9
$PEXTMAX
 10
-1.00000000000000E+20
 20
-1.00000000000000E+20
 30
-1.00000000000000E+20
  9
$PLIMMIN
 10
0.0
 20
0.0
  9
$PLIMMAX
 10
12.0
 20
9.0
  9
$UNITMODE
 70
     0
  9
$VISRETAIN
 70
     1
  9
$PLINEGEN
 70
     0
  9
$PSLTSCALE
 70
     1
  9
$TREEDEPTH
 70
  3020
  9
$CMLSTYLE
  2
Standard
  9
$CMLJUST
 70
     0
  9
$CMLSCALE
 40
1.0
  9
$PROXYGRAPHICS
 70
     1
  9
$MEASUREMENT
 70
     1
  9
$CELWEIGHT
370
    -1
  9
$ENDCAPS
280
     0
  9
$JOINSTYLE
280
     0
  9
$LWDISPLAY
290
     0
  9
$INSUNITS
 70
     4
  9
$HYPERLINKBASE
  1

  9
$STYLESHEET
  1

  9
$XEDIT
290
     1
  9
$CEPSNTYPE
380
     0
  9
$PSTYLEMODE
290
     1
  9
$FINGERPRINTGUID
  2
{0E655CF6-FD92-4766-B3AB-B4FB4075BEEA}
  9
$VERSIONGUID
  2
{FAEB1C32-E019-11D5-929B-00C0DF256EC4}
  9
$EXTNAMES
290
     1
  9
$PSVPSCALE
 40
0.0
  9
$OLESTARTUP
290
     0
  0
ENDSEC
  0
SECTION
  2
CLASSES
  0
CLASS
  1
ACDBDICTIONARYWDFLT
  2
AcDbDictionaryWithDefault
  3
ObjectDBX Classes
 90
        0
280
     0
281
     0
  0
CLASS
  1
VISUALSTYLE
  2
AcDbVisualStyle
  3
ObjectDBX Classes
 90
     4095
280
     0
281
     0
  0
CLASS
  1
MATERIAL
  2
AcDbMaterial
  3
ObjectDBX Classes
 90
     1153
280
     0
281
     0
  0
CLASS
  1
DICTIONARYVAR
  2
AcDbDictionaryVar
  3
ObjectDBX Classes
 90
        0
280
     0
281
     0
  0
CLASS
  1
ACDBPLACEHOLDER
  2
AcDbPlaceHolder
  3
ObjectDBX Classes
 90
        0
280
     0
281
     0
  0
CLASS
  1
LAYOUT
  2
AcDbLayout
  3
ObjectDBX Classes
 90
        0
280
     0
281
     0
  0
ENDSEC
  0
SECTION
  2
TABLES
  0
TABLE
  2
VPORT
  5
8
330
0
100
AcDbSymbolTable
 70
     1
  0
VPORT
  5
29
330
8
100
AcDbSymbolTableRecord
100
AcDbViewportTableRecord
  2
*Active
 70
     0
 10
0.0
 20
0.0
 11
1.0
 21
1.0
 12
-134.6250000000003
 22
-2.0
 13
0.0
 23
0.0
 14
0.5
 24
0.5
 15
0.5
 25
0.5
 16
0.0
 26
0.0
 36
1.0
 17
0.0
 27
0.0
 37
0.0
 40
111.7036211699157
 41
1.60267857142857
 42
50.0
 43
0.0
 44
0.0
 50
0.0
 51
0.0
 71
     0
 72
   100
 73
     1
 74
     3
 75
     0
 76
     0
 77
     0
 78
     0
281
     0
 65
     1
110
0.0
120
0.0
130
0.0
111
1.0
121
0.0
131
0.0
112
0.0
122
1.0
132
0.0
 79
     0
146
0.0
  0
ENDTAB
  0
TABLE
  2
LTYPE
  5
5
330
0
100
AcDbSymbolTable
 70
     8
  0
LTYPE
  5
14
330
5
100
AcDbSymbolTableRecord
100
AcDbLinetypeTableRecord
  2
ByBlock
 70
     0
  3

 72
    65
 73
     0
 40
0.0
  0
LTYPE
  5
15
330
5
100
AcDbSymbolTableRecord
100
AcDbLinetypeTableRecord
  2
ByLayer
 70
     0
  3

 72
    65
 73
     0
 40
0.0
  0
LTYPE
  5
16
330
5
100
AcDbSymbolTableRecord
100
AcDbLinetypeTableRecord
  2
Continuous
 70
     0
  3
Solid line
 72
    65
 73
     0
 40
0.0
  0
LTYPE
  5
3F
330
5
100
AcDbSymbolTableRecord
100
AcDbLinetypeTableRecord
  2
DASHED
 70
     0
  3
Dashed
 72
    65
 73
     2
 40
15.0
 49
7.0
 74
     0
 49
-8.0
 74
     0
  0
LTYPE
  5
40
330
5
100
AcDbSymbolTableRecord
100
AcDbLinetypeTableRecord
  2
DOTTED
 70
     0
  3
Dotted
 72
    65
 73
     2
 40
1.0
 49
0.0
 74
     0
 49
-1.0
 74
     0
  0
LTYPE
  5
41
330
5
100
AcDbSymbolTableRecord
100
AcDbLinetypeTableRecord
  2
DOT_CENTER
 70
     0
  3
Dot_Center
 72
    65
 73
     4
 40
14.0
 49
12.0
 74
     0
 49
-1.0
 74
     0
 49
0.0
 74
     0
 49
-1.0
 74
     0
  0
LTYPE
  5
42
330
5
100
AcDbSymbolTableRecord
100
AcDbLinetypeTableRecord
  2
LONG_DASHED
 70
     0
  3
Long_Dashed
 72
    65
 73
     2
 40
15.0
 49
10.0
 74
     0
 49
-5.0
 74
     0
  0
LTYPE
  5
43
330
5
100
AcDbSymbolTableRecord
100
AcDbLinetypeTableRecord
  2
DASH_CENTER
 70
     0
  3
Dash_Center
 72
    65
 73
     4
 40
14.0
 49
11.0
 74
     0
 49
-1.0
 74
     0
 49
1.0
 74
     0
 49
-1.0
 74
     0
  0
LTYPE
  5
44
330
5
100
AcDbSymbolTableRecord
100
AcDbLinetypeTableRecord
  2
PHANTOM
 70
     0
  3
Phantom
 72
    65
 73
     6
 40
13.0
 49
10.0
 74
     0
 49
-1.0
 74
     0
 49
0.0
 74
     0
 49
-1.0
 74
     0
 49
0.0
 74
     0
 49
-1.0
 74
     0
  0
LTYPE
  5
45
330
5
100
AcDbSymbolTableRecord
100
AcDbLinetypeTableRecord
  2
CENTER_DASH_DASH
 70
     0
  3
Center_Dash_Dash
 72
    65
 73
     6
 40
14.0
 49
9.0
 74
     0
 49
-1.0
 74
     0
 49
1.0
 74
     0
 49
-1.0
 74
     0
 49
1.0
 74
     0
 49
-1.0
 74
     0
  0
ENDTAB
  0
TABLE
  2
LAYER
  5
2
330
0
100
AcDbSymbolTable
 70
     2
  0
LAYER
  5
10
330
2
100
AcDbSymbolTableRecord
100
AcDbLayerTableRecord
  2
0
 70
     0
 62
     7
  6
Continuous
370
    -3
390
F
  0
LAYER
  5
46
330
2
100
AcDbSymbolTableRecord
100
AcDbLayerTableRecord
  2
1
 70
     0
 62
     7
  6
Continuous
370
    -3
390
F
  0
ENDTAB
  0
TABLE
  2
STYLE
  5
3
330
0
100
AcDbSymbolTable
 70
     1
  0
STYLE
  5
11
330
3
100
AcDbSymbolTableRecord
100
AcDbTextStyleTableRecord
  2
Standard
 70
     0
 40
0.0
 41
1.0
 50
0.0
 71
     0
 42
0.2
  3
txt
  4

  0
ENDTAB
  0
TABLE
  2
VIEW
  5
6
330
0
100
AcDbSymbolTable
 70
     0
  0
ENDTAB
  0
TABLE
  2
UCS
  5
7
330
0
100
AcDbSymbolTable
 70
     0
  0
ENDTAB
  0
TABLE
  2
APPID
  5
9
330
0
100
AcDbSymbolTable
 70
     1
  0
APPID
  5
12
330
9
100
AcDbSymbolTableRecord
100
AcDbRegAppTableRecord
  2
ACAD
 70
     0
  0
ENDTAB
  0
TABLE
  2
DIMSTYLE
  5
A
330
0
100
AcDbSymbolTable
 70
     1
100
AcDbDimStyleTable
  0
DIMSTYLE
105
27
330
A
100
AcDbSymbolTableRecord
100
AcDbDimStyleTableRecord
  2
Standard
 70
     0
178
     0
340
11
  0
ENDTAB
  0
TABLE
  2
BLOCK_RECORD
  5
1
330
0
100
AcDbSymbolTable
 70
     1
  0
BLOCK_RECORD
  5
1F
330
1
100
AcDbSymbolTableRecord
100
AcDbBlockTableRecord
  2
*Model_Space
340
22
  0
BLOCK_RECORD
  5
1B
330
1
100
AcDbSymbolTableRecord
100
AcDbBlockTableRecord
  2
*Paper_Space
340
1E
  0
BLOCK_RECORD
  5
23
330
1
100
AcDbSymbolTableRecord
100
AcDbBlockTableRecord
  2
*Paper_Space0
340
26
  0
ENDTAB
  0
ENDSEC
  0
SECTION
  2
BLOCKS
  0
BLOCK
  5
20
330
1F
100
AcDbEntity
  8
0
100
AcDbBlockBegin
  2
*Model_Space
 70
     0
 10
0.0
 20
0.0
 30
0.0
  3
*Model_Space
  1

  0
ENDBLK
  5
21
330
1F
100
AcDbEntity
  8
0
100
AcDbBlockEnd
  0
BLOCK
  5
1C
330
1B
100
AcDbEntity
 67
     1
  8
0
100
AcDbBlockBegin
  2
*Paper_Space
 70
     0
 10
0.0
 20
0.0
 30
0.0
  3
*Paper_Space
  1

  0
ENDBLK
  5
1D
330
1B
100
AcDbEntity
 67
     1
  8
0
100
AcDbBlockEnd
  0
BLOCK
  5
24
330
23
100
AcDbEntity
  8
0
100
AcDbBlockBegin
  2
*Paper_Space0
 70
     0
 10
0.0
 20
0.0
 30
0.0
  3
*Paper_Space0
  1

  0
ENDBLK
  5
25
330
23
100
AcDbEntity
  8
0
100
AcDbBlockEnd
  0
ENDSEC
  0
SECTION
  2
ENTITIES
  0
LINE
  5
47
330
1F
100
AcDbEntity
  8
1
  6
DOTTED
 62
     7
100
AcDbLine
 10
-59.7500000000008
 20
15.5
 30
0.0
 11
-59.7500000000008
 21
17.39999999999964
 31
0.0
  0
LINE
  5
48
330
1F
100
AcDbEntity
  8
1
  6
DOTTED
 62
     7
100
AcDbLine
 10
-59.7500000000008
 20
-17.40000000000011
 30
0.0
 11
-59.7500000000008
 21
-15.50000000000001
 31
0.0
  0
LINE
  5
49
330
1F
100
AcDbEntity
  8
1
  6
DOTTED
 62
     7
100
AcDbLine
 10
-59.7500000000008
 20
17.39999999999964
 30
0.0
 11
-60.7500000000008
 21
17.39999999999964
 31
0.0
  0
LINE
  5
4A
330
1F
100
AcDbEntity
  8
1
  6
DOTTED
 62
     7
100
AcDbLine
 10
-60.7500000000008
 20
17.39999999999964
 30
0.0
 11
-60.7500000000008
 21
14.5
 31
0.0
  0
LINE
  5
4B
330
1F
100
AcDbEntity
  8
1
  6
DOTTED
 62
     7
100
AcDbLine
 10
-58.7500000000008
 20
12.5
 30
0.0
 11
-54.6500000000006
 21
12.5
 31
0.0
  0
LINE
  5
4C
330
1F
100
AcDbEntity
  8
1
  6
DOTTED
 62
     7
100
AcDbLine
 10
-54.6500000000006
 20
12.5
 30
0.0
 11
-54.6500000000006
 21
-12.50000000000001
 31
0.0
  0
LINE
  5
4D
330
1F
100
AcDbEntity
  8
1
  6
DOTTED
 62
     7
100
AcDbLine
 10
-54.6500000000006
 20
-12.50000000000001
 30
0.0
 11
-58.7500000000008
 21
-12.50000000000001
 31
0.0
  0
LINE
  5
4E
330
1F
100
AcDbEntity
  8
1
  6
DOTTED
 62
     7
100
AcDbLine
 10
-60.7500000000008
 20
-14.50000000000001
 30
0.0
 11
-60.7500000000008
 21
-17.40000000000011
 31
0.0
  0
LINE
  5
4F
330
1F
100
AcDbEntity
  8
1
  6
DOTTED
 62
     7
100
AcDbLine
 10
-60.7500000000008
 20
-17.40000000000011
 30
0.0
 11
-59.7500000000008
 21
-17.40000000000011
 31
0.0
  0
LINE
  5
50
330
1F
100
AcDbEntity
  8
1
  6
DOTTED
 62
     7
100
AcDbLine
 10
-59.7500000000008
 20
-15.50000000000001
 30
0.0
 11
-58.7500000000008
 21
-14.00000000000001
 31
0.0
  0
LINE
  5
51
330
1F
100
AcDbEntity
  8
1
  6
DOTTED
 62
     7
100
AcDbLine
 10
-58.7500000000008
 20
-14.00000000000001
 30
0.0
 11
-54.2500000000008
 21
-14.00000000000001
 31
0.0
  0
LINE
  5
52
330
1F
100
AcDbEntity
  8
1
  6
DOTTED
 62
     7
100
AcDbLine
 10
-53.2500000000008
 20
-13.00000000000001
 30
0.0
 11
-53.2500000000008
 21
13.0
 31
0.0
  0
LINE
  5
53
330
1F
100
AcDbEntity
  8
1
  6
DOTTED
 62
     7
100
AcDbLine
 10
-54.2500000000008
 20
14.0
 30
0.0
 11
-58.7500000000008
 21
14.0
 31
0.0
  0
LINE
  5
54
330
1F
100
AcDbEntity
  8
1
  6
DOTTED
 62
     7
100
AcDbLine
 10
-58.7500000000008
 20
14.0
 30
0.0
 11
-59.7500000000008
 21
15.5
 31
0.0
  0
LINE
  5
55
330
1F
100
AcDbEntity
  8
0
  6
Continuous
 62
     7
100
AcDbLine
 10
-148.0099999999999
 20
1.23128784747843
 30
0.0
 11
-157.7099999999999
 21
1.23128784747843
 31
0.0
  0
LINE
  5
56
330
1F
100
AcDbEntity
  8
0
  6
Continuous
 62
     7
100
AcDbLine
 10
-150.3599999999999
 20
-2.23500000000002
 30
0.0
 11
-149.2166660372619
 21
-2.23500000000002
 31
0.0
  0
LINE
  5
57
330
1F
100
AcDbEntity
  8
0
  6
Continuous
 62
     7
100
AcDbLine
 10
-149.2166660372619
 20
-2.23500000000002
 30
0.0
 11
-149.1849999999999
 21
-2.23500000000001
 31
0.0
  0
LINE
  5
58
330
1F
100
AcDbEntity
  8
0
  6
Continuous
 62
     7
100
AcDbLine
 10
-150.3599999999999
 20
0.11499999999997
 30
0.0
 11
-149.2166660372619
 21
0.11499999999999
 31
0.0
  0
LINE
  5
59
330
1F
100
AcDbEntity
  8
0
  6
Continuous
 62
     7
100
AcDbLine
 10
-149.2166660372619
 20
0.11499999999999
 30
0.0
 11
-149.1849999999999
 21
0.11499999999999
 31
0.0
  0
LINE
  5
5A
330
1F
100
AcDbEntity
  8
0
  6
Continuous
 62
     7
100
AcDbLine
 10
-150.3599999999999
 20
0.11499999999997
 30
0.0
 11
-150.3599999999999
 21
-2.23500000000002
 31
0.0
  0
LINE
  5
5B
330
1F
100
AcDbEntity
  8
0
  6
Continuous
 62
     7
100
AcDbLine
 10
-148.0099999999999
 20
-1.06000000000001
 30
0.0
 11
-148.0099999999999
 21
1.23128784747843
 31
0.0
  0
LINE
  5
5C
330
1F
100
AcDbEntity
  8
0
  6
Continuous
 62
     7
100
AcDbLine
 10
-157.71
 20
-0.86000000000002
 30
0.0
 11
-157.7099999999999
 21
-1.06000000000002
 31
0.0
  0
LINE
  5
5D
330
1F
100
AcDbEntity
  8
0
  6
Continuous
 62
     7
100
AcDbLine
 10
-157.7099999999999
 20
-1.06000000000002
 30
0.0
 11
-157.71
 21
-2.47245154965973
 31
0.0
  0
LINE
  5
5E
330
1F
100
AcDbEntity
  8
0
  6
Continuous
 62
     7
100
AcDbLine
 10
-157.71
 20
0.75245154965969
 30
0.0
 11
-157.71
 21
-0.86000000000002
 31
0.0
  0
LINE
  5
5F
330
1F
100
AcDbEntity
  8
0
  6
Continuous
 62
     7
100
AcDbLine
 10
-157.71
 20
0.75245154965969
 30
0.0
 11
-157.7099999999999
 21
1.23128784747843
 31
0.0
  0
LINE
  5
60
330
1F
100
AcDbEntity
  8
0
  6
Continuous
 62
     7
100
AcDbLine
 10
-157.7099999999999
 20
1.23128784747843
 30
0.0
 11
-157.7099999999999
 21
1.72871215252159
 31
0.0
  0
LINE
  5
61
330
1F
100
AcDbEntity
  8
0
  6
Continuous
 62
     7
100
AcDbLine
 10
-159.7150681158185
 20
0.88999999999998
 30
0.0
 11
-159.4799999999999
 21
0.88999999999998
 31
0.0
  0
LINE
  5
62
330
1F
100
AcDbEntity
  8
0
  6
Continuous
 62
     7
100
AcDbLine
 10
-159.4799999999999
 20
0.88999999999998
 30
0.0
 11
-158.7099999999999
 21
0.88999999999998
 31
0.0
  0
LINE
  5
63
330
1F
100
AcDbEntity
  8
0
  6
Continuous
 62
     7
100
AcDbLine
 10
-158.5099999999999
 20
0.31499999999998
 30
0.0
 11
-158.5099999999999
 21
0.88999999999998
 31
0.0
  0
LINE
  5
64
330
1F
100
AcDbEntity
  8
0
  6
Continuous
 62
     7
100
AcDbLine
 10
-159.7150681158185
 20
-3.01000000000003
 30
0.0
 11
-159.4799999999999
 21
-3.01000000000003
 31
0.0
  0
LINE
  5
65
330
1F
100
AcDbEntity
  8
0
  6
Continuous
 62
     7
100
AcDbLine
 10
-159.4799999999999
 20
-3.01000000000003
 30
0.0
 11
-158.7099999999999
 21
-3.01000000000003
 31
0.0
  0
LINE
  5
66
330
1F
100
AcDbEntity
  8
0
  6
Continuous
 62
     7
100
AcDbLine
 10
-159.7099999999999
 20
0.98999999999997
 30
0.0
 11
-158.7099999999999
 21
0.98999999999997
 31
0.0
  0
LINE
  5
67
330
1F
100
AcDbEntity
  8
0
  6
Continuous
 62
     7
100
AcDbLine
 10
-158.5099999999999
 20
0.98999999999997
 30
0.0
 11
-158.5099999999999
 21
1.33999999999998
 31
0.0
  0
LINE
  5
68
330
1F
100
AcDbEntity
  8
0
  6
Continuous
 62
     7
100
AcDbLine
 10
-159.7150681158185
 20
-3.01000000000003
 30
0.0
 11
-160.3799999999999
 21
-3.01000000000003
 31
0.0
  0
LINE
  5
69
330
1F
100
AcDbEntity
  8
0
  6
Continuous
 62
     7
100
AcDbLine
 10
-160.3799999999999
 20
-3.01000000000003
 30
0.0
 11
-160.3841099034844
 21
-3.01000000000003
 31
0.0
  0
LINE
  5
6A
330
1F
100
AcDbEntity
  8
0
  6
Continuous
 62
     7
100
AcDbLine
 10
-160.0099999999999
 20
0.98999999999997
 30
0.0
 11
-160.0099999999999
 21
1.97000000000004
 31
0.0
  0
LINE
  5
6B
330
1F
100
AcDbEntity
  8
0
  6
Continuous
 62
     7
100
AcDbLine
 10
-160.0099999999999
 20
0.98999999999997
 30
0.0
 11
-159.8367854785221
 21
0.98999999999997
 31
0.0
  0
LINE
  5
6C
330
1F
100
AcDbEntity
  8
0
  6
Continuous
 62
     7
100
AcDbLine
 10
-159.8367854785221
 20
0.98999999999997
 30
0.0
 11
-159.7099999999999
 21
0.98999999999997
 31
0.0
  0
LINE
  5
6D
330
1F
100
AcDbEntity
  8
0
  6
Continuous
 62
     7
100
AcDbLine
 10
-159.7150681158185
 20
0.88999999999998
 30
0.0
 11
-160.3799999999999
 21
0.88999999999998
 31
0.0
  0
LINE
  5
6E
330
1F
100
AcDbEntity
  8
0
  6
Continuous
 62
     7
100
AcDbLine
 10
-160.3799999999999
 20
0.88999999999998
 30
0.0
 11
-160.3841099034844
 21
0.88999999999998
 31
0.0
  0
LINE
  5
6F
330
1F
100
AcDbEntity
  8
0
  6
Continuous
 62
     7
100
AcDbLine
 10
-158.5099999999999
 20
-3.06000000000001
 30
0.0
 11
-158.5099999999999
 21
-2.43500000000002
 31
0.0
  0
LINE
  5
70
330
1F
100
AcDbEntity
  8
0
  6
Continuous
 62
     7
100
AcDbLine
 10
-158.5099999999999
 20
-2.43500000000002
 30
0.0
 11
-158.5099999999999
 21
0.31499999999998
 31
0.0
  0
LINE
  5
71
330
1F
100
AcDbEntity
  8
0
  6
Continuous
 62
     7
100
AcDbLine
 10
-148.0099999999999
 20
-3.35128784747846
 30
0.0
 11
-148.0099999999999
 21
-1.06000000000001
 31
0.0
  0
LINE
  5
72
330
1F
100
AcDbEntity
  8
0
  6
Continuous
 62
     7
100
AcDbLine
 10
-157.7099999999999
 20
-3.35128784747847
 30
0.0
 11
-157.71
 21
-2.47245154965973
 31
0.0
  0
LINE
  5
73
330
1F
100
AcDbEntity
  8
0
  6
Continuous
 62
     7
100
AcDbLine
 10
-148.0099999999999
 20
-3.35128784747846
 30
0.0
 11
-157.7099999999999
 21
-3.35128784747847
 31
0.0
  0
LINE
  5
74
330
1F
100
AcDbEntity
  8
0
  6
Continuous
 62
     7
100
AcDbLine
 10
-159.8367854785221
 20
-3.11000000000002
 30
0.0
 11
-160.0099999999999
 21
-3.11000000000002
 31
0.0
  0
LINE
  5
75
330
1F
100
AcDbEntity
  8
0
  6
Continuous
 62
     7
100
AcDbLine
 10
-158.7099999999999
 20
-3.11000000000002
 30
0.0
 11
-159.7099999999999
 21
-3.11000000000002
 31
0.0
  0
LINE
  5
76
330
1F
100
AcDbEntity
  8
0
  6
Continuous
 62
     7
100
AcDbLine
 10
-159.7099999999999
 20
-3.11000000000002
 30
0.0
 11
-159.8367854785221
 21
-3.11000000000002
 31
0.0
  0
LINE
  5
77
330
1F
100
AcDbEntity
  8
0
  6
Continuous
 62
     7
100
AcDbLine
 10
-158.5099999999999
 20
-3.11000000000002
 30
0.0
 11
-158.5099999999999
 21
-3.06000000000001
 31
0.0
  0
LINE
  5
78
330
1F
100
AcDbEntity
  8
0
  6
Continuous
 62
     7
100
AcDbLine
 10
-158.5099999999999
 20
0.88999999999998
 30
0.0
 11
-158.5099999999999
 21
0.98999999999997
 31
0.0
  0
LINE
  5
79
330
1F
100
AcDbEntity
  8
0
  6
Continuous
 62
     7
100
AcDbLine
 10
-158.5099999999999
 20
1.33999999999998
 30
0.0
 11
-158.5099999999999
 21
1.97000000000004
 31
0.0
  0
LINE
  5
7A
330
1F
100
AcDbEntity
  8
0
  6
Continuous
 62
     7
100
AcDbLine
 10
-160.3841099034844
 20
-3.01000000000003
 30
0.0
 11
-160.5799999999999
 21
-3.01000000000003
 31
0.0
  0
LINE
  5
7B
330
1F
100
AcDbEntity
  8
0
  6
Continuous
 62
     7
100
AcDbLine
 10
-160.3841099034844
 20
0.88999999999998
 30
0.0
 11
-160.5799999999999
 21
0.88999999999998
 31
0.0
  0
LINE
  5
7C
330
1F
100
AcDbEntity
  8
0
  6
Continuous
 62
     7
100
AcDbLine
 10
-160.5799999999999
 20
-3.01000000000003
 30
0.0
 11
-160.5799999999999
 21
0.88999999999998
 31
0.0
  0
LINE
  5
7D
330
1F
100
AcDbEntity
  8
0
  6
Continuous
 62
     7
100
AcDbLine
 10
-158.7099999999999
 20
-3.11000000000002
 30
0.0
 11
-158.7099999999999
 21
0.98999999999997
 31
0.0
  0
LINE
  5
7E
330
1F
100
AcDbEntity
  8
0
  6
Continuous
 62
     7
100
AcDbLine
 10
-158.7099999999999
 20
0.98999999999997
 30
0.0
 11
-158.7099999999999
 21
1.97000000000004
 31
0.0
  0
LINE
  5
7F
330
1F
100
AcDbEntity
  8
0
  6
Continuous
 62
     7
100
AcDbLine
 10
-158.7099999999999
 20
-4.09000000000002
 30
0.0
 11
-158.7099999999999
 21
-3.11000000000002
 31
0.0
  0
LINE
  5
80
330
1F
100
AcDbEntity
  8
0
  6
Continuous
 62
     7
100
AcDbLine
 10
-158.7099999999999
 20
-8.19000000000001
 30
0.0
 11
-158.7099999999999
 21
-4.09000000000002
 31
0.0
  0
LINE
  5
81
330
1F
100
AcDbEntity
  8
0
  6
Continuous
 62
     7
100
AcDbLine
 10
-160.5799999999999
 20
-8.09000000000002
 30
0.0
 11
-160.5799999999999
 21
-4.19000000000002
 31
0.0
  0
LINE
  5
82
330
1F
100
AcDbEntity
  8
0
  6
Continuous
 62
     7
100
AcDbLine
 10
-160.3841099034844
 20
-4.19000000000002
 30
0.0
 11
-160.5799999999999
 21
-4.19000000000002
 31
0.0
  0
LINE
  5
83
330
1F
100
AcDbEntity
  8
0
  6
Continuous
 62
     7
100
AcDbLine
 10
-160.3841099034844
 20
-8.09000000000002
 30
0.0
 11
-160.5799999999999
 21
-8.09000000000002
 31
0.0
  0
LINE
  5
84
330
1F
100
AcDbEntity
  8
0
  6
Continuous
 62
     7
100
AcDbLine
 10
-158.5099999999999
 20
-3.74000000000001
 30
0.0
 11
-158.5099999999999
 21
-3.11000000000002
 31
0.0
  0
LINE
  5
85
330
1F
100
AcDbEntity
  8
0
  6
Continuous
 62
     7
100
AcDbLine
 10
-158.5099999999999
 20
-4.19000000000002
 30
0.0
 11
-158.5099999999999
 21
-4.09000000000002
 31
0.0
  0
LINE
  5
86
330
1F
100
AcDbEntity
  8
0
  6
Continuous
 62
     7
100
AcDbLine
 10
-158.5099999999999
 20
-8.19000000000001
 30
0.0
 11
-158.5099999999999
 21
-8.14000000000001
 31
0.0
  0
LINE
  5
87
330
1F
100
AcDbEntity
  8
0
  6
Continuous
 62
     7
100
AcDbLine
 10
-159.7099999999999
 20
-8.19000000000002
 30
0.0
 11
-159.8367854785221
 21
-8.19000000000002
 31
0.0
  0
LINE
  5
88
330
1F
100
AcDbEntity
  8
0
  6
Continuous
 62
     7
100
AcDbLine
 10
-158.7099999999999
 20
-8.19000000000001
 30
0.0
 11
-159.7099999999999
 21
-8.19000000000002
 31
0.0
  0
LINE
  5
89
330
1F
100
AcDbEntity
  8
0
  6
Continuous
 62
     7
100
AcDbLine
 10
-159.8367854785221
 20
-8.19000000000002
 30
0.0
 11
-160.0099999999999
 21
-8.19000000000002
 31
0.0
  0
LINE
  5
8A
330
1F
100
AcDbEntity
  8
0
  6
Continuous
 62
     7
100
AcDbLine
 10
-148.0099999999999
 20
-8.43128784747846
 30
0.0
 11
-157.7099999999999
 21
-8.43128784747847
 31
0.0
  0
LINE
  5
8B
330
1F
100
AcDbEntity
  8
0
  6
Continuous
 62
     7
100
AcDbLine
 10
-157.7099999999999
 20
-8.43128784747847
 30
0.0
 11
-157.71
 21
-7.55245154965973
 31
0.0
  0
LINE
  5
8C
330
1F
100
AcDbEntity
  8
0
  6
Continuous
 62
     7
100
AcDbLine
 10
-148.0099999999999
 20
-8.43128784747846
 30
0.0
 11
-148.0099999999999
 21
-6.14000000000001
 31
0.0
  0
LINE
  5
8D
330
1F
100
AcDbEntity
  8
0
  6
Continuous
 62
     7
100
AcDbLine
 10
-158.5099999999999
 20
-7.51500000000001
 30
0.0
 11
-158.5099999999999
 21
-4.76500000000002
 31
0.0
  0
LINE
  5
8E
330
1F
100
AcDbEntity
  8
0
  6
Continuous
 62
     7
100
AcDbLine
 10
-158.5099999999999
 20
-8.14000000000001
 30
0.0
 11
-158.5099999999999
 21
-7.51500000000001
 31
0.0
  0
LINE
  5
8F
330
1F
100
AcDbEntity
  8
0
  6
Continuous
 62
     7
100
AcDbLine
 10
-160.3799999999999
 20
-4.19000000000002
 30
0.0
 11
-160.3841099034844
 21
-4.19000000000002
 31
0.0
  0
LINE
  5
90
330
1F
100
AcDbEntity
  8
0
  6
Continuous
 62
     7
100
AcDbLine
 10
-159.7150681158185
 20
-4.19000000000002
 30
0.0
 11
-160.3799999999999
 21
-4.19000000000002
 31
0.0
  0
LINE
  5
91
330
1F
100
AcDbEntity
  8
0
  6
Continuous
 62
     7
100
AcDbLine
 10
-159.8367854785221
 20
-4.09000000000002
 30
0.0
 11
-159.7099999999999
 21
-4.09000000000002
 31
0.0
  0
LINE
  5
92
330
1F
100
AcDbEntity
  8
0
  6
Continuous
 62
     7
100
AcDbLine
 10
-160.0099999999999
 20
-4.09000000000002
 30
0.0
 11
-159.8367854785221
 21
-4.09000000000002
 31
0.0
  0
LINE
  5
93
330
1F
100
AcDbEntity
  8
0
  6
Continuous
 62
     7
100
AcDbLine
 10
-160.0099999999999
 20
-4.09000000000002
 30
0.0
 11
-160.0099999999999
 21
-3.11000000000002
 31
0.0
  0
LINE
  5
94
330
1F
100
AcDbEntity
  8
0
  6
Continuous
 62
     7
100
AcDbLine
 10
-160.3799999999999
 20
-8.09000000000002
 30
0.0
 11
-160.3841099034844
 21
-8.09000000000002
 31
0.0
  0
LINE
  5
95
330
1F
100
AcDbEntity
  8
0
  6
Continuous
 62
     7
100
AcDbLine
 10
-159.7150681158185
 20
-8.09000000000002
 30
0.0
 11
-160.3799999999999
 21
-8.09000000000002
 31
0.0
  0
LINE
  5
96
330
1F
100
AcDbEntity
  8
0
  6
Continuous
 62
     7
100
AcDbLine
 10
-158.5099999999999
 20
-4.09000000000002
 30
0.0
 11
-158.5099999999999
 21
-3.74000000000001
 31
0.0
  0
LINE
  5
97
330
1F
100
AcDbEntity
  8
0
  6
Continuous
 62
     7
100
AcDbLine
 10
-159.7099999999999
 20
-4.09000000000002
 30
0.0
 11
-158.7099999999999
 21
-4.09000000000002
 31
0.0
  0
LINE
  5
98
330
1F
100
AcDbEntity
  8
0
  6
Continuous
 62
     7
100
AcDbLine
 10
-159.4799999999999
 20
-8.09000000000002
 30
0.0
 11
-158.7099999999999
 21
-8.09000000000002
 31
0.0
  0
LINE
  5
99
330
1F
100
AcDbEntity
  8
0
  6
Continuous
 62
     7
100
AcDbLine
 10
-159.7150681158185
 20
-8.09000000000002
 30
0.0
 11
-159.4799999999999
 21
-8.09000000000002
 31
0.0
  0
LINE
  5
9A
330
1F
100
AcDbEntity
  8
0
  6
Continuous
 62
     7
100
AcDbLine
 10
-158.5099999999999
 20
-4.76500000000002
 30
0.0
 11
-158.5099999999999
 21
-4.19000000000002
 31
0.0
  0
LINE
  5
9B
330
1F
100
AcDbEntity
  8
0
  6
Continuous
 62
     7
100
AcDbLine
 10
-159.4799999999999
 20
-4.19000000000002
 30
0.0
 11
-158.7099999999999
 21
-4.19000000000002
 31
0.0
  0
LINE
  5
9C
330
1F
100
AcDbEntity
  8
0
  6
Continuous
 62
     7
100
AcDbLine
 10
-159.7150681158185
 20
-4.19000000000002
 30
0.0
 11
-159.4799999999999
 21
-4.19000000000002
 31
0.0
  0
LINE
  5
9D
330
1F
100
AcDbEntity
  8
0
  6
Continuous
 62
     7
100
AcDbLine
 10
-157.7099999999999
 20
-3.84871215252156
 30
0.0
 11
-157.7099999999999
 21
-3.35128784747847
 31
0.0
  0
LINE
  5
9E
330
1F
100
AcDbEntity
  8
0
  6
Continuous
 62
     7
100
AcDbLine
 10
-157.71
 20
-4.32754845034031
 30
0.0
 11
-157.7099999999999
 21
-3.84871215252156
 31
0.0
  0
LINE
  5
9F
330
1F
100
AcDbEntity
  8
0
  6
Continuous
 62
     7
100
AcDbLine
 10
-157.71
 20
-4.32754845034031
 30
0.0
 11
-157.71
 21
-5.94000000000002
 31
0.0
  0
LINE
  5
A0
330
1F
100
AcDbEntity
  8
0
  6
Continuous
 62
     7
100
AcDbLine
 10
-157.7099999999999
 20
-6.14000000000001
 30
0.0
 11
-157.71
 21
-7.55245154965973
 31
0.0
  0
LINE
  5
A1
330
1F
100
AcDbEntity
  8
0
  6
Continuous
 62
     7
100
AcDbLine
 10
-157.71
 20
-5.94000000000002
 30
0.0
 11
-157.7099999999999
 21
-6.14000000000001
 31
0.0
  0
LINE
  5
A2
330
1F
100
AcDbEntity
  8
0
  6
Continuous
 62
     7
100
AcDbLine
 10
-148.0099999999999
 20
-6.14000000000001
 30
0.0
 11
-148.0099999999999
 21
-3.84871215252156
 31
0.0
  0
LINE
  5
A3
330
1F
100
AcDbEntity
  8
0
  6
Continuous
 62
     7
100
AcDbLine
 10
-150.3599999999999
 20
-4.96500000000002
 30
0.0
 11
-150.3599999999999
 21
-7.31500000000002
 31
0.0
  0
LINE
  5
A4
330
1F
100
AcDbEntity
  8
0
  6
Continuous
 62
     7
100
AcDbLine
 10
-149.2166660372619
 20
-4.96500000000001
 30
0.0
 11
-149.1849999999999
 21
-4.96500000000001
 31
0.0
  0
LINE
  5
A5
330
1F
100
AcDbEntity
  8
0
  6
Continuous
 62
     7
100
AcDbLine
 10
-150.3599999999999
 20
-4.96500000000002
 30
0.0
 11
-149.2166660372619
 21
-4.96500000000001
 31
0.0
  0
LINE
  5
A6
330
1F
100
AcDbEntity
  8
0
  6
Continuous
 62
     7
100
AcDbLine
 10
-149.2166660372619
 20
-7.31500000000002
 30
0.0
 11
-149.1849999999999
 21
-7.315
 31
0.0
  0
LINE
  5
A7
330
1F
100
AcDbEntity
  8
0
  6
Continuous
 62
     7
100
AcDbLine
 10
-150.3599999999999
 20
-7.31500000000002
 30
0.0
 11
-149.2166660372619
 21
-7.31500000000002
 31
0.0
  0
LINE
  5
A8
330
1F
100
AcDbEntity
  8
0
  6
Continuous
 62
     7
100
AcDbLine
 10
-148.0099999999999
 20
-3.84871215252156
 30
0.0
 11
-157.7099999999999
 21
-3.84871215252156
 31
0.0
  0
LINE
  5
A9
330
1F
100
AcDbEntity
  8
0
  6
Continuous
 62
     7
100
AcDbLine
 10
-155.36
 20
-29.0
 30
0.0
 11
-143.7799999999999
 21
-29.0
 31
0.0
  0
LINE
  5
AA
330
1F
100
AcDbEntity
  8
0
  6
Continuous
 62
     7
100
AcDbLine
 10
-143.7799999999999
 20
-29.0
 30
0.0
 11
-143.2799999999999
 21
-29.0
 31
0.0
  0
LINE
  5
AB
330
1F
100
AcDbEntity
  8
0
  6
Continuous
 62
     7
100
AcDbLine
 10
-148.0099999999999
 20
-26.46000000000001
 30
0.0
 11
-148.0099999999999
 21
-24.16871215252161
 31
0.0
  0
LINE
  5
AC
330
1F
100
AcDbEntity
  8
0
  6
Continuous
 62
     7
100
AcDbLine
 10
-148.0099999999999
 20
-28.75128784747851
 30
0.0
 11
-148.0099999999999
 21
-26.46000000000001
 31
0.0
  0
LINE
  5
AD
330
1F
100
AcDbEntity
  8
0
  6
Continuous
 62
     7
100
AcDbLine
 10
-148.0099999999999
 20
-28.75128784747851
 30
0.0
 11
-157.7099999999999
 21
-28.75128784747851
 31
0.0
  0
LINE
  5
AE
330
1F
100
AcDbEntity
  8
0
  6
Continuous
 62
     7
100
AcDbLine
 10
-155.36
 20
-29.0
 30
0.0
 11
-157.7099999999999
 21
-29.0
 31
0.0
  0
LINE
  5
AF
330
1F
100
AcDbEntity
  8
0
  6
Continuous
 62
     7
100
AcDbLine
 10
-159.8367854785221
 20
-29.0
 30
0.0
 11
-159.7099999999999
 21
-29.0
 31
0.0
  0
LINE
  5
B0
330
1F
100
AcDbEntity
  8
0
  6
Continuous
 62
     7
100
AcDbLine
 10
-159.8367854785221
 20
-28.51000000000001
 30
0.0
 11
-159.7099999999999
 21
-28.51000000000001
 31
0.0
  0
LINE
  5
B1
330
1F
100
AcDbEntity
  8
0
  6
Continuous
 62
     7
100
AcDbLine
 10
-159.7099999999999
 20
-29.0
 30
0.0
 11
-158.7099999999999
 21
-29.0
 31
0.0
  0
LINE
  5
B2
330
1F
100
AcDbEntity
  8
0
  6
Continuous
 62
     7
100
AcDbLine
 10
-160.0099999999999
 20
-29.0
 30
0.0
 11
-160.0099999999999
 21
-28.51000000000001
 31
0.0
  0
LINE
  5
B3
330
1F
100
AcDbEntity
  8
0
  6
Continuous
 62
     7
100
AcDbLine
 10
-159.7099999999999
 20
-28.51000000000001
 30
0.0
 11
-158.7099999999999
 21
-28.51000000000001
 31
0.0
  0
LINE
  5
B4
330
1F
100
AcDbEntity
  8
0
  6
Continuous
 62
     7
100
AcDbLine
 10
-160.0099999999999
 20
-29.0
 30
0.0
 11
-159.8367854785221
 21
-29.0
 31
0.0
  0
LINE
  5
B5
330
1F
100
AcDbEntity
  8
0
  6
Continuous
 62
     7
100
AcDbLine
 10
-160.0099999999999
 20
-28.51000000000001
 30
0.0
 11
-159.8367854785221
 21
-28.51000000000001
 31
0.0
  0
LINE
  5
B6
330
1F
100
AcDbEntity
  8
0
  6
Continuous
 62
     7
100
AcDbLine
 10
-160.5799999999999
 20
-24.51000000000001
 30
0.0
 11
-160.3841099034844
 21
-24.51000000000001
 31
0.0
  0
LINE
  5
B7
330
1F
100
AcDbEntity
  8
0
  6
Continuous
 62
     7
100
AcDbLine
 10
-145.0441016151376
 20
-25.52000000000001
 30
0.0
 11
-146.7139745962153
 21
-25.52000000000001
 31
0.0
  0
LINE
  5
B8
330
1F
100
AcDbEntity
  8
0
  6
Continuous
 62
     7
100
AcDbLine
 10
-146.7139745962153
 20
-25.52000000000001
 30
0.0
 11
-147.7139745962151
 21
-25.52000000000001
 31
0.0
  0
LINE
  5
B9
330
1F
100
AcDbEntity
  8
0
  6
Continuous
 62
     7
100
AcDbLine
 10
-149.2166660372619
 20
-27.63500000000001
 30
0.0
 11
-149.1849999999999
 21
-27.63500000000001
 31
0.0
  0
LINE
  5
BA
330
1F
100
AcDbEntity
  8
0
  6
Continuous
 62
     7
100
AcDbLine
 10
-149.2166660372619
 20
-27.63500000000001
 30
0.0
 11
-150.3599999999999
 21
-27.63500000000001
 31
0.0
  0
LINE
  5
BB
330
1F
100
AcDbEntity
  8
0
  6
Continuous
 62
     7
100
AcDbLine
 10
-145.0441016151376
 20
-25.52000000000001
 30
0.0
 11
-144.0441016151376
 21
-25.52000000000001
 31
0.0
  0
LINE
  5
BC
330
1F
100
AcDbEntity
  8
0
  6
Continuous
 62
     7
100
AcDbLine
 10
-143.7799999999998
 20
-25.52000000000001
 30
0.0
 11
-144.0441016151376
 21
-25.52000000000001
 31
0.0
  0
LINE
  5
BD
330
1F
100
AcDbEntity
  8
0
  6
Continuous
 62
     7
100
AcDbLine
 10
-143.4669141837902
 20
-25.52000000000001
 30
0.0
 11
-143.2499999999997
 21
-25.52000000000001
 31
0.0
  0
LINE
  5
BE
330
1F
100
AcDbEntity
  8
0
  6
Continuous
 62
     7
100
AcDbLine
 10
-143.7799999999998
 20
-25.52000000000001
 30
0.0
 11
-143.4669141837902
 21
-25.52000000000001
 31
0.0
  0
LINE
  5
BF
330
1F
100
AcDbEntity
  8
0
  6
Continuous
 62
     7
100
AcDbLine
 10
-150.3599999999999
 20
-27.63500000000001
 30
0.0
 11
-150.3599999999999
 21
-25.28500000000001
 31
0.0
  0
LINE
  5
C0
330
1F
100
AcDbEntity
  8
0
  6
Continuous
 62
     7
100
AcDbLine
 10
-149.2166660372619
 20
-25.28500000000001
 30
0.0
 11
-149.1849999999999
 21
-25.28500000000001
 31
0.0
  0
LINE
  5
C1
330
1F
100
AcDbEntity
  8
0
  6
Continuous
 62
     7
100
AcDbLine
 10
-149.2166660372619
 20
-25.28500000000001
 30
0.0
 11
-150.3599999999999
 21
-25.28500000000001
 31
0.0
  0
LINE
  5
C2
330
1F
100
AcDbEntity
  8
0
  6
Continuous
 62
     7
100
AcDbLine
 10
-159.7150681158185
 20
-24.51000000000001
 30
0.0
 11
-159.4799999999999
 21
-24.51000000000001
 31
0.0
  0
LINE
  5
C3
330
1F
100
AcDbEntity
  8
0
  6
Continuous
 62
     7
100
AcDbLine
 10
-160.3799999999999
 20
-24.51000000000001
 30
0.0
 11
-159.7150681158185
 21
-24.51000000000001
 31
0.0
  0
LINE
  5
C4
330
1F
100
AcDbEntity
  8
0
  6
Continuous
 62
     7
100
AcDbLine
 10
-159.4799999999999
 20
-24.51000000000001
 30
0.0
 11
-158.7099999999999
 21
-24.51000000000001
 31
0.0
  0
LINE
  5
C5
330
1F
100
AcDbEntity
  8
0
  6
Continuous
 62
     7
100
AcDbLine
 10
-160.3841099034844
 20
-24.51000000000001
 30
0.0
 11
-160.3799999999999
 21
-24.51000000000001
 31
0.0
  0
LINE
  5
C6
330
1F
100
AcDbEntity
  8
0
  6
Continuous
 62
     7
100
AcDbLine
 10
-160.5799999999999
 20
-28.41000000000001
 30
0.0
 11
-160.3841099034844
 21
-28.41000000000001
 31
0.0
  0
LINE
  5
C7
330
1F
100
AcDbEntity
  8
0
  6
Continuous
 62
     7
100
AcDbLine
 10
-160.3841099034844
 20
-28.41000000000001
 30
0.0
 11
-160.3799999999999
 21
-28.41000000000001
 31
0.0
  0
LINE
  5
C8
330
1F
100
AcDbEntity
  8
0
  6
Continuous
 62
     7
100
AcDbLine
 10
-159.7150681158185
 20
-28.41000000000001
 30
0.0
 11
-159.4799999999999
 21
-28.41000000000001
 31
0.0
  0
LINE
  5
C9
330
1F
100
AcDbEntity
  8
0
  6
Continuous
 62
     7
100
AcDbLine
 10
-160.3799999999999
 20
-28.41000000000001
 30
0.0
 11
-159.7150681158185
 21
-28.41000000000001
 31
0.0
  0
LINE
  5
CA
330
1F
100
AcDbEntity
  8
0
  6
Continuous
 62
     7
100
AcDbLine
 10
-159.4799999999999
 20
-28.41000000000001
 30
0.0
 11
-158.7099999999999
 21
-28.41000000000001
 31
0.0
  0
LINE
  5
CB
330
1F
100
AcDbEntity
  8
0
  6
Continuous
 62
     7
100
AcDbLine
 10
-160.5799999999999
 20
-28.41000000000001
 30
0.0
 11
-160.5799999999999
 21
-24.51000000000001
 31
0.0
  0
LINE
  5
CC
330
1F
100
AcDbEntity
  8
0
  6
Continuous
 62
     7
100
AcDbLine
 10
-143.7799999999999
 20
-29.0
 30
0.0
 11
-143.7799999999998
 21
-25.52000000000001
 31
0.0
  0
LINE
  5
CD
330
1F
100
AcDbEntity
  8
0
  6
Continuous
 62
     7
100
AcDbLine
 10
-157.71
 20
-19.5675484503403
 30
0.0
 11
-157.7099999999999
 21
-19.08871215252155
 31
0.0
  0
LINE
  5
CE
330
1F
100
AcDbEntity
  8
0
  6
Continuous
 62
     7
100
AcDbLine
 10
-157.7099999999999
 20
-19.08871215252155
 30
0.0
 11
-157.7099999999999
 21
-18.59128784747847
 31
0.0
  0
LINE
  5
CF
330
1F
100
AcDbEntity
  8
0
  6
Continuous
 62
     7
100
AcDbLine
 10
-160.3799999999999
 20
-19.43000000000001
 30
0.0
 11
-160.3841099034844
 21
-19.43000000000001
 31
0.0
  0
LINE
  5
D0
330
1F
100
AcDbEntity
  8
0
  6
Continuous
 62
     7
100
AcDbLine
 10
-160.3841099034844
 20
-19.43000000000001
 30
0.0
 11
-160.5799999999999
 21
-19.43000000000001
 31
0.0
  0
LINE
  5
D1
330
1F
100
AcDbEntity
  8
0
  6
Continuous
 62
     7
100
AcDbLine
 10
-160.3799999999999
 20
-23.33
 30
0.0
 11
-160.3841099034844
 21
-23.33
 31
0.0
  0
LINE
  5
D2
330
1F
100
AcDbEntity
  8
0
  6
Continuous
 62
     7
100
AcDbLine
 10
-160.3841099034844
 20
-23.33
 30
0.0
 11
-160.5799999999999
 21
-23.33
 31
0.0
  0
LINE
  5
D3
330
1F
100
AcDbEntity
  8
0
  6
Continuous
 62
     7
100
AcDbLine
 10
-160.5799999999999
 20
-23.33
 30
0.0
 11
-160.5799999999999
 21
-19.43000000000001
 31
0.0
  0
LINE
  5
D4
330
1F
100
AcDbEntity
  8
0
  6
Continuous
 62
     7
100
AcDbLine
 10
-148.0099999999999
 20
-21.38000000000001
 30
0.0
 11
-148.0099999999999
 21
-19.08871215252155
 31
0.0
  0
LINE
  5
D5
330
1F
100
AcDbEntity
  8
0
  6
Continuous
 62
     7
100
AcDbLine
 10
-143.4669141837902
 20
1.48000000000004
 30
0.0
 11
-143.2499999999997
 21
1.48000000000004
 31
0.0
  0
LINE
  5
D6
330
1F
100
AcDbEntity
  8
0
  6
Continuous
 62
     7
100
AcDbLine
 10
-143.4669141837902
 20
3.08000000000004
 30
0.0
 11
-143.2499999999997
 21
3.08000000000004
 31
0.0
  0
LINE
  5
D7
330
1F
100
AcDbEntity
  8
0
  6
Continuous
 62
     7
100
AcDbLine
 10
-148.0099999999999
 20
-19.08871215252155
 30
0.0
 11
-157.7099999999999
 21
-19.08871215252155
 31
0.0
  0
LINE
  5
D8
330
1F
100
AcDbEntity
  8
0
  6
Continuous
 62
     7
100
AcDbLine
 10
-160.0099999999999
 20
-18.35000000000001
 30
0.0
 11
-159.8367854785221
 21
-18.35000000000001
 31
0.0
  0
LINE
  5
D9
330
1F
100
AcDbEntity
  8
0
  6
Continuous
 62
     7
100
AcDbLine
 10
-159.8367854785221
 20
-18.35000000000001
 30
0.0
 11
-159.7099999999999
 21
-18.35000000000001
 31
0.0
  0
LINE
  5
DA
330
1F
100
AcDbEntity
  8
0
  6
Continuous
 62
     7
100
AcDbLine
 10
-158.7099999999999
 20
-18.35000000000001
 30
0.0
 11
-159.7099999999999
 21
-18.35000000000001
 31
0.0
  0
LINE
  5
DB
330
1F
100
AcDbEntity
  8
0
  6
Continuous
 62
     7
100
AcDbLine
 10
-159.7150681158185
 20
-18.25000000000001
 30
0.0
 11
-159.4799999999999
 21
-18.25000000000001
 31
0.0
  0
LINE
  5
DC
330
1F
100
AcDbEntity
  8
0
  6
Continuous
 62
     7
100
AcDbLine
 10
-160.3799999999999
 20
-18.25000000000001
 30
0.0
 11
-159.7150681158185
 21
-18.25000000000001
 31
0.0
  0
LINE
  5
DD
330
1F
100
AcDbEntity
  8
0
  6
Continuous
 62
     7
100
AcDbLine
 10
-159.4799999999999
 20
-18.25000000000001
 30
0.0
 11
-158.7099999999999
 21
-18.25000000000001
 31
0.0
  0
LINE
  5
DE
330
1F
100
AcDbEntity
  8
0
  6
Continuous
 62
     7
100
AcDbLine
 10
-160.3799999999999
 20
-18.25000000000001
 30
0.0
 11
-160.3841099034844
 21
-18.25000000000001
 31
0.0
  0
LINE
  5
DF
330
1F
100
AcDbEntity
  8
0
  6
Continuous
 62
     7
100
AcDbLine
 10
-160.3841099034844
 20
-18.25000000000001
 30
0.0
 11
-160.5799999999999
 21
-18.25000000000001
 31
0.0
  0
LINE
  5
E0
330
1F
100
AcDbEntity
  8
0
  6
Continuous
 62
     7
100
AcDbLine
 10
-160.5799999999999
 20
-18.25000000000001
 30
0.0
 11
-160.5799999999999
 21
-14.35000000000001
 31
0.0
  0
LINE
  5
E1
330
1F
100
AcDbEntity
  8
0
  6
Continuous
 62
     7
100
AcDbLine
 10
-160.3841099034844
 20
-14.35000000000001
 30
0.0
 11
-160.5799999999999
 21
-14.35000000000001
 31
0.0
  0
LINE
  5
E2
330
1F
100
AcDbEntity
  8
0
  6
Continuous
 62
     7
100
AcDbLine
 10
-160.3799999999999
 20
-14.35000000000001
 30
0.0
 11
-160.3841099034844
 21
-14.35000000000001
 31
0.0
  0
LINE
  5
E3
330
1F
100
AcDbEntity
  8
0
  6
Continuous
 62
     7
100
AcDbLine
 10
-155.0099999999999
 20
6.56000000000004
 30
0.0
 11
-143.7799999999999
 21
6.56000000000004
 31
0.0
  0
LINE
  5
E4
330
1F
100
AcDbEntity
  8
0
  6
Continuous
 62
     7
100
AcDbLine
 10
-149.2166660372619
 20
2.84500000000004
 30
0.0
 11
-149.1849999999999
 21
2.84500000000004
 31
0.0
  0
LINE
  5
E5
330
1F
100
AcDbEntity
  8
0
  6
Continuous
 62
     7
100
AcDbLine
 10
-148.0099999999999
 20
1.72871215252159
 30
0.0
 11
-148.0099999999999
 21
4.02000000000004
 31
0.0
  0
LINE
  5
E6
330
1F
100
AcDbEntity
  8
0
  6
Continuous
 62
     7
100
AcDbLine
 10
-148.0099999999999
 20
-8.92871215252156
 30
0.0
 11
-157.7099999999999
 21
-8.92871215252156
 31
0.0
  0
LINE
  5
E7
330
1F
100
AcDbEntity
  8
0
  6
Continuous
 62
     7
100
AcDbLine
 10
-148.0099999999999
 20
1.72871215252159
 30
0.0
 11
-157.7099999999999
 21
1.72871215252159
 31
0.0
  0
LINE
  5
E8
330
1F
100
AcDbEntity
  8
0
  6
Continuous
 62
     7
100
AcDbLine
 10
-150.3599999999999
 20
-12.39500000000001
 30
0.0
 11
-149.2166660372619
 21
-12.39500000000001
 31
0.0
  0
LINE
  5
E9
330
1F
100
AcDbEntity
  8
0
  6
Continuous
 62
     7
100
AcDbLine
 10
-149.2166660372619
 20
-12.39500000000001
 30
0.0
 11
-149.1849999999999
 21
-12.395
 31
0.0
  0
LINE
  5
EA
330
1F
100
AcDbEntity
  8
0
  6
Continuous
 62
     7
100
AcDbLine
 10
-150.3599999999999
 20
-10.04500000000002
 30
0.0
 11
-149.2166660372619
 21
-10.045
 31
0.0
  0
LINE
  5
EB
330
1F
100
AcDbEntity
  8
0
  6
Continuous
 62
     7
100
AcDbLine
 10
-149.2166660372619
 20
-10.045
 30
0.0
 11
-149.1849999999999
 21
-10.045
 31
0.0
  0
LINE
  5
EC
330
1F
100
AcDbEntity
  8
0
  6
Continuous
 62
     7
100
AcDbLine
 10
-150.3599999999999
 20
-10.04500000000002
 30
0.0
 11
-150.3599999999999
 21
-12.39500000000001
 31
0.0
  0
LINE
  5
ED
330
1F
100
AcDbEntity
  8
0
  6
Continuous
 62
     7
100
AcDbLine
 10
-148.0099999999999
 20
-11.22
 30
0.0
 11
-148.0099999999999
 21
-8.92871215252156
 31
0.0
  0
LINE
  5
EE
330
1F
100
AcDbEntity
  8
0
  6
Continuous
 62
     7
100
AcDbLine
 10
-157.71
 20
-11.02000000000001
 30
0.0
 11
-157.7099999999999
 21
-11.22000000000001
 31
0.0
  0
LINE
  5
EF
330
1F
100
AcDbEntity
  8
0
  6
Continuous
 62
     7
100
AcDbLine
 10
-157.7099999999999
 20
-11.22000000000001
 30
0.0
 11
-157.71
 21
-12.63245154965972
 31
0.0
  0
LINE
  5
F0
330
1F
100
AcDbEntity
  8
0
  6
Continuous
 62
     7
100
AcDbLine
 10
-157.71
 20
-9.4075484503403
 30
0.0
 11
-157.71
 21
-11.02000000000001
 31
0.0
  0
LINE
  5
F1
330
1F
100
AcDbEntity
  8
0
  6
Continuous
 62
     7
100
AcDbLine
 10
-157.71
 20
-9.4075484503403
 30
0.0
 11
-157.7099999999999
 21
-8.92871215252156
 31
0.0
  0
LINE
  5
F2
330
1F
100
AcDbEntity
  8
0
  6
Continuous
 62
     7
100
AcDbLine
 10
-157.7099999999999
 20
-8.92871215252156
 30
0.0
 11
-157.7099999999999
 21
-8.43128784747847
 31
0.0
  0
LINE
  5
F3
330
1F
100
AcDbEntity
  8
0
  6
Continuous
 62
     7
100
AcDbLine
 10
-157.7099999999999
 20
1.72871215252159
 30
0.0
 11
-157.71
 21
2.60754845034033
 31
0.0
  0
LINE
  5
F4
330
1F
100
AcDbEntity
  8
0
  6
Continuous
 62
     7
100
AcDbLine
 10
-159.7150681158185
 20
-9.27000000000001
 30
0.0
 11
-159.4799999999999
 21
-9.27000000000001
 31
0.0
  0
LINE
  5
F5
330
1F
100
AcDbEntity
  8
0
  6
Continuous
 62
     7
100
AcDbLine
 10
-159.4799999999999
 20
-9.27000000000001
 30
0.0
 11
-158.7099999999999
 21
-9.27000000000001
 31
0.0
  0
LINE
  5
F6
330
1F
100
AcDbEntity
  8
0
  6
Continuous
 62
     7
100
AcDbLine
 10
-158.5099999999999
 20
-9.84500000000001
 30
0.0
 11
-158.5099999999999
 21
-9.27000000000001
 31
0.0
  0
LINE
  5
F7
330
1F
100
AcDbEntity
  8
0
  6
Continuous
 62
     7
100
AcDbLine
 10
-159.7150681158185
 20
-13.17000000000002
 30
0.0
 11
-159.4799999999999
 21
-13.17000000000002
 31
0.0
  0
LINE
  5
F8
330
1F
100
AcDbEntity
  8
0
  6
Continuous
 62
     7
100
AcDbLine
 10
-159.4799999999999
 20
-13.17000000000002
 30
0.0
 11
-158.7099999999999
 21
-13.17000000000002
 31
0.0
  0
LINE
  5
F9
330
1F
100
AcDbEntity
  8
0
  6
Continuous
 62
     7
100
AcDbLine
 10
-159.7099999999999
 20
-9.17000000000002
 30
0.0
 11
-158.7099999999999
 21
-9.17000000000002
 31
0.0
  0
LINE
  5
FA
330
1F
100
AcDbEntity
  8
0
  6
Continuous
 62
     7
100
AcDbLine
 10
-158.7099999999999
 20
1.97000000000004
 30
0.0
 11
-159.7099999999999
 21
1.97000000000004
 31
0.0
  0
LINE
  5
FB
330
1F
100
AcDbEntity
  8
0
  6
Continuous
 62
     7
100
AcDbLine
 10
-158.5099999999999
 20
-9.17000000000002
 30
0.0
 11
-158.5099999999999
 21
-8.82000000000001
 31
0.0
  0
LINE
  5
FC
330
1F
100
AcDbEntity
  8
0
  6
Continuous
 62
     7
100
AcDbLine
 10
-160.0099999999999
 20
1.97000000000004
 30
0.0
 11
-159.8367854785221
 21
1.97000000000004
 31
0.0
  0
LINE
  5
FD
330
1F
100
AcDbEntity
  8
0
  6
Continuous
 62
     7
100
AcDbLine
 10
-159.7150681158185
 20
-13.17000000000002
 30
0.0
 11
-160.3799999999999
 21
-13.17000000000002
 31
0.0
  0
LINE
  5
FE
330
1F
100
AcDbEntity
  8
0
  6
Continuous
 62
     7
100
AcDbLine
 10
-160.3799999999999
 20
-13.17000000000002
 30
0.0
 11
-160.3841099034844
 21
-13.17000000000002
 31
0.0
  0
LINE
  5
FF
330
1F
100
AcDbEntity
  8
0
  6
Continuous
 62
     7
100
AcDbLine
 10
-160.0099999999999
 20
-9.17000000000002
 30
0.0
 11
-160.0099999999999
 21
-8.19000000000002
 31
0.0
  0
LINE
  5
100
330
1F
100
AcDbEntity
  8
0
  6
Continuous
 62
     7
100
AcDbLine
 10
-160.0099999999999
 20
-9.17000000000002
 30
0.0
 11
-159.8367854785221
 21
-9.17000000000002
 31
0.0
  0
LINE
  5
101
330
1F
100
AcDbEntity
  8
0
  6
Continuous
 62
     7
100
AcDbLine
 10
-159.8367854785221
 20
-9.17000000000002
 30
0.0
 11
-159.7099999999999
 21
-9.17000000000002
 31
0.0
  0
LINE
  5
102
330
1F
100
AcDbEntity
  8
0
  6
Continuous
 62
     7
100
AcDbLine
 10
-159.7150681158185
 20
-9.27000000000001
 30
0.0
 11
-160.3799999999999
 21
-9.27000000000001
 31
0.0
  0
LINE
  5
103
330
1F
100
AcDbEntity
  8
0
  6
Continuous
 62
     7
100
AcDbLine
 10
-160.3799999999999
 20
-9.27000000000001
 30
0.0
 11
-160.3841099034844
 21
-9.27000000000001
 31
0.0
  0
LINE
  5
104
330
1F
100
AcDbEntity
  8
0
  6
Continuous
 62
     7
100
AcDbLine
 10
-159.8367854785221
 20
1.97000000000004
 30
0.0
 11
-159.7099999999999
 21
1.97000000000004
 31
0.0
  0
LINE
  5
105
330
1F
100
AcDbEntity
  8
0
  6
Continuous
 62
     7
100
AcDbLine
 10
-143.7799999999999
 20
6.56000000000004
 30
0.0
 11
-143.2799999999999
 21
6.56000000000004
 31
0.0
  0
LINE
  5
106
330
1F
100
AcDbEntity
  8
0
  6
Continuous
 62
     7
100
AcDbLine
 10
-145.0441016151376
 20
1.48000000000004
 30
0.0
 11
-146.7139745962153
 21
1.48000000000004
 31
0.0
  0
LINE
  5
107
330
1F
100
AcDbEntity
  8
0
  6
Continuous
 62
     7
100
AcDbLine
 10
-145.0441016151376
 20
3.08000000000004
 30
0.0
 11
-146.7139745962153
 21
3.08000000000004
 31
0.0
  0
LINE
  5
108
330
1F
100
AcDbEntity
  8
0
  6
Continuous
 62
     7
100
AcDbLine
 10
-145.0441016151376
 20
1.48000000000004
 30
0.0
 11
-144.0441016151376
 21
1.48000000000004
 31
0.0
  0
LINE
  5
109
330
1F
100
AcDbEntity
  8
0
  6
Continuous
 62
     7
100
AcDbLine
 10
-145.0441016151376
 20
3.08000000000004
 30
0.0
 11
-144.0441016151376
 21
3.08000000000004
 31
0.0
  0
LINE
  5
10A
330
1F
100
AcDbEntity
  8
0
  6
Continuous
 62
     7
100
AcDbLine
 10
-146.7139745962153
 20
1.48000000000004
 30
0.0
 11
-147.7139745962151
 21
1.48000000000004
 31
0.0
  0
LINE
  5
10B
330
1F
100
AcDbEntity
  8
0
  6
Continuous
 62
     7
100
AcDbLine
 10
-146.7139745962153
 20
3.08000000000004
 30
0.0
 11
-147.7139745962151
 21
3.08000000000004
 31
0.0
  0
LINE
  5
10C
330
1F
100
AcDbEntity
  8
0
  6
Continuous
 62
     7
100
AcDbLine
 10
-143.7799999999998
 20
3.08000000000004
 30
0.0
 11
-144.0441016151376
 21
3.08000000000004
 31
0.0
  0
LINE
  5
10D
330
1F
100
AcDbEntity
  8
0
  6
Continuous
 62
     7
100
AcDbLine
 10
-143.7799999999998
 20
1.48000000000004
 30
0.0
 11
-144.0441016151376
 21
1.48000000000004
 31
0.0
  0
LINE
  5
10E
330
1F
100
AcDbEntity
  8
0
  6
Continuous
 62
     7
100
AcDbLine
 10
-143.7799999999998
 20
1.48000000000004
 30
0.0
 11
-143.4669141837902
 21
1.48000000000004
 31
0.0
  0
LINE
  5
10F
330
1F
100
AcDbEntity
  8
0
  6
Continuous
 62
     7
100
AcDbLine
 10
-143.7799999999998
 20
3.08000000000004
 30
0.0
 11
-143.4669141837902
 21
3.08000000000004
 31
0.0
  0
LINE
  5
110
330
1F
100
AcDbEntity
  8
0
  6
Continuous
 62
     7
100
AcDbLine
 10
-148.0099999999999
 20
6.31128784747854
 30
0.0
 11
-157.7099999999999
 21
6.31128784747854
 31
0.0
  0
LINE
  5
111
330
1F
100
AcDbEntity
  8
0
  6
Continuous
 62
     7
100
AcDbLine
 10
-158.5099999999999
 20
-13.22
 30
0.0
 11
-158.5099999999999
 21
-12.59500000000001
 31
0.0
  0
LINE
  5
112
330
1F
100
AcDbEntity
  8
0
  6
Continuous
 62
     7
100
AcDbLine
 10
-158.5099999999999
 20
-12.59500000000001
 30
0.0
 11
-158.5099999999999
 21
-9.84500000000001
 31
0.0
  0
LINE
  5
113
330
1F
100
AcDbEntity
  8
0
  6
Continuous
 62
     7
100
AcDbLine
 10
-148.0099999999999
 20
-13.51128784747846
 30
0.0
 11
-148.0099999999999
 21
-11.22
 31
0.0
  0
LINE
  5
114
330
1F
100
AcDbEntity
  8
0
  6
Continuous
 62
     7
100
AcDbLine
 10
-150.3599999999999
 20
-17.47499999999999
 30
0.0
 11
-149.2166660372619
 21
-17.47500000000001
 31
0.0
  0
LINE
  5
115
330
1F
100
AcDbEntity
  8
0
  6
Continuous
 62
     7
100
AcDbLine
 10
-149.2166660372619
 20
-17.47500000000001
 30
0.0
 11
-149.1849999999999
 21
-17.47500000000001
 31
0.0
  0
LINE
  5
116
330
1F
100
AcDbEntity
  8
0
  6
Continuous
 62
     7
100
AcDbLine
 10
-150.3599999999999
 20
-17.47499999999999
 30
0.0
 11
-150.3599999999999
 21
-15.12500000000001
 31
0.0
  0
LINE
  5
117
330
1F
100
AcDbEntity
  8
0
  6
Continuous
 62
     7
100
AcDbLine
 10
-157.7099999999999
 20
-14.00871215252155
 30
0.0
 11
-157.7099999999999
 21
-13.51128784747846
 31
0.0
  0
LINE
  5
118
330
1F
100
AcDbEntity
  8
0
  6
Continuous
 62
     7
100
AcDbLine
 10
-157.7099999999999
 20
-13.51128784747846
 30
0.0
 11
-157.71
 21
-12.63245154965972
 31
0.0
  0
LINE
  5
119
330
1F
100
AcDbEntity
  8
0
  6
Continuous
 62
     7
100
AcDbLine
 10
-150.3599999999999
 20
-15.12500000000001
 30
0.0
 11
-149.2166660372619
 21
-15.125
 31
0.0
  0
LINE
  5
11A
330
1F
100
AcDbEntity
  8
0
  6
Continuous
 62
     7
100
AcDbLine
 10
-149.2166660372619
 20
-15.125
 30
0.0
 11
-149.1849999999999
 21
-15.12500000000001
 31
0.0
  0
LINE
  5
11B
330
1F
100
AcDbEntity
  8
0
  6
Continuous
 62
     7
100
AcDbLine
 10
-148.0099999999999
 20
-14.00871215252155
 30
0.0
 11
-157.7099999999999
 21
-14.00871215252155
 31
0.0
  0
LINE
  5
11C
330
1F
100
AcDbEntity
  8
0
  6
Continuous
 62
     7
100
AcDbLine
 10
-148.0099999999999
 20
-13.51128784747846
 30
0.0
 11
-157.7099999999999
 21
-13.51128784747846
 31
0.0
  0
LINE
  5
11D
330
1F
100
AcDbEntity
  8
0
  6
Continuous
 62
     7
100
AcDbLine
 10
-160.3799999999999
 20
-14.35000000000001
 30
0.0
 11
-159.7150681158185
 21
-14.35000000000001
 31
0.0
  0
LINE
  5
11E
330
1F
100
AcDbEntity
  8
0
  6
Continuous
 62
     7
100
AcDbLine
 10
-159.8367854785221
 20
-14.25000000000001
 30
0.0
 11
-160.0099999999999
 21
-14.25000000000001
 31
0.0
  0
LINE
  5
11F
330
1F
100
AcDbEntity
  8
0
  6
Continuous
 62
     7
100
AcDbLine
 10
-160.0099999999999
 20
-14.25000000000001
 30
0.0
 11
-160.0099999999999
 21
-13.27000000000001
 31
0.0
  0
LINE
  5
120
330
1F
100
AcDbEntity
  8
0
  6
Continuous
 62
     7
100
AcDbLine
 10
-148.0099999999999
 20
-16.3
 30
0.0
 11
-148.0099999999999
 21
-14.00871215252155
 31
0.0
  0
LINE
  5
121
330
1F
100
AcDbEntity
  8
0
  6
Continuous
 62
     7
100
AcDbLine
 10
-159.8367854785221
 20
-13.27000000000001
 30
0.0
 11
-160.0099999999999
 21
-13.27000000000001
 31
0.0
  0
LINE
  5
122
330
1F
100
AcDbEntity
  8
0
  6
Continuous
 62
     7
100
AcDbLine
 10
-159.4799999999999
 20
-14.35000000000001
 30
0.0
 11
-158.7099999999999
 21
-14.35000000000001
 31
0.0
  0
LINE
  5
123
330
1F
100
AcDbEntity
  8
0
  6
Continuous
 62
     7
100
AcDbLine
 10
-157.71
 20
-14.4875484503403
 30
0.0
 11
-157.7099999999999
 21
-14.00871215252155
 31
0.0
  0
LINE
  5
124
330
1F
100
AcDbEntity
  8
0
  6
Continuous
 62
     7
100
AcDbLine
 10
-157.71
 20
-16.10000000000001
 30
0.0
 11
-157.7099999999999
 21
-16.30000000000001
 31
0.0
  0
LINE
  5
125
330
1F
100
AcDbEntity
  8
0
  6
Continuous
 62
     7
100
AcDbLine
 10
-157.7099999999999
 20
-16.30000000000001
 30
0.0
 11
-157.71
 21
-17.71245154965972
 31
0.0
  0
LINE
  5
126
330
1F
100
AcDbEntity
  8
0
  6
Continuous
 62
     7
100
AcDbLine
 10
-157.71
 20
-14.4875484503403
 30
0.0
 11
-157.71
 21
-16.10000000000001
 31
0.0
  0
LINE
  5
127
330
1F
100
AcDbEntity
  8
0
  6
Continuous
 62
     7
100
AcDbLine
 10
-159.7150681158185
 20
-14.35000000000001
 30
0.0
 11
-159.4799999999999
 21
-14.35000000000001
 31
0.0
  0
LINE
  5
128
330
1F
100
AcDbEntity
  8
0
  6
Continuous
 62
     7
100
AcDbLine
 10
-158.7099999999999
 20
-13.27000000000001
 30
0.0
 11
-159.7099999999999
 21
-13.27000000000001
 31
0.0
  0
LINE
  5
129
330
1F
100
AcDbEntity
  8
0
  6
Continuous
 62
     7
100
AcDbLine
 10
-159.7099999999999
 20
-13.27000000000001
 30
0.0
 11
-159.8367854785221
 21
-13.27000000000001
 31
0.0
  0
LINE
  5
12A
330
1F
100
AcDbEntity
  8
0
  6
Continuous
 62
     7
100
AcDbLine
 10
-159.8367854785221
 20
-14.25000000000001
 30
0.0
 11
-159.7099999999999
 21
-14.25000000000001
 31
0.0
  0
LINE
  5
12B
330
1F
100
AcDbEntity
  8
0
  6
Continuous
 62
     7
100
AcDbLine
 10
-159.7099999999999
 20
-14.25000000000001
 30
0.0
 11
-158.7099999999999
 21
-14.25000000000001
 31
0.0
  0
LINE
  5
12C
330
1F
100
AcDbEntity
  8
0
  6
Continuous
 62
     7
100
AcDbLine
 10
-158.5099999999999
 20
1.97000000000004
 30
0.0
 11
-158.5099999999999
 21
2.02000000000004
 31
0.0
  0
LINE
  5
12D
330
1F
100
AcDbEntity
  8
0
  6
Continuous
 62
     7
100
AcDbLine
 10
-149.2166660372619
 20
5.19500000000005
 30
0.0
 11
-150.3599999999999
 21
5.19500000000005
 31
0.0
  0
LINE
  5
12E
330
1F
100
AcDbEntity
  8
0
  6
Continuous
 62
     7
100
AcDbLine
 10
-150.3599999999999
 20
5.19500000000005
 30
0.0
 11
-150.3599999999999
 21
2.84500000000004
 31
0.0
  0
LINE
  5
12F
330
1F
100
AcDbEntity
  8
0
  6
Continuous
 62
     7
100
AcDbLine
 10
-160.3799999999999
 20
5.97000000000004
 30
0.0
 11
-159.7150681158185
 21
5.97000000000004
 31
0.0
  0
LINE
  5
130
330
1F
100
AcDbEntity
  8
0
  6
Continuous
 62
     7
100
AcDbLine
 10
-159.4799999999999
 20
5.97000000000004
 30
0.0
 11
-158.7099999999999
 21
5.97000000000004
 31
0.0
  0
LINE
  5
131
330
1F
100
AcDbEntity
  8
0
  6
Continuous
 62
     7
100
AcDbLine
 10
-160.3799999999999
 20
2.07000000000005
 30
0.0
 11
-159.7150681158185
 21
2.07000000000005
 31
0.0
  0
LINE
  5
132
330
1F
100
AcDbEntity
  8
0
  6
Continuous
 62
     7
100
AcDbLine
 10
-159.4799999999999
 20
2.07000000000005
 30
0.0
 11
-158.7099999999999
 21
2.07000000000005
 31
0.0
  0
LINE
  5
133
330
1F
100
AcDbEntity
  8
0
  6
Continuous
 62
     7
100
AcDbLine
 10
-160.5799999999999
 20
2.07000000000005
 30
0.0
 11
-160.5799999999999
 21
5.97000000000004
 31
0.0
  0
LINE
  5
134
330
1F
100
AcDbEntity
  8
0
  6
Continuous
 62
     7
100
AcDbLine
 10
-160.5799999999999
 20
2.07000000000005
 30
0.0
 11
-160.3841099034844
 21
2.07000000000005
 31
0.0
  0
LINE
  5
135
330
1F
100
AcDbEntity
  8
0
  6
Continuous
 62
     7
100
AcDbLine
 10
-160.3841099034844
 20
2.07000000000005
 30
0.0
 11
-160.3799999999999
 21
2.07000000000005
 31
0.0
  0
LINE
  5
136
330
1F
100
AcDbEntity
  8
0
  6
Continuous
 62
     7
100
AcDbLine
 10
-160.5799999999999
 20
5.97000000000004
 30
0.0
 11
-160.3841099034844
 21
5.97000000000004
 31
0.0
  0
LINE
  5
137
330
1F
100
AcDbEntity
  8
0
  6
Continuous
 62
     7
100
AcDbLine
 10
-160.3841099034844
 20
5.97000000000004
 30
0.0
 11
-160.3799999999999
 21
5.97000000000004
 31
0.0
  0
LINE
  5
138
330
1F
100
AcDbEntity
  8
0
  6
Continuous
 62
     7
100
AcDbLine
 10
-150.3599999999999
 20
2.84500000000004
 30
0.0
 11
-149.2166660372619
 21
2.84500000000004
 31
0.0
  0
LINE
  5
139
330
1F
100
AcDbEntity
  8
0
  6
Continuous
 62
     7
100
AcDbLine
 10
-149.2166660372619
 20
5.19500000000005
 30
0.0
 11
-149.1849999999999
 21
5.19500000000005
 31
0.0
  0
LINE
  5
13A
330
1F
100
AcDbEntity
  8
0
  6
Continuous
 62
     7
100
AcDbLine
 10
-148.0099999999999
 20
4.02000000000004
 30
0.0
 11
-148.0099999999999
 21
6.31128784747854
 31
0.0
  0
LINE
  5
13B
330
1F
100
AcDbEntity
  8
0
  6
Continuous
 62
     7
100
AcDbLine
 10
-159.7150681158185
 20
2.07000000000005
 30
0.0
 11
-159.4799999999999
 21
2.07000000000005
 31
0.0
  0
LINE
  5
13C
330
1F
100
AcDbEntity
  8
0
  6
Continuous
 62
     7
100
AcDbLine
 10
-160.0099999999999
 20
6.56000000000004
 30
0.0
 11
-159.8367854785221
 21
6.56000000000004
 31
0.0
  0
LINE
  5
13D
330
1F
100
AcDbEntity
  8
0
  6
Continuous
 62
     7
100
AcDbLine
 10
-159.8367854785221
 20
6.56000000000004
 30
0.0
 11
-159.7099999999999
 21
6.56000000000004
 31
0.0
  0
LINE
  5
13E
330
1F
100
AcDbEntity
  8
0
  6
Continuous
 62
     7
100
AcDbLine
 10
-160.0099999999999
 20
6.07000000000005
 30
0.0
 11
-160.0099999999999
 21
6.56000000000004
 31
0.0
  0
LINE
  5
13F
330
1F
100
AcDbEntity
  8
0
  6
Continuous
 62
     7
100
AcDbLine
 10
-160.0099999999999
 20
6.07000000000005
 30
0.0
 11
-159.8367854785221
 21
6.07000000000005
 31
0.0
  0
LINE
  5
140
330
1F
100
AcDbEntity
  8
0
  6
Continuous
 62
     7
100
AcDbLine
 10
-159.8367854785221
 20
6.07000000000005
 30
0.0
 11
-159.7099999999999
 21
6.07000000000005
 31
0.0
  0
LINE
  5
141
330
1F
100
AcDbEntity
  8
0
  6
Continuous
 62
     7
100
AcDbLine
 10
-159.7150681158185
 20
5.97000000000004
 30
0.0
 11
-159.4799999999999
 21
5.97000000000004
 31
0.0
  0
LINE
  5
142
330
1F
100
AcDbEntity
  8
0
  6
Continuous
 62
     7
100
AcDbLine
 10
-158.5099999999999
 20
2.64500000000004
 30
0.0
 11
-158.5099999999999
 21
5.39500000000004
 31
0.0
  0
LINE
  5
143
330
1F
100
AcDbEntity
  8
0
  6
Continuous
 62
     7
100
AcDbLine
 10
-159.7099999999999
 20
6.07000000000005
 30
0.0
 11
-158.7099999999999
 21
6.07000000000005
 31
0.0
  0
LINE
  5
144
330
1F
100
AcDbEntity
  8
0
  6
Continuous
 62
     7
100
AcDbLine
 10
-159.7099999999999
 20
6.56000000000004
 30
0.0
 11
-158.7099999999999
 21
6.56000000000004
 31
0.0
  0
LINE
  5
145
330
1F
100
AcDbEntity
  8
0
  6
Continuous
 62
     7
100
AcDbLine
 10
-157.7099999999996
 20
5.83245154965973
 30
0.0
 11
-157.71
 21
4.22000000000004
 31
0.0
  0
LINE
  5
146
330
1F
100
AcDbEntity
  8
0
  6
Continuous
 62
     7
100
AcDbLine
 10
-157.71
 20
4.22000000000004
 30
0.0
 11
-157.7099999999999
 21
4.02000000000004
 31
0.0
  0
LINE
  5
147
330
1F
100
AcDbEntity
  8
0
  6
Continuous
 62
     7
100
AcDbLine
 10
-155.2207958125779
 20
6.56000000000004
 30
0.0
 11
-155.0099999999999
 21
6.56000000000004
 31
0.0
  0
LINE
  5
148
330
1F
100
AcDbEntity
  8
0
  6
Continuous
 62
     7
100
AcDbLine
 10
-156.7232531465285
 20
6.56000000000004
 30
0.0
 11
-156.6832058431981
 21
6.56000000000004
 31
0.0
  0
LINE
  5
149
330
1F
100
AcDbEntity
  8
0
  6
Continuous
 62
     7
100
AcDbLine
 10
-156.2554538479281
 20
6.56000000000004
 30
0.0
 11
-156.2264815826125
 21
6.56000000000004
 31
0.0
  0
LINE
  5
14A
330
1F
100
AcDbEntity
  8
0
  6
Continuous
 62
     7
100
AcDbLine
 10
-156.3445311387156
 20
6.56000000000004
 30
0.0
 11
-156.5651562870951
 21
6.56000000000004
 31
0.0
  0
LINE
  5
14B
330
1F
100
AcDbEntity
  8
0
  6
Continuous
 62
     7
100
AcDbLine
 10
-156.1864342792822
 20
6.56000000000004
 30
0.0
 11
-155.9981194523198
 21
6.56000000000004
 31
0.0
  0
LINE
  5
14C
330
1F
100
AcDbEntity
  8
0
  6
Continuous
 62
     7
100
AcDbLine
 10
-155.36
 20
6.56000000000004
 30
0.0
 11
-155.3517179710076
 21
6.56000000000004
 31
0.0
  0
LINE
  5
14D
330
1F
100
AcDbEntity
  8
0
  6
Continuous
 62
     7
100
AcDbLine
 10
-155.9981194523198
 20
6.56000000000004
 30
0.0
 11
-155.5098148304411
 21
6.56000000000004
 31
0.0
  0
LINE
  5
14E
330
1F
100
AcDbEntity
  8
0
  6
Continuous
 62
     7
100
AcDbLine
 10
-156.2264815826125
 20
6.56000000000004
 30
0.0
 11
-156.1864342792822
 21
6.56000000000004
 31
0.0
  0
LINE
  5
14F
330
1F
100
AcDbEntity
  8
0
  6
Continuous
 62
     7
100
AcDbLine
 10
-156.2554538479281
 20
6.56000000000004
 30
0.0
 11
-156.3445311387156
 21
6.56000000000004
 31
0.0
  0
LINE
  5
150
330
1F
100
AcDbEntity
  8
0
  6
Continuous
 62
     7
100
AcDbLine
 10
-156.9115679734908
 20
6.56000000000004
 30
0.0
 11
-157.6870883703877
 21
6.56000000000004
 31
0.0
  0
LINE
  5
151
330
1F
100
AcDbEntity
  8
0
  6
Continuous
 62
     7
100
AcDbLine
 10
-156.9115679734908
 20
6.56000000000004
 30
0.0
 11
-156.7359047963425
 21
6.56000000000004
 31
0.0
  0
LINE
  5
152
330
1F
100
AcDbEntity
  8
0
  6
Continuous
 62
     7
100
AcDbLine
 10
-156.7359047963425
 20
6.56000000000004
 30
0.0
 11
-156.7232531465285
 21
6.56000000000004
 31
0.0
  0
LINE
  5
153
330
1F
100
AcDbEntity
  8
0
  6
Continuous
 62
     7
100
AcDbLine
 10
-156.6542335778825
 20
6.56000000000004
 30
0.0
 11
-156.5651562870951
 21
6.56000000000004
 31
0.0
  0
LINE
  5
154
330
1F
100
AcDbEntity
  8
0
  6
Continuous
 62
     7
100
AcDbLine
 10
-156.6832058431981
 20
6.56000000000004
 30
0.0
 11
-156.6542335778825
 21
6.56000000000004
 31
0.0
  0
LINE
  5
155
330
1F
100
AcDbEntity
  8
0
  6
Continuous
 62
     7
100
AcDbLine
 10
-157.7099999999999
 20
4.02000000000004
 30
0.0
 11
-157.71
 21
2.60754845034033
 31
0.0
  0
LINE
  5
156
330
1F
100
AcDbEntity
  8
0
  6
Continuous
 62
     7
100
AcDbLine
 10
-157.7099999999999
 20
6.56000000000004
 30
0.0
 11
-157.7992041874219
 21
6.56000000000004
 31
0.0
  0
LINE
  5
157
330
1F
100
AcDbEntity
  8
0
  6
Continuous
 62
     7
100
AcDbLine
 10
-157.7992041874219
 20
6.56000000000004
 30
0.0
 11
-158.0099999999998
 21
6.56000000000004
 31
0.0
  0
LINE
  5
158
330
1F
100
AcDbEntity
  8
0
  6
Continuous
 62
     7
100
AcDbLine
 10
-155.5098148304411
 20
6.56000000000004
 30
0.0
 11
-155.36
 21
6.56000000000004
 31
0.0
  0
LINE
  5
159
330
1F
100
AcDbEntity
  8
0
  6
Continuous
 62
     7
100
AcDbLine
 10
-157.6870883703877
 20
6.56000000000004
 30
0.0
 11
-157.7099999999999
 21
6.56000000000004
 31
0.0
  0
LINE
  5
15A
330
1F
100
AcDbEntity
  8
0
  6
Continuous
 62
     7
100
AcDbLine
 10
-157.7099999999996
 20
5.83245154965973
 30
0.0
 11
-157.7099999999999
 21
6.31128784747854
 31
0.0
  0
LINE
  5
15B
330
1F
100
AcDbEntity
  8
0
  6
Continuous
 62
     7
100
AcDbLine
 10
-157.7099999999999
 20
6.31128784747854
 30
0.0
 11
-157.7099999999999
 21
6.56000000000004
 31
0.0
  0
LINE
  5
15C
330
1F
100
AcDbEntity
  8
0
  6
Continuous
 62
     7
100
AcDbLine
 10
-158.5099999999999
 20
5.39500000000004
 30
0.0
 11
-158.5099999999999
 21
6.07000000000005
 31
0.0
  0
LINE
  5
15D
330
1F
100
AcDbEntity
  8
0
  6
Continuous
 62
     7
100
AcDbLine
 10
-155.3517179710076
 20
6.56000000000004
 30
0.0
 11
-155.2207958125779
 21
6.56000000000004
 31
0.0
  0
LINE
  5
15E
330
1F
100
AcDbEntity
  8
0
  6
Continuous
 62
     7
100
AcDbLine
 10
-158.5099999999999
 20
6.07000000000005
 30
0.0
 11
-158.5099999999999
 21
6.42000000000004
 31
0.0
  0
LINE
  5
15F
330
1F
100
AcDbEntity
  8
0
  6
Continuous
 62
     7
100
AcDbLine
 10
-158.5099999999999
 20
6.42000000000004
 30
0.0
 11
-158.5099999999999
 21
6.56000000000004
 31
0.0
  0
LINE
  5
160
330
1F
100
AcDbEntity
  8
0
  6
Continuous
 62
     7
100
AcDbLine
 10
-158.7099999999999
 20
6.07000000000005
 30
0.0
 11
-158.7099999999999
 21
6.56000000000004
 31
0.0
  0
LINE
  5
161
330
1F
100
AcDbEntity
  8
0
  6
Continuous
 62
     7
100
AcDbLine
 10
-158.5099999999999
 20
6.56000000000004
 30
0.0
 11
-158.2099999999999
 21
6.56000000000004
 31
0.0
  0
LINE
  5
162
330
1F
100
AcDbEntity
  8
0
  6
Continuous
 62
     7
100
AcDbLine
 10
-158.5099999999999
 20
6.56000000000004
 30
0.0
 11
-158.6832145214777
 21
6.56000000000004
 31
0.0
  0
LINE
  5
163
330
1F
100
AcDbEntity
  8
0
  6
Continuous
 62
     7
100
AcDbLine
 10
-158.6832145214777
 20
6.56000000000004
 30
0.0
 11
-158.7099999999999
 21
6.56000000000004
 31
0.0
  0
LINE
  5
164
330
1F
100
AcDbEntity
  8
0
  6
Continuous
 62
     7
100
AcDbLine
 10
-158.0099999999998
 20
6.56000000000004
 30
0.0
 11
-158.2099999999999
 21
6.56000000000004
 31
0.0
  0
LINE
  5
165
330
1F
100
AcDbEntity
  8
0
  6
Continuous
 62
     7
100
AcDbLine
 10
-148.0099999999999
 20
-18.59128784747846
 30
0.0
 11
-157.7099999999999
 21
-18.59128784747847
 31
0.0
  0
LINE
  5
166
330
1F
100
AcDbEntity
  8
0
  6
Continuous
 62
     7
100
AcDbLine
 10
-148.0099999999999
 20
-18.59128784747846
 30
0.0
 11
-148.0099999999999
 21
-16.3
 31
0.0
  0
LINE
  5
167
330
1F
100
AcDbEntity
  8
0
  6
Continuous
 62
     7
100
AcDbLine
 10
-160.0099999999999
 20
-19.33000000000001
 30
0.0
 11
-160.0099999999999
 21
-18.35000000000001
 31
0.0
  0
LINE
  5
168
330
1F
100
AcDbEntity
  8
0
  6
Continuous
 62
     7
100
AcDbLine
 10
-143.7799999999998
 20
-23.92
 30
0.0
 11
-143.7799999999998
 21
1.48000000000004
 31
0.0
  0
LINE
  5
169
330
1F
100
AcDbEntity
  8
0
  6
Continuous
 62
     7
100
AcDbLine
 10
-143.7799999999998
 20
3.08000000000004
 30
0.0
 11
-143.7799999999999
 21
6.56000000000004
 31
0.0
  0
LINE
  5
16A
330
1F
100
AcDbEntity
  8
0
  6
Continuous
 62
     7
100
AcDbLine
 10
-160.3799999999999
 20
-23.33
 30
0.0
 11
-159.7150681158185
 21
-23.33
 31
0.0
  0
LINE
  5
16B
330
1F
100
AcDbEntity
  8
0
  6
Continuous
 62
     7
100
AcDbLine
 10
-148.0099999999999
 20
-24.16871215252161
 30
0.0
 11
-157.7099999999999
 21
-24.16871215252161
 31
0.0
  0
LINE
  5
16C
330
1F
100
AcDbEntity
  8
0
  6
Continuous
 62
     7
100
AcDbLine
 10
-148.0099999999999
 20
-23.67128784747851
 30
0.0
 11
-148.0099999999999
 21
-21.38000000000001
 31
0.0
  0
LINE
  5
16D
330
1F
100
AcDbEntity
  8
0
  6
Continuous
 62
     7
100
AcDbLine
 10
-148.0099999999999
 20
-23.67128784747851
 30
0.0
 11
-157.7099999999999
 21
-23.67128784747851
 31
0.0
  0
LINE
  5
16E
330
1F
100
AcDbEntity
  8
0
  6
Continuous
 62
     7
100
AcDbLine
 10
-150.3599999999999
 20
-22.55500000000001
 30
0.0
 11
-149.2166660372619
 21
-22.55500000000001
 31
0.0
  0
LINE
  5
16F
330
1F
100
AcDbEntity
  8
0
  6
Continuous
 62
     7
100
AcDbLine
 10
-149.2166660372619
 20
-22.55500000000001
 30
0.0
 11
-149.1849999999999
 21
-22.55500000000001
 31
0.0
  0
LINE
  5
170
330
1F
100
AcDbEntity
  8
0
  6
Continuous
 62
     7
100
AcDbLine
 10
-143.7799999999998
 20
-23.92
 30
0.0
 11
-143.4669141837902
 21
-23.92
 31
0.0
  0
LINE
  5
171
330
1F
100
AcDbEntity
  8
0
  6
Continuous
 62
     7
100
AcDbLine
 10
-159.8367854785221
 20
-23.43000000000001
 30
0.0
 11
-160.0099999999999
 21
-23.43000000000001
 31
0.0
  0
LINE
  5
172
330
1F
100
AcDbEntity
  8
0
  6
Continuous
 62
     7
100
AcDbLine
 10
-160.0099999999999
 20
-24.41000000000001
 30
0.0
 11
-160.0099999999999
 21
-23.43000000000001
 31
0.0
  0
LINE
  5
173
330
1F
100
AcDbEntity
  8
0
  6
Continuous
 62
     7
100
AcDbLine
 10
-159.8367854785221
 20
-24.41000000000001
 30
0.0
 11
-160.0099999999999
 21
-24.41000000000001
 31
0.0
  0
LINE
  5
174
330
1F
100
AcDbEntity
  8
0
  6
Continuous
 62
     7
100
AcDbLine
 10
-159.4799999999999
 20
-23.33
 30
0.0
 11
-158.7099999999999
 21
-23.33
 31
0.0
  0
LINE
  5
175
330
1F
100
AcDbEntity
  8
0
  6
Continuous
 62
     7
100
AcDbLine
 10
-160.0099999999999
 20
-19.33000000000001
 30
0.0
 11
-159.8367854785221
 21
-19.33000000000001
 31
0.0
  0
LINE
  5
176
330
1F
100
AcDbEntity
  8
0
  6
Continuous
 62
     7
100
AcDbLine
 10
-159.8367854785221
 20
-19.33000000000001
 30
0.0
 11
-159.7099999999999
 21
-19.33000000000001
 31
0.0
  0
LINE
  5
177
330
1F
100
AcDbEntity
  8
0
  6
Continuous
 62
     7
100
AcDbLine
 10
-159.7099999999999
 20
-19.33000000000001
 30
0.0
 11
-158.7099999999999
 21
-19.33000000000001
 31
0.0
  0
LINE
  5
178
330
1F
100
AcDbEntity
  8
0
  6
Continuous
 62
     7
100
AcDbLine
 10
-145.0441016151376
 20
-23.92
 30
0.0
 11
-146.7139745962153
 21
-23.92
 31
0.0
  0
LINE
  5
179
330
1F
100
AcDbEntity
  8
0
  6
Continuous
 62
     7
100
AcDbLine
 10
-146.7139745962153
 20
-23.92
 30
0.0
 11
-147.7139745962151
 21
-23.92
 31
0.0
  0
LINE
  5
17A
330
1F
100
AcDbEntity
  8
0
  6
Continuous
 62
     7
100
AcDbLine
 10
-145.0441016151376
 20
-23.92
 30
0.0
 11
-144.0441016151376
 21
-23.92
 31
0.0
  0
LINE
  5
17B
330
1F
100
AcDbEntity
  8
0
  6
Continuous
 62
     7
100
AcDbLine
 10
-143.7799999999998
 20
-23.92
 30
0.0
 11
-144.0441016151376
 21
-23.92
 31
0.0
  0
LINE
  5
17C
330
1F
100
AcDbEntity
  8
0
  6
Continuous
 62
     7
100
AcDbLine
 10
-143.4669141837902
 20
-23.92
 30
0.0
 11
-143.2499999999997
 21
-23.92
 31
0.0
  0
LINE
  5
17D
330
1F
100
AcDbEntity
  8
0
  6
Continuous
 62
     7
100
AcDbLine
 10
-149.2166660372619
 20
-20.20500000000001
 30
0.0
 11
-149.1849999999999
 21
-20.205
 31
0.0
  0
LINE
  5
17E
330
1F
100
AcDbEntity
  8
0
  6
Continuous
 62
     7
100
AcDbLine
 10
-150.3599999999999
 20
-22.55500000000001
 30
0.0
 11
-150.3599999999999
 21
-20.205
 31
0.0
  0
LINE
  5
17F
330
1F
100
AcDbEntity
  8
0
  6
Continuous
 62
     7
100
AcDbLine
 10
-150.3599999999999
 20
-20.205
 30
0.0
 11
-149.2166660372619
 21
-20.20500000000001
 31
0.0
  0
LINE
  5
180
330
1F
100
AcDbEntity
  8
0
  6
Continuous
 62
     7
100
AcDbLine
 10
-159.7150681158185
 20
-19.43000000000001
 30
0.0
 11
-159.4799999999999
 21
-19.43000000000001
 31
0.0
  0
LINE
  5
181
330
1F
100
AcDbEntity
  8
0
  6
Continuous
 62
     7
100
AcDbLine
 10
-160.3799999999999
 20
-19.43000000000001
 30
0.0
 11
-159.7150681158185
 21
-19.43000000000001
 31
0.0
  0
LINE
  5
182
330
1F
100
AcDbEntity
  8
0
  6
Continuous
 62
     7
100
AcDbLine
 10
-159.4799999999999
 20
-19.43000000000001
 30
0.0
 11
-158.7099999999999
 21
-19.43000000000001
 31
0.0
  0
LINE
  5
183
330
1F
100
AcDbEntity
  8
0
  6
Continuous
 62
     7
100
AcDbLine
 10
-159.8367854785221
 20
-24.41000000000001
 30
0.0
 11
-159.7099999999999
 21
-24.41000000000001
 31
0.0
  0
LINE
  5
184
330
1F
100
AcDbEntity
  8
0
  6
Continuous
 62
     7
100
AcDbLine
 10
-158.7099999999999
 20
-23.43000000000001
 30
0.0
 11
-159.7099999999999
 21
-23.43000000000001
 31
0.0
  0
LINE
  5
185
330
1F
100
AcDbEntity
  8
0
  6
Continuous
 62
     7
100
AcDbLine
 10
-157.71
 20
-22.7924515496597
 30
0.0
 11
-157.7099999999999
 21
-23.67128784747851
 31
0.0
  0
LINE
  5
186
330
1F
100
AcDbEntity
  8
0
  6
Continuous
 62
     7
100
AcDbLine
 10
-157.7099999999999
 20
-23.67128784747851
 30
0.0
 11
-157.7099999999999
 21
-24.16871215252161
 31
0.0
  0
LINE
  5
187
330
1F
100
AcDbEntity
  8
0
  6
Continuous
 62
     7
100
AcDbLine
 10
-159.7150681158185
 20
-23.33
 30
0.0
 11
-159.4799999999999
 21
-23.33
 31
0.0
  0
LINE
  5
188
330
1F
100
AcDbEntity
  8
0
  6
Continuous
 62
     7
100
AcDbLine
 10
-159.7099999999999
 20
-24.41000000000001
 30
0.0
 11
-158.7099999999999
 21
-24.41000000000001
 31
0.0
  0
LINE
  5
189
330
1F
100
AcDbEntity
  8
0
  6
Continuous
 62
     7
100
AcDbLine
 10
-159.7099999999999
 20
-23.43000000000001
 30
0.0
 11
-159.8367854785221
 21
-23.43000000000001
 31
0.0
  0
LINE
  5
18A
330
1F
100
AcDbEntity
  8
0
  6
Continuous
 62
     7
100
AcDbLine
 10
-157.7099999999999
 20
-18.59128784747847
 30
0.0
 11
-157.71
 21
-17.71245154965972
 31
0.0
  0
LINE
  5
18B
330
1F
100
AcDbEntity
  8
0
  6
Continuous
 62
     7
100
AcDbLine
 10
-158.5099999999999
 20
-14.25000000000001
 30
0.0
 11
-158.5099999999999
 21
-13.90000000000001
 31
0.0
  0
LINE
  5
18C
330
1F
100
AcDbEntity
  8
0
  6
Continuous
 62
     7
100
AcDbLine
 10
-158.5099999999999
 20
-14.92500000000001
 30
0.0
 11
-158.5099999999999
 21
-14.25000000000001
 31
0.0
  0
LINE
  5
18D
330
1F
100
AcDbEntity
  8
0
  6
Continuous
 62
     7
100
AcDbLine
 10
-158.5099999999999
 20
-19.33000000000001
 30
0.0
 11
-158.5099999999999
 21
-18.98000000000002
 31
0.0
  0
LINE
  5
18E
330
1F
100
AcDbEntity
  8
0
  6
Continuous
 62
     7
100
AcDbLine
 10
-158.5099999999999
 20
-25.08500000000001
 30
0.0
 11
-158.5099999999999
 21
-24.41000000000001
 31
0.0
  0
LINE
  5
18F
330
1F
100
AcDbEntity
  8
0
  6
Continuous
 62
     7
100
AcDbLine
 10
-158.5099999999999
 20
-23.43000000000001
 30
0.0
 11
-158.5099999999999
 21
-23.38000000000001
 31
0.0
  0
LINE
  5
190
330
1F
100
AcDbEntity
  8
0
  6
Continuous
 62
     7
100
AcDbLine
 10
-158.5099999999999
 20
-20.00500000000001
 30
0.0
 11
-158.5099999999999
 21
-19.33000000000001
 31
0.0
  0
LINE
  5
191
330
1F
100
AcDbEntity
  8
0
  6
Continuous
 62
     7
100
AcDbLine
 10
-158.5099999999999
 20
-18.98000000000002
 30
0.0
 11
-158.5099999999999
 21
-18.35000000000001
 31
0.0
  0
LINE
  5
192
330
1F
100
AcDbEntity
  8
0
  6
Continuous
 62
     7
100
AcDbLine
 10
-158.5099999999999
 20
-18.35000000000001
 30
0.0
 11
-158.5099999999999
 21
-18.3
 31
0.0
  0
LINE
  5
193
330
1F
100
AcDbEntity
  8
0
  6
Continuous
 62
     7
100
AcDbLine
 10
-158.5099999999999
 20
-18.3
 30
0.0
 11
-158.5099999999999
 21
-17.67500000000003
 31
0.0
  0
LINE
  5
194
330
1F
100
AcDbEntity
  8
0
  6
Continuous
 62
     7
100
AcDbLine
 10
-158.5099999999999
 20
-17.67500000000003
 30
0.0
 11
-158.5099999999999
 21
-14.92500000000001
 31
0.0
  0
LINE
  5
195
330
1F
100
AcDbEntity
  8
0
  6
Continuous
 62
     7
100
AcDbLine
 10
-158.5099999999999
 20
-13.90000000000001
 30
0.0
 11
-158.5099999999999
 21
-13.27000000000001
 31
0.0
  0
LINE
  5
196
330
1F
100
AcDbEntity
  8
0
  6
Continuous
 62
     7
100
AcDbLine
 10
-158.5099999999999
 20
-13.27000000000001
 30
0.0
 11
-158.5099999999999
 21
-13.22
 31
0.0
  0
LINE
  5
197
330
1F
100
AcDbEntity
  8
0
  6
Continuous
 62
     7
100
AcDbLine
 10
-158.5099999999999
 20
-9.27000000000001
 30
0.0
 11
-158.5099999999999
 21
-9.17000000000002
 31
0.0
  0
LINE
  5
198
330
1F
100
AcDbEntity
  8
0
  6
Continuous
 62
     7
100
AcDbLine
 10
-158.5099999999999
 20
-8.82000000000001
 30
0.0
 11
-158.5099999999999
 21
-8.19000000000001
 31
0.0
  0
LINE
  5
199
330
1F
100
AcDbEntity
  8
0
  6
Continuous
 62
     7
100
AcDbLine
 10
-158.5099999999999
 20
2.02000000000004
 30
0.0
 11
-158.5099999999999
 21
2.64500000000004
 31
0.0
  0
LINE
  5
19A
330
1F
100
AcDbEntity
  8
0
  6
Continuous
 62
     7
100
AcDbLine
 10
-158.5099999999999
 20
-22.75500000000001
 30
0.0
 11
-158.5099999999999
 21
-20.00500000000001
 31
0.0
  0
LINE
  5
19B
330
1F
100
AcDbEntity
  8
0
  6
Continuous
 62
     7
100
AcDbLine
 10
-158.5099999999999
 20
-23.33
 30
0.0
 11
-158.5099999999999
 21
-22.75500000000001
 31
0.0
  0
LINE
  5
19C
330
1F
100
AcDbEntity
  8
0
  6
Continuous
 62
     7
100
AcDbLine
 10
-158.5099999999999
 20
-29.0
 30
0.0
 11
-158.2099999999999
 21
-29.0
 31
0.0
  0
LINE
  5
19D
330
1F
100
AcDbEntity
  8
0
  6
Continuous
 62
     7
100
AcDbLine
 10
-158.5099999999999
 20
-23.38000000000001
 30
0.0
 11
-158.5099999999999
 21
-23.33
 31
0.0
  0
LINE
  5
19E
330
1F
100
AcDbEntity
  8
0
  6
Continuous
 62
     7
100
AcDbLine
 10
-158.5099999999999
 20
-24.06
 30
0.0
 11
-158.5099999999999
 21
-23.43000000000001
 31
0.0
  0
LINE
  5
19F
330
1F
100
AcDbEntity
  8
0
  6
Continuous
 62
     7
100
AcDbLine
 10
-158.5099999999999
 20
-28.46000000000001
 30
0.0
 11
-158.5099999999999
 21
-27.83500000000001
 31
0.0
  0
LINE
  5
1A0
330
1F
100
AcDbEntity
  8
0
  6
Continuous
 62
     7
100
AcDbLine
 10
-158.5099999999999
 20
-27.83500000000001
 30
0.0
 11
-158.5099999999999
 21
-25.08500000000001
 31
0.0
  0
LINE
  5
1A1
330
1F
100
AcDbEntity
  8
0
  6
Continuous
 62
     7
100
AcDbLine
 10
-158.5099999999999
 20
-28.51000000000001
 30
0.0
 11
-158.5099999999999
 21
-28.46000000000001
 31
0.0
  0
LINE
  5
1A2
330
1F
100
AcDbEntity
  8
0
  6
Continuous
 62
     7
100
AcDbLine
 10
-158.5099999999999
 20
-24.41000000000001
 30
0.0
 11
-158.5099999999999
 21
-24.06
 31
0.0
  0
LINE
  5
1A3
330
1F
100
AcDbEntity
  8
0
  6
Continuous
 62
     7
100
AcDbLine
 10
-158.5099999999999
 20
-29.0
 30
0.0
 11
-158.5099999999999
 21
-28.51000000000001
 31
0.0
  0
LINE
  5
1A4
330
1F
100
AcDbEntity
  8
0
  6
Continuous
 62
     7
100
AcDbLine
 10
-158.7099999999999
 20
-29.0
 30
0.0
 11
-158.6832145214777
 21
-29.0
 31
0.0
  0
LINE
  5
1A5
330
1F
100
AcDbEntity
  8
0
  6
Continuous
 62
     7
100
AcDbLine
 10
-158.6832145214777
 20
-29.0
 30
0.0
 11
-158.5099999999999
 21
-29.0
 31
0.0
  0
LINE
  5
1A6
330
1F
100
AcDbEntity
  8
0
  6
Continuous
 62
     7
100
AcDbLine
 10
-157.71
 20
-21.18000000000001
 30
0.0
 11
-157.7099999999999
 21
-21.38000000000001
 31
0.0
  0
LINE
  5
1A7
330
1F
100
AcDbEntity
  8
0
  6
Continuous
 62
     7
100
AcDbLine
 10
-157.7099999999999
 20
-21.38000000000001
 30
0.0
 11
-157.71
 21
-22.7924515496597
 31
0.0
  0
LINE
  5
1A8
330
1F
100
AcDbEntity
  8
0
  6
Continuous
 62
     7
100
AcDbLine
 10
-157.71
 20
-19.5675484503403
 30
0.0
 11
-157.71
 21
-21.18000000000001
 31
0.0
  0
LINE
  5
1A9
330
1F
100
AcDbEntity
  8
0
  6
Continuous
 62
     7
100
AcDbLine
 10
-157.7099999999999
 20
-28.75128784747851
 30
0.0
 11
-157.7099999999996
 21
-27.8724515496597
 31
0.0
  0
LINE
  5
1AA
330
1F
100
AcDbEntity
  8
0
  6
Continuous
 62
     7
100
AcDbLine
 10
-157.7099999999999
 20
-24.16871215252161
 30
0.0
 11
-157.71
 21
-24.64754845034031
 31
0.0
  0
LINE
  5
1AB
330
1F
100
AcDbEntity
  8
0
  6
Continuous
 62
     7
100
AcDbLine
 10
-157.71
 20
-24.64754845034031
 30
0.0
 11
-157.71
 21
-26.26000000000001
 31
0.0
  0
LINE
  5
1AC
330
1F
100
AcDbEntity
  8
0
  6
Continuous
 62
     7
100
AcDbLine
 10
-157.7099999999999
 20
-29.0
 30
0.0
 11
-157.7099999999999
 21
-28.75128784747851
 31
0.0
  0
LINE
  5
1AD
330
1F
100
AcDbEntity
  8
0
  6
Continuous
 62
     7
100
AcDbLine
 10
-157.71
 20
-26.26000000000001
 30
0.0
 11
-157.7099999999999
 21
-26.46000000000001
 31
0.0
  0
LINE
  5
1AE
330
1F
100
AcDbEntity
  8
0
  6
Continuous
 62
     7
100
AcDbLine
 10
-157.7099999999996
 20
-27.8724515496597
 30
0.0
 11
-157.7099999999999
 21
-26.46000000000001
 31
0.0
  0
LINE
  5
1AF
330
1F
100
AcDbEntity
  8
0
  6
Continuous
 62
     7
100
AcDbLine
 10
-157.7099999999999
 20
-29.0
 30
0.0
 11
-158.2099999999999
 21
-29.0
 31
0.0
  0
LINE
  5
1B0
330
1F
100
AcDbEntity
  8
0
  6
Continuous
 62
     7
100
AcDbLine
 10
-160.3841099034844
 20
-13.17000000000002
 30
0.0
 11
-160.5799999999999
 21
-13.17000000000002
 31
0.0
  0
LINE
  5
1B1
330
1F
100
AcDbEntity
  8
0
  6
Continuous
 62
     7
100
AcDbLine
 10
-160.3841099034844
 20
-9.27000000000001
 30
0.0
 11
-160.5799999999999
 21
-9.27000000000001
 31
0.0
  0
LINE
  5
1B2
330
1F
100
AcDbEntity
  8
0
  6
Continuous
 62
     7
100
AcDbLine
 10
-160.5799999999999
 20
-13.17000000000002
 30
0.0
 11
-160.5799999999999
 21
-9.27000000000001
 31
0.0
  0
LINE
  5
1B3
330
1F
100
AcDbEntity
  8
0
  6
Continuous
 62
     7
100
AcDbLine
 10
-158.7099999999999
 20
-28.51000000000001
 30
0.0
 11
-158.7099999999999
 21
-24.41000000000001
 31
0.0
  0
LINE
  5
1B4
330
1F
100
AcDbEntity
  8
0
  6
Continuous
 62
     7
100
AcDbLine
 10
-158.7099999999999
 20
-24.41000000000001
 30
0.0
 11
-158.7099999999999
 21
-23.43000000000001
 31
0.0
  0
LINE
  5
1B5
330
1F
100
AcDbEntity
  8
0
  6
Continuous
 62
     7
100
AcDbLine
 10
-158.7099999999999
 20
-23.43000000000001
 30
0.0
 11
-158.7099999999999
 21
-19.33000000000001
 31
0.0
  0
LINE
  5
1B6
330
1F
100
AcDbEntity
  8
0
  6
Continuous
 62
     7
100
AcDbLine
 10
-158.7099999999999
 20
-19.33000000000001
 30
0.0
 11
-158.7099999999999
 21
-18.35000000000001
 31
0.0
  0
LINE
  5
1B7
330
1F
100
AcDbEntity
  8
0
  6
Continuous
 62
     7
100
AcDbLine
 10
-158.7099999999999
 20
-29.0
 30
0.0
 11
-158.7099999999999
 21
-28.51000000000001
 31
0.0
  0
LINE
  5
1B8
330
1F
100
AcDbEntity
  8
0
  6
Continuous
 62
     7
100
AcDbLine
 10
-158.7099999999999
 20
-18.35000000000001
 30
0.0
 11
-158.7099999999999
 21
-14.25000000000001
 31
0.0
  0
LINE
  5
1B9
330
1F
100
AcDbEntity
  8
0
  6
Continuous
 62
     7
100
AcDbLine
 10
-158.7099999999999
 20
-14.25000000000001
 30
0.0
 11
-158.7099999999999
 21
-13.27000000000001
 31
0.0
  0
LINE
  5
1BA
330
1F
100
AcDbEntity
  8
0
  6
Continuous
 62
     7
100
AcDbLine
 10
-158.7099999999999
 20
-13.27000000000001
 30
0.0
 11
-158.7099999999999
 21
-9.17000000000002
 31
0.0
  0
LINE
  5
1BB
330
1F
100
AcDbEntity
  8
0
  6
Continuous
 62
     7
100
AcDbLine
 10
-158.7099999999999
 20
-9.17000000000002
 30
0.0
 11
-158.7099999999999
 21
-8.19000000000001
 31
0.0
  0
LINE
  5
1BC
330
1F
100
AcDbEntity
  8
0
  6
Continuous
 62
     7
100
AcDbLine
 10
-158.7099999999999
 20
1.97000000000004
 30
0.0
 11
-158.7099999999999
 21
6.07000000000005
 31
0.0
  0
LINE
  5
1BD
330
1F
100
AcDbEntity
  8
0
  6
Continuous
 62
     7
100
AcDbLine
 10
-208.6999999999996
 20
-28.45999999999999
 30
0.0
 11
-210.3094174345249
 21
-28.46000000000002
 31
0.0
  0
LINE
  5
1BE
330
1F
100
AcDbEntity
  8
0
  6
Continuous
 62
     7
100
AcDbLine
 10
-208.3999999999996
 20
-28.46000000000002
 30
0.0
 11
-208.6999999999996
 21
-28.45999999999999
 31
0.0
  0
LINE
  5
1BF
330
1F
100
AcDbEntity
  8
0
  6
Continuous
 62
     7
100
AcDbLine
 10
-210.3094174345249
 20
-28.46000000000002
 30
0.0
 11
-210.5499999999997
 21
-28.46000000000002
 31
0.0
  0
LINE
  5
1C0
330
1F
100
AcDbEntity
  8
0
  6
Continuous
 62
     7
100
AcDbLine
 10
-208.6749999999996
 20
-28.36
 30
0.0
 11
-208.789714202673
 21
-28.36
 31
0.0
  0
LINE
  5
1C1
330
1F
100
AcDbEntity
  8
0
  6
Continuous
 62
     7
100
AcDbLine
 10
-209.7678888021356
 20
-28.36000000000002
 30
0.0
 11
-209.9162117955462
 21
-28.36000000000002
 31
0.0
  0
LINE
  5
1C2
330
1F
100
AcDbEntity
  8
0
  6
Continuous
 62
     7
100
AcDbLine
 10
-210.1602857973262
 20
-28.36000000000002
 30
0.0
 11
-209.9162117955462
 21
-28.36000000000002
 31
0.0
  0
LINE
  5
1C3
330
1F
100
AcDbEntity
  8
0
  6
Continuous
 62
     7
100
AcDbLine
 10
-209.1821111978636
 20
-28.36000000000002
 30
0.0
 11
-209.7678888021356
 21
-28.36000000000002
 31
0.0
  0
LINE
  5
1C4
330
1F
100
AcDbEntity
  8
0
  6
Continuous
 62
     7
100
AcDbLine
 10
-209.033788204453
 20
-28.36000000000002
 30
0.0
 11
-209.1821111978636
 21
-28.36000000000002
 31
0.0
  0
LINE
  5
1C5
330
1F
100
AcDbEntity
  8
0
  6
Continuous
 62
     7
100
AcDbLine
 10
-209.033788204453
 20
-28.36000000000002
 30
0.0
 11
-208.789714202673
 21
-28.36
 31
0.0
  0
LINE
  5
1C6
330
1F
100
AcDbEntity
  8
0
  6
Continuous
 62
     7
100
AcDbLine
 10
-210.4749999999995
 20
-28.36000000000002
 30
0.0
 11
-210.2749999999995
 21
-28.36000000000002
 31
0.0
  0
LINE
  5
1C7
330
1F
100
AcDbEntity
  8
0
  6
Continuous
 62
     7
100
AcDbLine
 10
-210.4749999999995
 20
-28.36000000000002
 30
0.0
 11
-210.4749999999995
 21
-24.45999999999999
 31
0.0
  0
LINE
  5
1C8
330
1F
100
AcDbEntity
  8
0
  6
Continuous
 62
     7
100
AcDbLine
 10
-208.6749999999996
 20
-28.36
 30
0.0
 11
-208.4749999999995
 21
-28.36000000000002
 31
0.0
  0
LINE
  5
1C9
330
1F
100
AcDbEntity
  8
0
  6
Continuous
 62
     7
100
AcDbLine
 10
-208.6999999999996
 20
-24.36000000000002
 30
0.0
 11
-210.3094174345249
 21
-24.36
 31
0.0
  0
LINE
  5
1CA
330
1F
100
AcDbEntity
  8
0
  6
Continuous
 62
     7
100
AcDbLine
 10
-208.6999999999996
 20
-24.36000000000002
 30
0.0
 11
-208.3999999999996
 21
-24.36000000000002
 31
0.0
  0
LINE
  5
1CB
330
1F
100
AcDbEntity
  8
0
  6
Continuous
 62
     7
100
AcDbLine
 10
-208.3999999999996
 20
-24.36000000000002
 30
0.0
 11
-208.3999999999996
 21
-23.38000000000002
 31
0.0
  0
LINE
  5
1CC
330
1F
100
AcDbEntity
  8
0
  6
Continuous
 62
     7
100
AcDbLine
 10
-208.6749999999996
 20
-24.46000000000002
 30
0.0
 11
-208.789714202673
 21
-24.46000000000002
 31
0.0
  0
LINE
  5
1CD
330
1F
100
AcDbEntity
  8
0
  6
Continuous
 62
     7
100
AcDbLine
 10
-209.1821111978636
 20
-24.46000000000002
 30
0.0
 11
-209.7678888021356
 21
-24.46000000000002
 31
0.0
  0
LINE
  5
1CE
330
1F
100
AcDbEntity
  8
0
  6
Continuous
 62
     7
100
AcDbLine
 10
-209.033788204453
 20
-24.46000000000002
 30
0.0
 11
-208.789714202673
 21
-24.46000000000002
 31
0.0
  0
LINE
  5
1CF
330
1F
100
AcDbEntity
  8
0
  6
Continuous
 62
     7
100
AcDbLine
 10
-209.033788204453
 20
-24.46000000000002
 30
0.0
 11
-209.1821111978636
 21
-24.46000000000002
 31
0.0
  0
LINE
  5
1D0
330
1F
100
AcDbEntity
  8
0
  6
Continuous
 62
     7
100
AcDbLine
 10
-209.7678888021356
 20
-24.46000000000002
 30
0.0
 11
-209.9162117955462
 21
-24.46000000000002
 31
0.0
  0
LINE
  5
1D1
330
1F
100
AcDbEntity
  8
0
  6
Continuous
 62
     7
100
AcDbLine
 10
-210.1602857973262
 20
-24.46000000000002
 30
0.0
 11
-209.9162117955462
 21
-24.46000000000002
 31
0.0
  0
LINE
  5
1D2
330
1F
100
AcDbEntity
  8
0
  6
Continuous
 62
     7
100
AcDbLine
 10
-210.1602857973262
 20
-24.46000000000002
 30
0.0
 11
-210.2749999999995
 21
-24.46000000000002
 31
0.0
  0
LINE
  5
1D3
330
1F
100
AcDbEntity
  8
0
  6
Continuous
 62
     7
100
AcDbLine
 10
-210.4749999999995
 20
-24.45999999999999
 30
0.0
 11
-210.2749999999995
 21
-24.46000000000002
 31
0.0
  0
LINE
  5
1D4
330
1F
100
AcDbEntity
  8
0
  6
Continuous
 62
     7
100
AcDbLine
 10
-210.5499999999997
 20
-24.36
 30
0.0
 11
-210.3094174345249
 21
-24.36
 31
0.0
  0
LINE
  5
1D5
330
1F
100
AcDbEntity
  8
0
  6
Continuous
 62
     7
100
AcDbLine
 10
-208.6749999999996
 20
-24.46000000000002
 30
0.0
 11
-208.4749999999995
 21
-24.46000000000002
 31
0.0
  0
LINE
  5
1D6
330
1F
100
AcDbEntity
  8
0
  6
Continuous
 62
     7
100
AcDbLine
 10
-210.1602857973262
 20
-28.36000000000002
 30
0.0
 11
-210.2749999999995
 21
-28.36000000000002
 31
0.0
  0
LINE
  5
1D7
330
1F
100
AcDbEntity
  8
0
  6
Continuous
 62
     7
100
AcDbLine
 10
-209.1999999999996
 20
-28.95
 30
0.0
 11
-210.3094174345249
 21
-28.95
 31
0.0
  0
LINE
  5
1D8
330
1F
100
AcDbEntity
  8
0
  6
Continuous
 62
     7
100
AcDbLine
 10
-209.1999999999996
 20
-28.95
 30
0.0
 11
-208.6999999999996
 21
-28.95
 31
0.0
  0
LINE
  5
1D9
330
1F
100
AcDbEntity
  8
0
  6
Continuous
 62
     7
100
AcDbLine
 10
-208.6999999999996
 20
-28.95
 30
0.0
 11
-208.3999999999996
 21
-28.95
 31
0.0
  0
LINE
  5
1DA
330
1F
100
AcDbEntity
  8
0
  6
Continuous
 62
     7
100
AcDbLine
 10
-208.3999999999996
 20
-28.95
 30
0.0
 11
-208.1999999999996
 21
-28.95
 31
0.0
  0
LINE
  5
1DB
330
1F
100
AcDbEntity
  8
0
  6
Continuous
 62
     7
100
AcDbLine
 10
-208.3999999999996
 20
-24.36000000000002
 30
0.0
 11
-208.1999999999996
 21
-24.36000000000002
 31
0.0
  0
LINE
  5
1DC
330
1F
100
AcDbEntity
  8
0
  6
Continuous
 62
     7
100
AcDbLine
 10
-208.4749999999995
 20
-28.36000000000002
 30
0.0
 11
-208.4749999999995
 21
-24.46000000000002
 31
0.0
  0
LINE
  5
1DD
330
1F
100
AcDbEntity
  8
0
  6
Continuous
 62
     7
100
AcDbLine
 10
-208.1999999999996
 20
-28.46000000000002
 30
0.0
 11
-208.3999999999996
 21
-28.46000000000002
 31
0.0
  0
LINE
  5
1DE
330
1F
100
AcDbEntity
  8
0
  6
Continuous
 62
     7
100
AcDbLine
 10
-208.3999999999996
 20
-24.36000000000002
 30
0.0
 11
-208.3999999999996
 21
-28.46000000000002
 31
0.0
  0
LINE
  5
1DF
330
1F
100
AcDbEntity
  8
0
  6
Continuous
 62
     7
100
AcDbLine
 10
-204.2999999999996
 20
-28.95
 30
0.0
 11
-208.1999999999996
 21
-28.95
 31
0.0
  0
LINE
  5
1E0
330
1F
100
AcDbEntity
  8
0
  6
Continuous
 62
     7
100
AcDbLine
 10
-208.3999999999996
 20
-28.95
 30
0.0
 11
-208.3999999999996
 21
-28.46000000000002
 31
0.0
  0
LINE
  5
1E1
330
1F
100
AcDbEntity
  8
0
  6
Continuous
 62
     7
100
AcDbLine
 10
-210.3094174345249
 20
-28.95
 30
0.0
 11
-210.5813097706359
 21
-28.95
 31
0.0
  0
LINE
  5
1E2
330
1F
100
AcDbEntity
  8
0
  6
Continuous
 62
     7
100
AcDbLine
 10
-210.5499999999997
 20
-18.30000000000001
 30
0.0
 11
-210.3094174345249
 21
-18.30000000000002
 31
0.0
  0
LINE
  5
1E3
330
1F
100
AcDbEntity
  8
0
  6
Continuous
 62
     7
100
AcDbLine
 10
-210.1602857973262
 20
-19.38000000000001
 30
0.0
 11
-210.2749999999995
 21
-19.38000000000002
 31
0.0
  0
LINE
  5
1E4
330
1F
100
AcDbEntity
  8
0
  6
Continuous
 62
     7
100
AcDbLine
 10
-210.2749999999995
 20
-19.38000000000002
 30
0.0
 11
-210.4749999999995
 21
-19.38000000000002
 31
0.0
  0
LINE
  5
1E5
330
1F
100
AcDbEntity
  8
0
  6
Continuous
 62
     7
100
AcDbLine
 10
-210.4749999999995
 20
-23.28000000000002
 30
0.0
 11
-210.4749999999995
 21
-19.38000000000002
 31
0.0
  0
LINE
  5
1E6
330
1F
100
AcDbEntity
  8
0
  6
Continuous
 62
     7
100
AcDbLine
 10
-210.1602857973262
 20
-23.28000000000002
 30
0.0
 11
-210.2749999999995
 21
-23.28000000000002
 31
0.0
  0
LINE
  5
1E7
330
1F
100
AcDbEntity
  8
0
  6
Continuous
 62
     7
100
AcDbLine
 10
-210.2749999999995
 20
-23.28000000000002
 30
0.0
 11
-210.4749999999995
 21
-23.28000000000002
 31
0.0
  0
LINE
  5
1E8
330
1F
100
AcDbEntity
  8
0
  6
Continuous
 62
     7
100
AcDbLine
 10
-209.1821111978636
 20
-19.38000000000002
 30
0.0
 11
-209.7678888021356
 21
-19.38000000000002
 31
0.0
  0
LINE
  5
1E9
330
1F
100
AcDbEntity
  8
0
  6
Continuous
 62
     7
100
AcDbLine
 10
-209.1821111978636
 20
-23.28000000000002
 30
0.0
 11
-209.7678888021356
 21
-23.28000000000002
 31
0.0
  0
LINE
  5
1EA
330
1F
100
AcDbEntity
  8
0
  6
Continuous
 62
     7
100
AcDbLine
 10
-208.6749999999996
 20
-23.28000000000002
 30
0.0
 11
-208.789714202673
 21
-23.28000000000002
 31
0.0
  0
LINE
  5
1EB
330
1F
100
AcDbEntity
  8
0
  6
Continuous
 62
     7
100
AcDbLine
 10
-209.033788204453
 20
-23.28000000000002
 30
0.0
 11
-208.789714202673
 21
-23.28000000000002
 31
0.0
  0
LINE
  5
1EC
330
1F
100
AcDbEntity
  8
0
  6
Continuous
 62
     7
100
AcDbLine
 10
-209.033788204453
 20
-19.38000000000002
 30
0.0
 11
-208.789714202673
 21
-19.38000000000002
 31
0.0
  0
LINE
  5
1ED
330
1F
100
AcDbEntity
  8
0
  6
Continuous
 62
     7
100
AcDbLine
 10
-208.6749999999996
 20
-19.38000000000002
 30
0.0
 11
-208.789714202673
 21
-19.38000000000002
 31
0.0
  0
LINE
  5
1EE
330
1F
100
AcDbEntity
  8
0
  6
Continuous
 62
     7
100
AcDbLine
 10
-209.033788204453
 20
-19.38000000000002
 30
0.0
 11
-209.1821111978636
 21
-19.38000000000002
 31
0.0
  0
LINE
  5
1EF
330
1F
100
AcDbEntity
  8
0
  6
Continuous
 62
     7
100
AcDbLine
 10
-209.033788204453
 20
-23.28000000000002
 30
0.0
 11
-209.1821111978636
 21
-23.28000000000002
 31
0.0
  0
LINE
  5
1F0
330
1F
100
AcDbEntity
  8
0
  6
Continuous
 62
     7
100
AcDbLine
 10
-209.7678888021356
 20
-19.38000000000002
 30
0.0
 11
-209.9162117955462
 21
-19.38000000000002
 31
0.0
  0
LINE
  5
1F1
330
1F
100
AcDbEntity
  8
0
  6
Continuous
 62
     7
100
AcDbLine
 10
-209.7678888021356
 20
-23.28000000000002
 30
0.0
 11
-209.9162117955462
 21
-23.28000000000002
 31
0.0
  0
LINE
  5
1F2
330
1F
100
AcDbEntity
  8
0
  6
Continuous
 62
     7
100
AcDbLine
 10
-210.1602857973262
 20
-23.28000000000002
 30
0.0
 11
-209.9162117955462
 21
-23.28000000000002
 31
0.0
  0
LINE
  5
1F3
330
1F
100
AcDbEntity
  8
0
  6
Continuous
 62
     7
100
AcDbLine
 10
-210.1602857973262
 20
-19.38000000000001
 30
0.0
 11
-209.9162117955462
 21
-19.38000000000002
 31
0.0
  0
LINE
  5
1F4
330
1F
100
AcDbEntity
  8
0
  6
Continuous
 62
     7
100
AcDbLine
 10
-210.5499999999997
 20
-19.28000000000002
 30
0.0
 11
-210.3094174345249
 21
-19.28000000000002
 31
0.0
  0
LINE
  5
1F5
330
1F
100
AcDbEntity
  8
0
  6
Continuous
 62
     7
100
AcDbLine
 10
-208.6999999999996
 20
-19.28000000000002
 30
0.0
 11
-210.3094174345249
 21
-19.28000000000002
 31
0.0
  0
LINE
  5
1F6
330
1F
100
AcDbEntity
  8
0
  6
Continuous
 62
     7
100
AcDbLine
 10
-210.3094174345249
 20
-23.38000000000002
 30
0.0
 11
-208.6999999999996
 21
-23.38000000000002
 31
0.0
  0
LINE
  5
1F7
330
1F
100
AcDbEntity
  8
0
  6
Continuous
 62
     7
100
AcDbLine
 10
-210.5499999999997
 20
-23.38000000000002
 30
0.0
 11
-210.3094174345249
 21
-23.38000000000002
 31
0.0
  0
LINE
  5
1F8
330
1F
100
AcDbEntity
  8
0
  6
Continuous
 62
     7
100
AcDbLine
 10
-208.6999999999996
 20
-23.38000000000002
 30
0.0
 11
-208.3999999999996
 21
-23.38000000000002
 31
0.0
  0
LINE
  5
1F9
330
1F
100
AcDbEntity
  8
0
  6
Continuous
 62
     7
100
AcDbLine
 10
-210.3094174345249
 20
-18.30000000000002
 30
0.0
 11
-208.6999999999996
 21
-18.30000000000001
 31
0.0
  0
LINE
  5
1FA
330
1F
100
AcDbEntity
  8
0
  6
Continuous
 62
     7
100
AcDbLine
 10
-208.3999999999996
 20
-23.38000000000002
 30
0.0
 11
-208.1999999999996
 21
-23.38000000000002
 31
0.0
  0
LINE
  5
1FB
330
1F
100
AcDbEntity
  8
0
  6
Continuous
 62
     7
100
AcDbLine
 10
-208.4749999999996
 20
-23.28
 30
0.0
 11
-208.6749999999996
 21
-23.28000000000002
 31
0.0
  0
LINE
  5
1FC
330
1F
100
AcDbEntity
  8
0
  6
Continuous
 62
     7
100
AcDbLine
 10
-208.4749999999995
 20
-19.38000000000002
 30
0.0
 11
-208.6749999999996
 21
-19.38000000000002
 31
0.0
  0
LINE
  5
1FD
330
1F
100
AcDbEntity
  8
0
  6
Continuous
 62
     7
100
AcDbLine
 10
-208.4749999999996
 20
-23.28
 30
0.0
 11
-208.4749999999995
 21
-19.38000000000002
 31
0.0
  0
LINE
  5
1FE
330
1F
100
AcDbEntity
  8
0
  6
Continuous
 62
     7
100
AcDbLine
 10
-208.1999999999996
 20
-18.30000000000001
 30
0.0
 11
-208.3999999999996
 21
-18.30000000000002
 31
0.0
  0
LINE
  5
1FF
330
1F
100
AcDbEntity
  8
0
  6
Continuous
 62
     7
100
AcDbLine
 10
-208.1999999999996
 20
-19.28000000000002
 30
0.0
 11
-208.3999999999996
 21
-19.28000000000002
 31
0.0
  0
LINE
  5
200
330
1F
100
AcDbEntity
  8
0
  6
Continuous
 62
     7
100
AcDbLine
 10
-208.3999999999996
 20
-14.20000000000001
 30
0.0
 11
-208.3999999999996
 21
-18.30000000000002
 31
0.0
  0
LINE
  5
201
330
1F
100
AcDbEntity
  8
0
  6
Continuous
 62
     7
100
AcDbLine
 10
-208.1999999999996
 20
-13.22000000000002
 30
0.0
 11
-208.3999999999996
 21
-13.22000000000001
 31
0.0
  0
LINE
  5
202
330
1F
100
AcDbEntity
  8
0
  6
Continuous
 62
     7
100
AcDbLine
 10
-208.1999999999996
 20
-14.20000000000001
 30
0.0
 11
-208.3999999999996
 21
-14.20000000000001
 31
0.0
  0
LINE
  5
203
330
1F
100
AcDbEntity
  8
0
  6
Continuous
 62
     7
100
AcDbLine
 10
-208.3999999999996
 20
-19.28000000000002
 30
0.0
 11
-208.3999999999996
 21
-18.30000000000002
 31
0.0
  0
LINE
  5
204
330
1F
100
AcDbEntity
  8
0
  6
Continuous
 62
     7
100
AcDbLine
 10
-208.6999999999996
 20
-19.28000000000002
 30
0.0
 11
-208.3999999999996
 21
-19.28000000000002
 31
0.0
  0
LINE
  5
205
330
1F
100
AcDbEntity
  8
0
  6
Continuous
 62
     7
100
AcDbLine
 10
-208.6999999999996
 20
-18.30000000000001
 30
0.0
 11
-208.3999999999996
 21
-18.30000000000002
 31
0.0
  0
LINE
  5
206
330
1F
100
AcDbEntity
  8
0
  6
Continuous
 62
     7
100
AcDbLine
 10
-208.3999999999996
 20
-19.28000000000002
 30
0.0
 11
-208.3999999999996
 21
-23.38000000000002
 31
0.0
  0
LINE
  5
207
330
1F
100
AcDbEntity
  8
0
  6
Continuous
 62
     7
100
AcDbLine
 10
-210.5499999999997
 20
-14.20000000000002
 30
0.0
 11
-210.3094174345249
 21
-14.20000000000001
 31
0.0
  0
LINE
  5
208
330
1F
100
AcDbEntity
  8
0
  6
Continuous
 62
     7
100
AcDbLine
 10
-210.5499999999997
 20
-13.22000000000001
 30
0.0
 11
-210.3094174345249
 21
-13.22000000000001
 31
0.0
  0
LINE
  5
209
330
1F
100
AcDbEntity
  8
0
  6
Continuous
 62
     7
100
AcDbLine
 10
-210.2749999999995
 20
-18.20000000000002
 30
0.0
 11
-210.4749999999995
 21
-18.20000000000001
 31
0.0
  0
LINE
  5
20A
330
1F
100
AcDbEntity
  8
0
  6
Continuous
 62
     7
100
AcDbLine
 10
-210.2749999999995
 20
-14.30000000000002
 30
0.0
 11
-210.4749999999995
 21
-14.30000000000002
 31
0.0
  0
LINE
  5
20B
330
1F
100
AcDbEntity
  8
0
  6
Continuous
 62
     7
100
AcDbLine
 10
-210.4749999999995
 20
-18.20000000000001
 30
0.0
 11
-210.4749999999995
 21
-14.30000000000002
 31
0.0
  0
LINE
  5
20C
330
1F
100
AcDbEntity
  8
0
  6
Continuous
 62
     7
100
AcDbLine
 10
-210.4749999999995
 20
-13.12000000000002
 30
0.0
 11
-210.4749999999995
 21
-9.22
 31
0.0
  0
LINE
  5
20D
330
1F
100
AcDbEntity
  8
0
  6
Continuous
 62
     7
100
AcDbLine
 10
-210.2749999999995
 20
-13.12000000000001
 30
0.0
 11
-210.4749999999995
 21
-13.12000000000002
 31
0.0
  0
LINE
  5
20E
330
1F
100
AcDbEntity
  8
0
  6
Continuous
 62
     7
100
AcDbLine
 10
-208.3999999999996
 20
-14.20000000000001
 30
0.0
 11
-208.3999999999996
 21
-13.22000000000001
 31
0.0
  0
LINE
  5
20F
330
1F
100
AcDbEntity
  8
0
  6
Continuous
 62
     7
100
AcDbLine
 10
-208.6999999999996
 20
-14.20000000000001
 30
0.0
 11
-210.3094174345249
 21
-14.20000000000001
 31
0.0
  0
LINE
  5
210
330
1F
100
AcDbEntity
  8
0
  6
Continuous
 62
     7
100
AcDbLine
 10
-208.6749999999996
 20
-18.20000000000001
 30
0.0
 11
-208.789714202673
 21
-18.20000000000001
 31
0.0
  0
LINE
  5
211
330
1F
100
AcDbEntity
  8
0
  6
Continuous
 62
     7
100
AcDbLine
 10
-209.9162117955462
 20
-18.20000000000001
 30
0.0
 11
-210.1602857973262
 21
-18.20000000000001
 31
0.0
  0
LINE
  5
212
330
1F
100
AcDbEntity
  8
0
  6
Continuous
 62
     7
100
AcDbLine
 10
-208.6749999999996
 20
-18.20000000000001
 30
0.0
 11
-208.4749999999996
 21
-18.20000000000001
 31
0.0
  0
LINE
  5
213
330
1F
100
AcDbEntity
  8
0
  6
Continuous
 62
     7
100
AcDbLine
 10
-208.6749999999996
 20
-14.30000000000001
 30
0.0
 11
-208.789714202673
 21
-14.30000000000002
 31
0.0
  0
LINE
  5
214
330
1F
100
AcDbEntity
  8
0
  6
Continuous
 62
     7
100
AcDbLine
 10
-209.9162117955462
 20
-14.30000000000002
 30
0.0
 11
-210.1602857973262
 21
-14.30000000000002
 31
0.0
  0
LINE
  5
215
330
1F
100
AcDbEntity
  8
0
  6
Continuous
 62
     7
100
AcDbLine
 10
-210.1602857973262
 20
-13.12000000000001
 30
0.0
 11
-209.9162117955462
 21
-13.12000000000002
 31
0.0
  0
LINE
  5
216
330
1F
100
AcDbEntity
  8
0
  6
Continuous
 62
     7
100
AcDbLine
 10
-208.4749999999995
 20
-13.12000000000002
 30
0.0
 11
-208.4749999999995
 21
-9.22
 31
0.0
  0
LINE
  5
217
330
1F
100
AcDbEntity
  8
0
  6
Continuous
 62
     7
100
AcDbLine
 10
-208.6749999999996
 20
-13.12000000000001
 30
0.0
 11
-208.4749999999995
 21
-13.12000000000002
 31
0.0
  0
LINE
  5
218
330
1F
100
AcDbEntity
  8
0
  6
Continuous
 62
     7
100
AcDbLine
 10
-208.6749999999996
 20
-13.12000000000001
 30
0.0
 11
-208.789714202673
 21
-13.12000000000001
 31
0.0
  0
LINE
  5
219
330
1F
100
AcDbEntity
  8
0
  6
Continuous
 62
     7
100
AcDbLine
 10
-208.6749999999996
 20
-14.30000000000001
 30
0.0
 11
-208.4749999999996
 21
-14.30000000000002
 31
0.0
  0
LINE
  5
21A
330
1F
100
AcDbEntity
  8
0
  6
Continuous
 62
     7
100
AcDbLine
 10
-209.033788204453
 20
-18.20000000000001
 30
0.0
 11
-209.1821111978636
 21
-18.20000000000001
 31
0.0
  0
LINE
  5
21B
330
1F
100
AcDbEntity
  8
0
  6
Continuous
 62
     7
100
AcDbLine
 10
-209.1821111978636
 20
-18.20000000000001
 30
0.0
 11
-209.7678888021356
 21
-18.20000000000001
 31
0.0
  0
LINE
  5
21C
330
1F
100
AcDbEntity
  8
0
  6
Continuous
 62
     7
100
AcDbLine
 10
-209.7678888021356
 20
-18.20000000000001
 30
0.0
 11
-209.9162117955462
 21
-18.20000000000001
 31
0.0
  0
LINE
  5
21D
330
1F
100
AcDbEntity
  8
0
  6
Continuous
 62
     7
100
AcDbLine
 10
-209.033788204453
 20
-18.20000000000001
 30
0.0
 11
-208.789714202673
 21
-18.20000000000001
 31
0.0
  0
LINE
  5
21E
330
1F
100
AcDbEntity
  8
0
  6
Continuous
 62
     7
100
AcDbLine
 10
-209.033788204453
 20
-13.12000000000001
 30
0.0
 11
-209.1821111978636
 21
-13.12000000000001
 31
0.0
  0
LINE
  5
21F
330
1F
100
AcDbEntity
  8
0
  6
Continuous
 62
     7
100
AcDbLine
 10
-209.1821111978636
 20
-13.12000000000001
 30
0.0
 11
-209.7678888021356
 21
-13.12000000000001
 31
0.0
  0
LINE
  5
220
330
1F
100
AcDbEntity
  8
0
  6
Continuous
 62
     7
100
AcDbLine
 10
-209.033788204453
 20
-13.12000000000001
 30
0.0
 11
-208.789714202673
 21
-13.12000000000001
 31
0.0
  0
LINE
  5
221
330
1F
100
AcDbEntity
  8
0
  6
Continuous
 62
     7
100
AcDbLine
 10
-209.7678888021356
 20
-13.12000000000001
 30
0.0
 11
-209.9162117955462
 21
-13.12000000000002
 31
0.0
  0
LINE
  5
222
330
1F
100
AcDbEntity
  8
0
  6
Continuous
 62
     7
100
AcDbLine
 10
-209.033788204453
 20
-14.30000000000002
 30
0.0
 11
-209.1821111978636
 21
-14.30000000000002
 31
0.0
  0
LINE
  5
223
330
1F
100
AcDbEntity
  8
0
  6
Continuous
 62
     7
100
AcDbLine
 10
-209.1821111978636
 20
-14.30000000000002
 30
0.0
 11
-209.7678888021356
 21
-14.30000000000002
 31
0.0
  0
LINE
  5
224
330
1F
100
AcDbEntity
  8
0
  6
Continuous
 62
     7
100
AcDbLine
 10
-209.7678888021356
 20
-14.30000000000002
 30
0.0
 11
-209.9162117955462
 21
-14.30000000000002
 31
0.0
  0
LINE
  5
225
330
1F
100
AcDbEntity
  8
0
  6
Continuous
 62
     7
100
AcDbLine
 10
-209.033788204453
 20
-14.30000000000002
 30
0.0
 11
-208.789714202673
 21
-14.30000000000002
 31
0.0
  0
LINE
  5
226
330
1F
100
AcDbEntity
  8
0
  6
Continuous
 62
     7
100
AcDbLine
 10
-208.4749999999996
 20
-18.20000000000001
 30
0.0
 11
-208.4749999999996
 21
-14.30000000000002
 31
0.0
  0
LINE
  5
227
330
1F
100
AcDbEntity
  8
0
  6
Continuous
 62
     7
100
AcDbLine
 10
-210.1602857973262
 20
-13.12000000000001
 30
0.0
 11
-210.2749999999995
 21
-13.12000000000001
 31
0.0
  0
LINE
  5
228
330
1F
100
AcDbEntity
  8
0
  6
Continuous
 62
     7
100
AcDbLine
 10
-210.1602857973262
 20
-18.20000000000001
 30
0.0
 11
-210.2749999999995
 21
-18.20000000000002
 31
0.0
  0
LINE
  5
229
330
1F
100
AcDbEntity
  8
0
  6
Continuous
 62
     7
100
AcDbLine
 10
-210.1602857973262
 20
-14.30000000000002
 30
0.0
 11
-210.2749999999995
 21
-14.30000000000002
 31
0.0
  0
LINE
  5
22A
330
1F
100
AcDbEntity
  8
0
  6
Continuous
 62
     7
100
AcDbLine
 10
-208.6999999999996
 20
-14.20000000000001
 30
0.0
 11
-208.3999999999996
 21
-14.20000000000001
 31
0.0
  0
LINE
  5
22B
330
1F
100
AcDbEntity
  8
0
  6
Continuous
 62
     7
100
AcDbLine
 10
-210.3094174345249
 20
-13.22000000000001
 30
0.0
 11
-208.6999999999996
 21
-13.22000000000002
 31
0.0
  0
LINE
  5
22C
330
1F
100
AcDbEntity
  8
0
  6
Continuous
 62
     7
100
AcDbLine
 10
-208.6999999999996
 20
-13.22000000000002
 30
0.0
 11
-208.3999999999996
 21
-13.22000000000001
 31
0.0
  0
LINE
  5
22D
330
1F
100
AcDbEntity
  8
0
  6
Continuous
 62
     7
100
AcDbLine
 10
-208.3999999999996
 20
-9.12
 30
0.0
 11
-208.3999999999996
 21
-13.22000000000001
 31
0.0
  0
LINE
  5
22E
330
1F
100
AcDbEntity
  8
0
  6
Continuous
 62
     7
100
AcDbLine
 10
-215.8999999999996
 20
-26.21000000000002
 30
0.0
 11
-215.8999999999996
 21
-21.13000000000002
 31
0.0
  0
LINE
  5
22F
330
1F
100
AcDbEntity
  8
0
  6
Continuous
 62
     7
100
AcDbLine
 10
-210.9942287421309
 20
-23.38000000000002
 30
0.0
 11
-210.9942287421309
 21
-24.36000000000002
 31
0.0
  0
LINE
  5
230
330
1F
100
AcDbEntity
  8
0
  6
Continuous
 62
     7
100
AcDbLine
 10
-210.5813097706359
 20
-23.38000000000002
 30
0.0
 11
-210.5813097706359
 21
-24.36000000000002
 31
0.0
  0
LINE
  5
231
330
1F
100
AcDbEntity
  8
0
  6
Continuous
 62
     7
100
AcDbLine
 10
-215.8999999999996
 20
-28.95
 30
0.0
 11
-215.5999999999996
 21
-28.95
 31
0.0
  0
LINE
  5
232
330
1F
100
AcDbEntity
  8
0
  6
Continuous
 62
     7
100
AcDbLine
 10
-215.8999999999996
 20
-28.95
 30
0.0
 11
-215.8999999999996
 21
-26.21000000000002
 31
0.0
  0
LINE
  5
233
330
1F
100
AcDbEntity
  8
0
  6
Continuous
 62
     7
100
AcDbLine
 10
-214.1999999999997
 20
-25.24693198578711
 30
0.0
 11
-214.1999999999997
 21
-27.17306801421292
 31
0.0
  0
LINE
  5
234
330
1F
100
AcDbEntity
  8
0
  6
Continuous
 62
     7
100
AcDbLine
 10
-210.5813097706359
 20
-28.95
 30
0.0
 11
-210.5813097706359
 21
-28.46000000000002
 31
0.0
  0
LINE
  5
235
330
1F
100
AcDbEntity
  8
0
  6
Continuous
 62
     7
100
AcDbLine
 10
-210.5813097706359
 20
-28.95
 30
0.0
 11
-210.9942287421309
 21
-28.95
 31
0.0
  0
LINE
  5
236
330
1F
100
AcDbEntity
  8
0
  6
Continuous
 62
     7
100
AcDbLine
 10
-210.9942287421309
 20
-28.95
 30
0.0
 11
-211.2661210782418
 21
-28.95
 31
0.0
  0
LINE
  5
237
330
1F
100
AcDbEntity
  8
0
  6
Continuous
 62
     7
100
AcDbLine
 10
-210.9942287421309
 20
-28.95
 30
0.0
 11
-210.9942287421309
 21
-28.46000000000002
 31
0.0
  0
LINE
  5
238
330
1F
100
AcDbEntity
  8
0
  6
Continuous
 62
     7
100
AcDbLine
 10
-211.2661210782419
 20
-24.36000000000002
 30
0.0
 11
-210.9942287421309
 21
-24.36000000000002
 31
0.0
  0
LINE
  5
239
330
1F
100
AcDbEntity
  8
0
  6
Continuous
 62
     7
100
AcDbLine
 10
-210.9942287421309
 20
-24.36000000000002
 30
0.0
 11
-210.5813097706359
 21
-24.36000000000002
 31
0.0
  0
LINE
  5
23A
330
1F
100
AcDbEntity
  8
0
  6
Continuous
 62
     7
100
AcDbLine
 10
-210.5813097706359
 20
-24.36000000000002
 30
0.0
 11
-210.5499999999997
 21
-24.36
 31
0.0
  0
LINE
  5
23B
330
1F
100
AcDbEntity
  8
0
  6
Continuous
 62
     7
100
AcDbLine
 10
-210.5499999999997
 20
-28.46000000000002
 30
0.0
 11
-210.5813097706359
 21
-28.46000000000002
 31
0.0
  0
LINE
  5
23C
330
1F
100
AcDbEntity
  8
0
  6
Continuous
 62
     7
100
AcDbLine
 10
-210.5813097706359
 20
-28.46000000000002
 30
0.0
 11
-210.9942287421309
 21
-28.46000000000002
 31
0.0
  0
LINE
  5
23D
330
1F
100
AcDbEntity
  8
0
  6
Continuous
 62
     7
100
AcDbLine
 10
-210.9942287421309
 20
-28.46000000000002
 30
0.0
 11
-211.2661210782418
 21
-28.46000000000002
 31
0.0
  0
LINE
  5
23E
330
1F
100
AcDbEntity
  8
0
  6
Continuous
 62
     7
100
AcDbLine
 10
-211.8999999999997
 20
-27.17306801421292
 30
0.0
 11
-211.8999999999997
 21
-25.24693198578711
 31
0.0
  0
LINE
  5
23F
330
1F
100
AcDbEntity
  8
0
  6
Continuous
 62
     7
100
AcDbLine
 10
-211.2661210782418
 20
-28.95
 30
0.0
 11
-215.3999999999997
 21
-28.95
 31
0.0
  0
LINE
  5
240
330
1F
100
AcDbEntity
  8
0
  6
Continuous
 62
     7
100
AcDbLine
 10
-215.3999999999997
 20
-28.95
 30
0.0
 11
-215.5999999999996
 21
-28.95
 31
0.0
  0
LINE
  5
241
330
1F
100
AcDbEntity
  8
0
  6
Continuous
 62
     7
100
AcDbLine
 10
-210.5499999999997
 20
-24.36
 30
0.0
 11
-210.5499999999997
 21
-28.46000000000002
 31
0.0
  0
LINE
  5
242
330
1F
100
AcDbEntity
  8
0
  6
Continuous
 62
     7
100
AcDbLine
 10
-214.1999999999997
 20
-20.16693198578711
 30
0.0
 11
-214.1999999999997
 21
-22.09306801421293
 31
0.0
  0
LINE
  5
243
330
1F
100
AcDbEntity
  8
0
  6
Continuous
 62
     7
100
AcDbLine
 10
-211.8999999999997
 20
-22.09306801421293
 30
0.0
 11
-211.8999999999997
 21
-20.16693198578711
 31
0.0
  0
LINE
  5
244
330
1F
100
AcDbEntity
  8
0
  6
Continuous
 62
     7
100
AcDbLine
 10
-211.2661210782418
 20
-23.38000000000002
 30
0.0
 11
-210.9942287421309
 21
-23.38000000000002
 31
0.0
  0
LINE
  5
245
330
1F
100
AcDbEntity
  8
0
  6
Continuous
 62
     7
100
AcDbLine
 10
-210.9942287421309
 20
-23.38000000000002
 30
0.0
 11
-210.5813097706359
 21
-23.38000000000002
 31
0.0
  0
LINE
  5
246
330
1F
100
AcDbEntity
  8
0
  6
Continuous
 62
     7
100
AcDbLine
 10
-210.5813097706359
 20
-23.38000000000002
 30
0.0
 11
-210.5499999999997
 21
-23.38000000000002
 31
0.0
  0
LINE
  5
247
330
1F
100
AcDbEntity
  8
0
  6
Continuous
 62
     7
100
AcDbLine
 10
-215.8999999999996
 20
-16.05000000000001
 30
0.0
 11
-215.8999999999996
 21
-21.13000000000002
 31
0.0
  0
LINE
  5
248
330
1F
100
AcDbEntity
  8
0
  6
Continuous
 62
     7
100
AcDbLine
 10
-211.2661210782419
 20
-19.28000000000002
 30
0.0
 11
-210.9942287421309
 21
-19.28000000000002
 31
0.0
  0
LINE
  5
249
330
1F
100
AcDbEntity
  8
0
  6
Continuous
 62
     7
100
AcDbLine
 10
-210.9942287421309
 20
-19.28000000000002
 30
0.0
 11
-210.5813097706359
 21
-19.28000000000002
 31
0.0
  0
LINE
  5
24A
330
1F
100
AcDbEntity
  8
0
  6
Continuous
 62
     7
100
AcDbLine
 10
-210.5813097706359
 20
-13.22000000000002
 30
0.0
 11
-210.5813097706359
 21
-14.20000000000001
 31
0.0
  0
LINE
  5
24B
330
1F
100
AcDbEntity
  8
0
  6
Continuous
 62
     7
100
AcDbLine
 10
-210.5499999999997
 20
-14.20000000000002
 30
0.0
 11
-210.5499999999997
 21
-18.30000000000001
 31
0.0
  0
LINE
  5
24C
330
1F
100
AcDbEntity
  8
0
  6
Continuous
 62
     7
100
AcDbLine
 10
-210.5499999999997
 20
-9.12000000000002
 30
0.0
 11
-210.5499999999997
 21
-13.22000000000001
 31
0.0
  0
LINE
  5
24D
330
1F
100
AcDbEntity
  8
0
  6
Continuous
 62
     7
100
AcDbLine
 10
-210.5813097706359
 20
-18.30000000000001
 30
0.0
 11
-210.5813097706359
 21
-19.28000000000002
 31
0.0
  0
LINE
  5
24E
330
1F
100
AcDbEntity
  8
0
  6
Continuous
 62
     7
100
AcDbLine
 10
-210.9942287421309
 20
-14.20000000000001
 30
0.0
 11
-210.5813097706359
 21
-14.20000000000001
 31
0.0
  0
LINE
  5
24F
330
1F
100
AcDbEntity
  8
0
  6
Continuous
 62
     7
100
AcDbLine
 10
-210.5813097706359
 20
-14.20000000000001
 30
0.0
 11
-210.5499999999997
 21
-14.20000000000002
 31
0.0
  0
LINE
  5
250
330
1F
100
AcDbEntity
  8
0
  6
Continuous
 62
     7
100
AcDbLine
 10
-210.9942287421309
 20
-13.22000000000002
 30
0.0
 11
-210.5813097706359
 21
-13.22000000000002
 31
0.0
  0
LINE
  5
251
330
1F
100
AcDbEntity
  8
0
  6
Continuous
 62
     7
100
AcDbLine
 10
-210.5813097706359
 20
-13.22000000000002
 30
0.0
 11
-210.5499999999997
 21
-13.22000000000001
 31
0.0
  0
LINE
  5
252
330
1F
100
AcDbEntity
  8
0
  6
Continuous
 62
     7
100
AcDbLine
 10
-210.9942287421309
 20
-18.30000000000001
 30
0.0
 11
-210.5813097706359
 21
-18.30000000000001
 31
0.0
  0
LINE
  5
253
330
1F
100
AcDbEntity
  8
0
  6
Continuous
 62
     7
100
AcDbLine
 10
-210.5813097706359
 20
-18.30000000000001
 30
0.0
 11
-210.5499999999997
 21
-18.30000000000001
 31
0.0
  0
LINE
  5
254
330
1F
100
AcDbEntity
  8
0
  6
Continuous
 62
     7
100
AcDbLine
 10
-210.9942287421309
 20
-13.22000000000002
 30
0.0
 11
-210.9942287421309
 21
-14.20000000000001
 31
0.0
  0
LINE
  5
255
330
1F
100
AcDbEntity
  8
0
  6
Continuous
 62
     7
100
AcDbLine
 10
-210.9942287421309
 20
-18.30000000000001
 30
0.0
 11
-210.9942287421309
 21
-19.28000000000002
 31
0.0
  0
LINE
  5
256
330
1F
100
AcDbEntity
  8
0
  6
Continuous
 62
     7
100
AcDbLine
 10
-211.8999999999997
 20
-17.01306801421292
 30
0.0
 11
-211.8999999999997
 21
-15.0869319857871
 31
0.0
  0
LINE
  5
257
330
1F
100
AcDbEntity
  8
0
  6
Continuous
 62
     7
100
AcDbLine
 10
-214.1999999999997
 20
-17.01306801421292
 30
0.0
 11
-214.1999999999997
 21
-15.0869319857871
 31
0.0
  0
LINE
  5
258
330
1F
100
AcDbEntity
  8
0
  6
Continuous
 62
     7
100
AcDbLine
 10
-215.8999999999996
 20
-16.05000000000001
 30
0.0
 11
-215.8999999999996
 21
-10.97000000000001
 31
0.0
  0
LINE
  5
259
330
1F
100
AcDbEntity
  8
0
  6
Continuous
 62
     7
100
AcDbLine
 10
-211.8999999999997
 20
-11.93306801421292
 30
0.0
 11
-211.8999999999997
 21
-10.00693198578711
 31
0.0
  0
LINE
  5
25A
330
1F
100
AcDbEntity
  8
0
  6
Continuous
 62
     7
100
AcDbLine
 10
-214.1999999999997
 20
-10.00693198578711
 30
0.0
 11
-214.1999999999997
 21
-11.93306801421292
 31
0.0
  0
LINE
  5
25B
330
1F
100
AcDbEntity
  8
0
  6
Continuous
 62
     7
100
AcDbLine
 10
-215.8999999999996
 20
-10.97000000000001
 30
0.0
 11
-215.8999999999996
 21
-5.89000000000001
 31
0.0
  0
LINE
  5
25C
330
1F
100
AcDbEntity
  8
0
  6
Continuous
 62
     7
100
AcDbLine
 10
-211.2661210782418
 20
-18.30000000000001
 30
0.0
 11
-210.9942287421309
 21
-18.30000000000001
 31
0.0
  0
LINE
  5
25D
330
1F
100
AcDbEntity
  8
0
  6
Continuous
 62
     7
100
AcDbLine
 10
-211.2661210782419
 20
-14.20000000000001
 30
0.0
 11
-210.9942287421309
 21
-14.20000000000001
 31
0.0
  0
LINE
  5
25E
330
1F
100
AcDbEntity
  8
0
  6
Continuous
 62
     7
100
AcDbLine
 10
-211.2661210782418
 20
-13.22000000000002
 30
0.0
 11
-210.9942287421309
 21
-13.22000000000002
 31
0.0
  0
LINE
  5
25F
330
1F
100
AcDbEntity
  8
0
  6
Continuous
 62
     7
100
AcDbLine
 10
-210.5813097706359
 20
-19.28000000000002
 30
0.0
 11
-210.5499999999997
 21
-19.28000000000002
 31
0.0
  0
LINE
  5
260
330
1F
100
AcDbEntity
  8
0
  6
Continuous
 62
     7
100
AcDbLine
 10
-210.5499999999997
 20
-19.28000000000002
 30
0.0
 11
-210.5499999999997
 21
-23.38000000000002
 31
0.0
  0
LINE
  5
261
330
1F
100
AcDbEntity
  8
0
  6
Continuous
 62
     7
100
AcDbLine
 10
-210.5813097706359
 20
6.61
 30
0.0
 11
-210.9942287421309
 21
6.61
 31
0.0
  0
LINE
  5
262
330
1F
100
AcDbEntity
  8
0
  6
Continuous
 62
     7
100
AcDbLine
 10
-210.9942287421309
 20
6.61
 30
0.0
 11
-211.2661210782418
 21
6.61
 31
0.0
  0
LINE
  5
263
330
1F
100
AcDbEntity
  8
0
  6
Continuous
 62
     7
100
AcDbLine
 10
-210.9942287421309
 20
6.12
 30
0.0
 11
-211.2661210782418
 21
6.11999999999999
 31
0.0
  0
LINE
  5
264
330
1F
100
AcDbEntity
  8
0
  6
Continuous
 62
     7
100
AcDbLine
 10
-210.5499999999997
 20
6.11999999999999
 30
0.0
 11
-210.3094174345249
 21
6.11999999999999
 31
0.0
  0
LINE
  5
265
330
1F
100
AcDbEntity
  8
0
  6
Continuous
 62
     7
100
AcDbLine
 10
-208.6999999999996
 20
6.11999999999999
 30
0.0
 11
-210.3094174345249
 21
6.11999999999999
 31
0.0
  0
LINE
  5
266
330
1F
100
AcDbEntity
  8
0
  6
Continuous
 62
     7
100
AcDbLine
 10
-208.6999999999996
 20
6.11999999999999
 30
0.0
 11
-208.3999999999996
 21
6.11999999999999
 31
0.0
  0
LINE
  5
267
330
1F
100
AcDbEntity
  8
0
  6
Continuous
 62
     7
100
AcDbLine
 10
-208.6749999999996
 20
6.02
 30
0.0
 11
-208.4749999999995
 21
6.02
 31
0.0
  0
LINE
  5
268
330
1F
100
AcDbEntity
  8
0
  6
Continuous
 62
     7
100
AcDbLine
 10
-210.4749999999995
 20
6.02
 30
0.0
 11
-210.2749999999995
 21
6.02
 31
0.0
  0
LINE
  5
269
330
1F
100
AcDbEntity
  8
0
  6
Continuous
 62
     7
100
AcDbLine
 10
-209.033788204453
 20
6.02
 30
0.0
 11
-208.789714202673
 21
6.02
 31
0.0
  0
LINE
  5
26A
330
1F
100
AcDbEntity
  8
0
  6
Continuous
 62
     7
100
AcDbLine
 10
-214.1999999999997
 20
5.23306801421289
 30
0.0
 11
-214.1999999999997
 21
3.3069319857871
 31
0.0
  0
LINE
  5
26B
330
1F
100
AcDbEntity
  8
0
  6
Continuous
 62
     7
100
AcDbLine
 10
-208.1999999999996
 20
1.04000000000001
 30
0.0
 11
-208.3999999999996
 21
1.04000000000001
 31
0.0
  0
LINE
  5
26C
330
1F
100
AcDbEntity
  8
0
  6
Continuous
 62
     7
100
AcDbLine
 10
-208.6999999999996
 20
2.01999999999999
 30
0.0
 11
-210.3094174345249
 21
2.01999999999999
 31
0.0
  0
LINE
  5
26D
330
1F
100
AcDbEntity
  8
0
  6
Continuous
 62
     7
100
AcDbLine
 10
-208.6999999999996
 20
1.03999999999998
 30
0.0
 11
-210.3094174345249
 21
1.03999999999998
 31
0.0
  0
LINE
  5
26E
330
1F
100
AcDbEntity
  8
0
  6
Continuous
 62
     7
100
AcDbLine
 10
-208.6999999999996
 20
1.03999999999998
 30
0.0
 11
-208.3999999999996
 21
1.04000000000001
 31
0.0
  0
LINE
  5
26F
330
1F
100
AcDbEntity
  8
0
  6
Continuous
 62
     7
100
AcDbLine
 10
-208.3999999999996
 20
1.04000000000001
 30
0.0
 11
-208.3999999999996
 21
2.02
 31
0.0
  0
LINE
  5
270
330
1F
100
AcDbEntity
  8
0
  6
Continuous
 62
     7
100
AcDbLine
 10
-211.8999999999997
 20
3.3069319857871
 30
0.0
 11
-211.8999999999997
 21
5.23306801421289
 31
0.0
  0
LINE
  5
271
330
1F
100
AcDbEntity
  8
0
  6
Continuous
 62
     7
100
AcDbLine
 10
-208.1999999999996
 20
2.01999999999999
 30
0.0
 11
-208.3999999999996
 21
2.02
 31
0.0
  0
LINE
  5
272
330
1F
100
AcDbEntity
  8
0
  6
Continuous
 62
     7
100
AcDbLine
 10
-208.6749999999996
 20
2.11999999999999
 30
0.0
 11
-208.4749999999996
 21
2.12
 31
0.0
  0
LINE
  5
273
330
1F
100
AcDbEntity
  8
0
  6
Continuous
 62
     7
100
AcDbLine
 10
-208.6999999999996
 20
2.01999999999999
 30
0.0
 11
-208.3999999999996
 21
2.02
 31
0.0
  0
LINE
  5
274
330
1F
100
AcDbEntity
  8
0
  6
Continuous
 62
     7
100
AcDbLine
 10
-214.1999999999997
 20
0.15306801421291
 30
0.0
 11
-214.1999999999997
 21
-1.77306801421292
 31
0.0
  0
LINE
  5
275
330
1F
100
AcDbEntity
  8
0
  6
Continuous
 62
     7
100
AcDbLine
 10
-210.1602857973262
 20
-2.96000000000001
 30
0.0
 11
-209.9162117955462
 21
-2.96000000000001
 31
0.0
  0
LINE
  5
276
330
1F
100
AcDbEntity
  8
0
  6
Continuous
 62
     7
100
AcDbLine
 10
-210.1602857973262
 20
-2.96000000000001
 30
0.0
 11
-210.2749999999995
 21
-2.96000000000001
 31
0.0
  0
LINE
  5
277
330
1F
100
AcDbEntity
  8
0
  6
Continuous
 62
     7
100
AcDbLine
 10
-209.033788204453
 20
-2.96000000000001
 30
0.0
 11
-208.789714202673
 21
-2.96000000000001
 31
0.0
  0
LINE
  5
278
330
1F
100
AcDbEntity
  8
0
  6
Continuous
 62
     7
100
AcDbLine
 10
-211.8999999999997
 20
-1.77306801421292
 30
0.0
 11
-211.8999999999997
 21
0.15306801421291
 31
0.0
  0
LINE
  5
279
330
1F
100
AcDbEntity
  8
0
  6
Continuous
 62
     7
100
AcDbLine
 10
-210.1602857973262
 20
0.93999999999999
 30
0.0
 11
-209.9162117955462
 21
0.94
 31
0.0
  0
LINE
  5
27A
330
1F
100
AcDbEntity
  8
0
  6
Continuous
 62
     7
100
AcDbLine
 10
-209.033788204453
 20
2.11999999999999
 30
0.0
 11
-208.789714202673
 21
2.11999999999999
 31
0.0
  0
LINE
  5
27B
330
1F
100
AcDbEntity
  8
0
  6
Continuous
 62
     7
100
AcDbLine
 10
-210.4749999999995
 20
2.12
 30
0.0
 11
-210.2749999999995
 21
2.11999999999999
 31
0.0
  0
LINE
  5
27C
330
1F
100
AcDbEntity
  8
0
  6
Continuous
 62
     7
100
AcDbLine
 10
-210.5813097706359
 20
1.04000000000001
 30
0.0
 11
-210.9942287421309
 21
1.04000000000001
 31
0.0
  0
LINE
  5
27D
330
1F
100
AcDbEntity
  8
0
  6
Continuous
 62
     7
100
AcDbLine
 10
-210.9942287421309
 20
2.01999999999999
 30
0.0
 11
-210.5813097706359
 21
2.02
 31
0.0
  0
LINE
  5
27E
330
1F
100
AcDbEntity
  8
0
  6
Continuous
 62
     7
100
AcDbLine
 10
-210.5499999999997
 20
1.04000000000001
 30
0.0
 11
-210.3094174345249
 21
1.03999999999998
 31
0.0
  0
LINE
  5
27F
330
1F
100
AcDbEntity
  8
0
  6
Continuous
 62
     7
100
AcDbLine
 10
-210.9942287421309
 20
1.04000000000001
 30
0.0
 11
-211.2661210782419
 21
1.03999999999998
 31
0.0
  0
LINE
  5
280
330
1F
100
AcDbEntity
  8
0
  6
Continuous
 62
     7
100
AcDbLine
 10
-210.5499999999997
 20
2.02
 30
0.0
 11
-210.3094174345249
 21
2.01999999999999
 31
0.0
  0
LINE
  5
281
330
1F
100
AcDbEntity
  8
0
  6
Continuous
 62
     7
100
AcDbLine
 10
-210.9942287421309
 20
2.01999999999999
 30
0.0
 11
-211.2661210782418
 21
2.01999999999999
 31
0.0
  0
LINE
  5
282
330
1F
100
AcDbEntity
  8
0
  6
Continuous
 62
     7
100
AcDbLine
 10
-210.9942287421309
 20
2.01999999999999
 30
0.0
 11
-210.9942287421309
 21
1.04000000000001
 31
0.0
  0
LINE
  5
283
330
1F
100
AcDbEntity
  8
0
  6
Continuous
 62
     7
100
AcDbLine
 10
-210.1602857973262
 20
0.93999999999999
 30
0.0
 11
-210.2749999999995
 21
0.94
 31
0.0
  0
LINE
  5
284
330
1F
100
AcDbEntity
  8
0
  6
Continuous
 62
     7
100
AcDbLine
 10
-209.033788204453
 20
0.94
 30
0.0
 11
-208.789714202673
 21
0.94
 31
0.0
  0
LINE
  5
285
330
1F
100
AcDbEntity
  8
0
  6
Continuous
 62
     7
100
AcDbLine
 10
-210.4749999999995
 20
2.12
 30
0.0
 11
-210.4749999999995
 21
6.02
 31
0.0
  0
LINE
  5
286
330
1F
100
AcDbEntity
  8
0
  6
Continuous
 62
     7
100
AcDbLine
 10
-208.4749999999996
 20
2.12
 30
0.0
 11
-208.4749999999995
 21
6.02
 31
0.0
  0
LINE
  5
287
330
1F
100
AcDbEntity
  8
0
  6
Continuous
 62
     7
100
AcDbLine
 10
-210.5813097706359
 20
6.11999999999999
 30
0.0
 11
-210.9942287421309
 21
6.12
 31
0.0
  0
LINE
  5
288
330
1F
100
AcDbEntity
  8
0
  6
Continuous
 62
     7
100
AcDbLine
 10
-210.9942287421309
 20
6.12
 30
0.0
 11
-210.9942287421309
 21
6.61
 31
0.0
  0
LINE
  5
289
330
1F
100
AcDbEntity
  8
0
  6
Continuous
 62
     7
100
AcDbLine
 10
-215.8999999999996
 20
6.61
 30
0.0
 11
-215.8999999999997
 21
4.27
 31
0.0
  0
LINE
  5
28A
330
1F
100
AcDbEntity
  8
0
  6
Continuous
 62
     7
100
AcDbLine
 10
-215.5999999999996
 20
6.61
 30
0.0
 11
-215.8999999999996
 21
6.61
 31
0.0
  0
LINE
  5
28B
330
1F
100
AcDbEntity
  8
0
  6
Continuous
 62
     7
100
AcDbLine
 10
-215.8999999999997
 20
4.27
 30
0.0
 11
-215.8999999999996
 21
-0.81
 31
0.0
  0
LINE
  5
28C
330
1F
100
AcDbEntity
  8
0
  6
Continuous
 62
     7
100
AcDbLine
 10
-210.1602857973262
 20
-9.22000000000001
 30
0.0
 11
-209.9162117955462
 21
-9.22
 31
0.0
  0
LINE
  5
28D
330
1F
100
AcDbEntity
  8
0
  6
Continuous
 62
     7
100
AcDbLine
 10
-210.5499999999997
 20
-9.12000000000002
 30
0.0
 11
-210.3094174345249
 21
-9.12000000000002
 31
0.0
  0
LINE
  5
28E
330
1F
100
AcDbEntity
  8
0
  6
Continuous
 62
     7
100
AcDbLine
 10
-211.8999999999997
 20
-6.85306801421292
 30
0.0
 11
-211.8999999999997
 21
-4.92693198578711
 31
0.0
  0
LINE
  5
28F
330
1F
100
AcDbEntity
  8
0
  6
Continuous
 62
     7
100
AcDbLine
 10
-214.1999999999997
 20
-6.85306801421292
 30
0.0
 11
-214.1999999999997
 21
-4.92693198578711
 31
0.0
  0
LINE
  5
290
330
1F
100
AcDbEntity
  8
0
  6
Continuous
 62
     7
100
AcDbLine
 10
-210.5813097706359
 20
-8.14000000000001
 30
0.0
 11
-210.5813097706359
 21
-9.12
 31
0.0
  0
LINE
  5
291
330
1F
100
AcDbEntity
  8
0
  6
Continuous
 62
     7
100
AcDbLine
 10
-210.9942287421309
 20
-4.04000000000001
 30
0.0
 11
-210.5813097706359
 21
-4.04000000000001
 31
0.0
  0
LINE
  5
292
330
1F
100
AcDbEntity
  8
0
  6
Continuous
 62
     7
100
AcDbLine
 10
-211.2661210782419
 20
-4.04000000000001
 30
0.0
 11
-210.9942287421309
 21
-4.04000000000001
 31
0.0
  0
LINE
  5
293
330
1F
100
AcDbEntity
  8
0
  6
Continuous
 62
     7
100
AcDbLine
 10
-210.5813097706359
 20
-4.04000000000001
 30
0.0
 11
-210.5499999999997
 21
-4.04000000000001
 31
0.0
  0
LINE
  5
294
330
1F
100
AcDbEntity
  8
0
  6
Continuous
 62
     7
100
AcDbLine
 10
-210.9942287421309
 20
-8.14000000000001
 30
0.0
 11
-210.5813097706359
 21
-8.14000000000001
 31
0.0
  0
LINE
  5
295
330
1F
100
AcDbEntity
  8
0
  6
Continuous
 62
     7
100
AcDbLine
 10
-210.5813097706359
 20
-8.14000000000001
 30
0.0
 11
-210.5499999999997
 21
-8.14000000000001
 31
0.0
  0
LINE
  5
296
330
1F
100
AcDbEntity
  8
0
  6
Continuous
 62
     7
100
AcDbLine
 10
-210.9942287421309
 20
-3.06000000000002
 30
0.0
 11
-210.5813097706359
 21
-3.06000000000002
 31
0.0
  0
LINE
  5
297
330
1F
100
AcDbEntity
  8
0
  6
Continuous
 62
     7
100
AcDbLine
 10
-211.2661210782418
 20
-3.06000000000002
 30
0.0
 11
-210.9942287421309
 21
-3.06000000000002
 31
0.0
  0
LINE
  5
298
330
1F
100
AcDbEntity
  8
0
  6
Continuous
 62
     7
100
AcDbLine
 10
-210.5813097706359
 20
-3.06000000000002
 30
0.0
 11
-210.5499999999997
 21
-3.06000000000002
 31
0.0
  0
LINE
  5
299
330
1F
100
AcDbEntity
  8
0
  6
Continuous
 62
     7
100
AcDbLine
 10
-211.2661210782418
 20
-8.14000000000001
 30
0.0
 11
-210.9942287421309
 21
-8.14000000000001
 31
0.0
  0
LINE
  5
29A
330
1F
100
AcDbEntity
  8
0
  6
Continuous
 62
     7
100
AcDbLine
 10
-211.2661210782418
 20
6.61
 30
0.0
 11
-215.3999999999997
 21
6.61
 31
0.0
  0
LINE
  5
29B
330
1F
100
AcDbEntity
  8
0
  6
Continuous
 62
     7
100
AcDbLine
 10
-210.9942287421309
 20
-8.14000000000001
 30
0.0
 11
-210.9942287421309
 21
-9.12
 31
0.0
  0
LINE
  5
29C
330
1F
100
AcDbEntity
  8
0
  6
Continuous
 62
     7
100
AcDbLine
 10
-210.9942287421309
 20
-3.06000000000002
 30
0.0
 11
-210.9942287421309
 21
-4.04000000000001
 31
0.0
  0
LINE
  5
29D
330
1F
100
AcDbEntity
  8
0
  6
Continuous
 62
     7
100
AcDbLine
 10
-211.2661210782419
 20
-9.12000000000002
 30
0.0
 11
-210.9942287421309
 21
-9.12
 31
0.0
  0
LINE
  5
29E
330
1F
100
AcDbEntity
  8
0
  6
Continuous
 62
     7
100
AcDbLine
 10
-210.9942287421309
 20
-9.12
 30
0.0
 11
-210.5813097706359
 21
-9.12
 31
0.0
  0
LINE
  5
29F
330
1F
100
AcDbEntity
  8
0
  6
Continuous
 62
     7
100
AcDbLine
 10
-210.5813097706359
 20
-9.12
 30
0.0
 11
-210.5499999999997
 21
-9.12000000000002
 31
0.0
  0
LINE
  5
2A0
330
1F
100
AcDbEntity
  8
0
  6
Continuous
 62
     7
100
AcDbLine
 10
-215.3999999999997
 20
6.61
 30
0.0
 11
-215.5999999999996
 21
6.61
 31
0.0
  0
LINE
  5
2A1
330
1F
100
AcDbEntity
  8
0
  6
Continuous
 62
     7
100
AcDbLine
 10
-210.2749999999995
 20
-9.22
 30
0.0
 11
-210.4749999999995
 21
-9.22
 31
0.0
  0
LINE
  5
2A2
330
1F
100
AcDbEntity
  8
0
  6
Continuous
 62
     7
100
AcDbLine
 10
-210.1602857973262
 20
-9.22000000000001
 30
0.0
 11
-210.2749999999995
 21
-9.22
 31
0.0
  0
LINE
  5
2A3
330
1F
100
AcDbEntity
  8
0
  6
Continuous
 62
     7
100
AcDbLine
 10
-209.7678888021356
 20
-9.22000000000001
 30
0.0
 11
-209.9162117955462
 21
-9.22
 31
0.0
  0
LINE
  5
2A4
330
1F
100
AcDbEntity
  8
0
  6
Continuous
 62
     7
100
AcDbLine
 10
-208.6749999999996
 20
-9.22
 30
0.0
 11
-208.4749999999995
 21
-9.22
 31
0.0
  0
LINE
  5
2A5
330
1F
100
AcDbEntity
  8
0
  6
Continuous
 62
     7
100
AcDbLine
 10
-208.6749999999996
 20
-9.22
 30
0.0
 11
-208.789714202673
 21
-9.22
 31
0.0
  0
LINE
  5
2A6
330
1F
100
AcDbEntity
  8
0
  6
Continuous
 62
     7
100
AcDbLine
 10
-209.033788204453
 20
-9.22
 30
0.0
 11
-209.1821111978636
 21
-9.22
 31
0.0
  0
LINE
  5
2A7
330
1F
100
AcDbEntity
  8
0
  6
Continuous
 62
     7
100
AcDbLine
 10
-209.033788204453
 20
-9.22
 30
0.0
 11
-208.789714202673
 21
-9.22
 31
0.0
  0
LINE
  5
2A8
330
1F
100
AcDbEntity
  8
0
  6
Continuous
 62
     7
100
AcDbLine
 10
-209.1821111978636
 20
-9.22
 30
0.0
 11
-209.7678888021356
 21
-9.22000000000001
 31
0.0
  0
LINE
  5
2A9
330
1F
100
AcDbEntity
  8
0
  6
Continuous
 62
     7
100
AcDbLine
 10
-208.6999999999996
 20
-9.12000000000002
 30
0.0
 11
-208.3999999999996
 21
-9.12
 31
0.0
  0
LINE
  5
2AA
330
1F
100
AcDbEntity
  8
0
  6
Continuous
 62
     7
100
AcDbLine
 10
-208.3999999999996
 20
-9.12
 30
0.0
 11
-208.3999999999996
 21
-8.14000000000001
 31
0.0
  0
LINE
  5
2AB
330
1F
100
AcDbEntity
  8
0
  6
Continuous
 62
     7
100
AcDbLine
 10
-208.6999999999996
 20
-9.12000000000002
 30
0.0
 11
-210.3094174345249
 21
-9.12000000000002
 31
0.0
  0
LINE
  5
2AC
330
1F
100
AcDbEntity
  8
0
  6
Continuous
 62
     7
100
AcDbLine
 10
-208.1999999999996
 20
-9.12
 30
0.0
 11
-208.3999999999996
 21
-9.12
 31
0.0
  0
LINE
  5
2AD
330
1F
100
AcDbEntity
  8
0
  6
Continuous
 62
     7
100
AcDbLine
 10
-215.8999999999996
 20
-5.89000000000001
 30
0.0
 11
-215.8999999999996
 21
-0.81
 31
0.0
  0
LINE
  5
2AE
330
1F
100
AcDbEntity
  8
0
  6
Continuous
 62
     7
100
AcDbLine
 10
-208.1999999999996
 20
-8.14000000000001
 30
0.0
 11
-208.3999999999996
 21
-8.14000000000001
 31
0.0
  0
LINE
  5
2AF
330
1F
100
AcDbEntity
  8
0
  6
Continuous
 62
     7
100
AcDbLine
 10
-210.5499999999997
 20
-8.14000000000001
 30
0.0
 11
-210.3094174345249
 21
-8.14000000000001
 31
0.0
  0
LINE
  5
2B0
330
1F
100
AcDbEntity
  8
0
  6
Continuous
 62
     7
100
AcDbLine
 10
-210.3094174345249
 20
-8.14000000000001
 30
0.0
 11
-208.6999999999996
 21
-8.14000000000001
 31
0.0
  0
LINE
  5
2B1
330
1F
100
AcDbEntity
  8
0
  6
Continuous
 62
     7
100
AcDbLine
 10
-209.9162117955462
 20
-8.04000000000001
 30
0.0
 11
-210.1602857973262
 21
-8.04000000000001
 31
0.0
  0
LINE
  5
2B2
330
1F
100
AcDbEntity
  8
0
  6
Continuous
 62
     7
100
AcDbLine
 10
-210.1602857973262
 20
-8.04000000000001
 30
0.0
 11
-210.2749999999995
 21
-8.04000000000001
 31
0.0
  0
LINE
  5
2B3
330
1F
100
AcDbEntity
  8
0
  6
Continuous
 62
     7
100
AcDbLine
 10
-209.7678888021356
 20
-8.04000000000001
 30
0.0
 11
-209.9162117955462
 21
-8.04000000000001
 31
0.0
  0
LINE
  5
2B4
330
1F
100
AcDbEntity
  8
0
  6
Continuous
 62
     7
100
AcDbLine
 10
-208.4749999999996
 20
-8.04000000000001
 30
0.0
 11
-208.6749999999996
 21
-8.04000000000001
 31
0.0
  0
LINE
  5
2B5
330
1F
100
AcDbEntity
  8
0
  6
Continuous
 62
     7
100
AcDbLine
 10
-208.6749999999996
 20
-8.04000000000001
 30
0.0
 11
-208.789714202673
 21
-8.04000000000001
 31
0.0
  0
LINE
  5
2B6
330
1F
100
AcDbEntity
  8
0
  6
Continuous
 62
     7
100
AcDbLine
 10
-208.789714202673
 20
-8.04000000000001
 30
0.0
 11
-209.033788204453
 21
-8.04000000000001
 31
0.0
  0
LINE
  5
2B7
330
1F
100
AcDbEntity
  8
0
  6
Continuous
 62
     7
100
AcDbLine
 10
-209.033788204453
 20
-8.04000000000001
 30
0.0
 11
-209.1821111978636
 21
-8.04000000000001
 31
0.0
  0
LINE
  5
2B8
330
1F
100
AcDbEntity
  8
0
  6
Continuous
 62
     7
100
AcDbLine
 10
-209.1821111978636
 20
-8.04000000000001
 30
0.0
 11
-209.7678888021356
 21
-8.04000000000001
 31
0.0
  0
LINE
  5
2B9
330
1F
100
AcDbEntity
  8
0
  6
Continuous
 62
     7
100
AcDbLine
 10
-210.2749999999995
 20
-8.04000000000001
 30
0.0
 11
-210.4749999999995
 21
-8.04000000000001
 31
0.0
  0
LINE
  5
2BA
330
1F
100
AcDbEntity
  8
0
  6
Continuous
 62
     7
100
AcDbLine
 10
-208.4749999999996
 20
-8.04000000000001
 30
0.0
 11
-208.4749999999995
 21
-4.14000000000001
 31
0.0
  0
LINE
  5
2BB
330
1F
100
AcDbEntity
  8
0
  6
Continuous
 62
     7
100
AcDbLine
 10
-209.9162117955462
 20
-4.14000000000001
 30
0.0
 11
-210.1602857973262
 21
-4.14000000000001
 31
0.0
  0
LINE
  5
2BC
330
1F
100
AcDbEntity
  8
0
  6
Continuous
 62
     7
100
AcDbLine
 10
-210.1602857973262
 20
-4.14000000000001
 30
0.0
 11
-210.2749999999995
 21
-4.14000000000001
 31
0.0
  0
LINE
  5
2BD
330
1F
100
AcDbEntity
  8
0
  6
Continuous
 62
     7
100
AcDbLine
 10
-209.7678888021356
 20
-4.14000000000001
 30
0.0
 11
-209.9162117955462
 21
-4.14000000000001
 31
0.0
  0
LINE
  5
2BE
330
1F
100
AcDbEntity
  8
0
  6
Continuous
 62
     7
100
AcDbLine
 10
-209.1821111978636
 20
-4.14000000000001
 30
0.0
 11
-209.7678888021356
 21
-4.14000000000001
 31
0.0
  0
LINE
  5
2BF
330
1F
100
AcDbEntity
  8
0
  6
Continuous
 62
     7
100
AcDbLine
 10
-208.6749999999996
 20
-4.14000000000001
 30
0.0
 11
-208.789714202673
 21
-4.14000000000001
 31
0.0
  0
LINE
  5
2C0
330
1F
100
AcDbEntity
  8
0
  6
Continuous
 62
     7
100
AcDbLine
 10
-208.789714202673
 20
-4.14000000000001
 30
0.0
 11
-209.033788204453
 21
-4.14000000000001
 31
0.0
  0
LINE
  5
2C1
330
1F
100
AcDbEntity
  8
0
  6
Continuous
 62
     7
100
AcDbLine
 10
-209.033788204453
 20
-4.14000000000001
 30
0.0
 11
-209.1821111978636
 21
-4.14000000000001
 31
0.0
  0
LINE
  5
2C2
330
1F
100
AcDbEntity
  8
0
  6
Continuous
 62
     7
100
AcDbLine
 10
-210.2749999999995
 20
-4.14000000000001
 30
0.0
 11
-210.4749999999995
 21
-4.14000000000001
 31
0.0
  0
LINE
  5
2C3
330
1F
100
AcDbEntity
  8
0
  6
Continuous
 62
     7
100
AcDbLine
 10
-210.4749999999995
 20
-8.04000000000001
 30
0.0
 11
-210.4749999999995
 21
-4.14000000000001
 31
0.0
  0
LINE
  5
2C4
330
1F
100
AcDbEntity
  8
0
  6
Continuous
 62
     7
100
AcDbLine
 10
-209.033788204453
 20
-2.96000000000001
 30
0.0
 11
-209.1821111978636
 21
-2.96000000000001
 31
0.0
  0
LINE
  5
2C5
330
1F
100
AcDbEntity
  8
0
  6
Continuous
 62
     7
100
AcDbLine
 10
-209.1821111978636
 20
-2.96000000000001
 30
0.0
 11
-209.7678888021356
 21
-2.96000000000001
 31
0.0
  0
LINE
  5
2C6
330
1F
100
AcDbEntity
  8
0
  6
Continuous
 62
     7
100
AcDbLine
 10
-209.033788204453
 20
0.94
 30
0.0
 11
-209.1821111978636
 21
0.94
 31
0.0
  0
LINE
  5
2C7
330
1F
100
AcDbEntity
  8
0
  6
Continuous
 62
     7
100
AcDbLine
 10
-209.1821111978636
 20
0.94
 30
0.0
 11
-209.7678888021356
 21
0.94
 31
0.0
  0
LINE
  5
2C8
330
1F
100
AcDbEntity
  8
0
  6
Continuous
 62
     7
100
AcDbLine
 10
-210.5499999999997
 20
-3.06000000000002
 30
0.0
 11
-210.3094174345249
 21
-3.06000000000002
 31
0.0
  0
LINE
  5
2C9
330
1F
100
AcDbEntity
  8
0
  6
Continuous
 62
     7
100
AcDbLine
 10
-210.3094174345249
 20
-3.06000000000002
 30
0.0
 11
-208.6999999999996
 21
-3.06000000000002
 31
0.0
  0
LINE
  5
2CA
330
1F
100
AcDbEntity
  8
0
  6
Continuous
 62
     7
100
AcDbLine
 10
-209.033788204453
 20
6.02
 30
0.0
 11
-209.1821111978636
 21
6.02
 31
0.0
  0
LINE
  5
2CB
330
1F
100
AcDbEntity
  8
0
  6
Continuous
 62
     7
100
AcDbLine
 10
-209.1821111978636
 20
6.02
 30
0.0
 11
-209.7678888021356
 21
6.02
 31
0.0
  0
LINE
  5
2CC
330
1F
100
AcDbEntity
  8
0
  6
Continuous
 62
     7
100
AcDbLine
 10
-209.7678888021356
 20
6.02
 30
0.0
 11
-209.9162117955462
 21
6.02
 31
0.0
  0
LINE
  5
2CD
330
1F
100
AcDbEntity
  8
0
  6
Continuous
 62
     7
100
AcDbLine
 10
-209.9162117955462
 20
6.02
 30
0.0
 11
-210.1602857973262
 21
6.02
 31
0.0
  0
LINE
  5
2CE
330
1F
100
AcDbEntity
  8
0
  6
Continuous
 62
     7
100
AcDbLine
 10
-210.1602857973262
 20
6.02
 30
0.0
 11
-210.2749999999995
 21
6.02
 31
0.0
  0
LINE
  5
2CF
330
1F
100
AcDbEntity
  8
0
  6
Continuous
 62
     7
100
AcDbLine
 10
-209.033788204453
 20
2.11999999999999
 30
0.0
 11
-209.1821111978636
 21
2.11999999999999
 31
0.0
  0
LINE
  5
2D0
330
1F
100
AcDbEntity
  8
0
  6
Continuous
 62
     7
100
AcDbLine
 10
-209.1821111978636
 20
2.11999999999999
 30
0.0
 11
-209.7678888021356
 21
2.11999999999999
 31
0.0
  0
LINE
  5
2D1
330
1F
100
AcDbEntity
  8
0
  6
Continuous
 62
     7
100
AcDbLine
 10
-209.7678888021356
 20
2.11999999999999
 30
0.0
 11
-209.9162117955462
 21
2.11999999999999
 31
0.0
  0
LINE
  5
2D2
330
1F
100
AcDbEntity
  8
0
  6
Continuous
 62
     7
100
AcDbLine
 10
-209.9162117955462
 20
2.11999999999999
 30
0.0
 11
-210.1602857973262
 21
2.11999999999999
 31
0.0
  0
LINE
  5
2D3
330
1F
100
AcDbEntity
  8
0
  6
Continuous
 62
     7
100
AcDbLine
 10
-210.1602857973262
 20
2.11999999999999
 30
0.0
 11
-210.2749999999995
 21
2.11999999999999
 31
0.0
  0
LINE
  5
2D4
330
1F
100
AcDbEntity
  8
0
  6
Continuous
 62
     7
100
AcDbLine
 10
-210.4749999999995
 20
-2.96000000000001
 30
0.0
 11
-210.2749999999995
 21
-2.96000000000001
 31
0.0
  0
LINE
  5
2D5
330
1F
100
AcDbEntity
  8
0
  6
Continuous
 62
     7
100
AcDbLine
 10
-210.4749999999995
 20
-2.96000000000001
 30
0.0
 11
-210.4749999999995
 21
0.94
 31
0.0
  0
LINE
  5
2D6
330
1F
100
AcDbEntity
  8
0
  6
Continuous
 62
     7
100
AcDbLine
 10
-209.7678888021356
 20
-2.96000000000001
 30
0.0
 11
-209.9162117955462
 21
-2.96000000000001
 31
0.0
  0
LINE
  5
2D7
330
1F
100
AcDbEntity
  8
0
  6
Continuous
 62
     7
100
AcDbLine
 10
-210.4749999999995
 20
0.94
 30
0.0
 11
-210.2749999999995
 21
0.94
 31
0.0
  0
LINE
  5
2D8
330
1F
100
AcDbEntity
  8
0
  6
Continuous
 62
     7
100
AcDbLine
 10
-210.5813097706359
 20
6.11999999999999
 30
0.0
 11
-210.5499999999997
 21
6.11999999999999
 31
0.0
  0
LINE
  5
2D9
330
1F
100
AcDbEntity
  8
0
  6
Continuous
 62
     7
100
AcDbLine
 10
-210.5499999999997
 20
6.11999999999999
 30
0.0
 11
-210.5499999999997
 21
2.02
 31
0.0
  0
LINE
  5
2DA
330
1F
100
AcDbEntity
  8
0
  6
Continuous
 62
     7
100
AcDbLine
 10
-210.5813097706359
 20
6.61
 30
0.0
 11
-210.3094174345249
 21
6.61
 31
0.0
  0
LINE
  5
2DB
330
1F
100
AcDbEntity
  8
0
  6
Continuous
 62
     7
100
AcDbLine
 10
-210.5813097706359
 20
6.11999999999999
 30
0.0
 11
-210.5813097706359
 21
6.61
 31
0.0
  0
LINE
  5
2DC
330
1F
100
AcDbEntity
  8
0
  6
Continuous
 62
     7
100
AcDbLine
 10
-210.5813097706359
 20
2.02
 30
0.0
 11
-210.5499999999997
 21
2.02
 31
0.0
  0
LINE
  5
2DD
330
1F
100
AcDbEntity
  8
0
  6
Continuous
 62
     7
100
AcDbLine
 10
-210.5813097706359
 20
1.04000000000001
 30
0.0
 11
-210.5499999999997
 21
1.04000000000001
 31
0.0
  0
LINE
  5
2DE
330
1F
100
AcDbEntity
  8
0
  6
Continuous
 62
     7
100
AcDbLine
 10
-210.5813097706359
 20
2.02
 30
0.0
 11
-210.5813097706359
 21
1.04000000000001
 31
0.0
  0
LINE
  5
2DF
330
1F
100
AcDbEntity
  8
0
  6
Continuous
 62
     7
100
AcDbLine
 10
-209.7678888021356
 20
0.94
 30
0.0
 11
-209.9162117955462
 21
0.94
 31
0.0
  0
LINE
  5
2E0
330
1F
100
AcDbEntity
  8
0
  6
Continuous
 62
     7
100
AcDbLine
 10
-208.6999999999996
 20
6.61
 30
0.0
 11
-209.1999999999996
 21
6.61
 31
0.0
  0
LINE
  5
2E1
330
1F
100
AcDbEntity
  8
0
  6
Continuous
 62
     7
100
AcDbLine
 10
-209.1999999999996
 20
6.61
 30
0.0
 11
-210.3094174345249
 21
6.61
 31
0.0
  0
LINE
  5
2E2
330
1F
100
AcDbEntity
  8
0
  6
Continuous
 62
     7
100
AcDbLine
 10
-210.5499999999997
 20
1.04000000000001
 30
0.0
 11
-210.5499999999997
 21
-3.06000000000002
 31
0.0
  0
LINE
  5
2E3
330
1F
100
AcDbEntity
  8
0
  6
Continuous
 62
     7
100
AcDbLine
 10
-208.6749999999996
 20
-2.96000000000001
 30
0.0
 11
-208.789714202673
 21
-2.96000000000001
 31
0.0
  0
LINE
  5
2E4
330
1F
100
AcDbEntity
  8
0
  6
Continuous
 62
     7
100
AcDbLine
 10
-208.6749999999996
 20
0.94
 30
0.0
 11
-208.789714202673
 21
0.94
 31
0.0
  0
LINE
  5
2E5
330
1F
100
AcDbEntity
  8
0
  6
Continuous
 62
     7
100
AcDbLine
 10
-208.6749999999996
 20
6.02
 30
0.0
 11
-208.789714202673
 21
6.02
 31
0.0
  0
LINE
  5
2E6
330
1F
100
AcDbEntity
  8
0
  6
Continuous
 62
     7
100
AcDbLine
 10
-208.6749999999996
 20
2.11999999999999
 30
0.0
 11
-208.789714202673
 21
2.11999999999999
 31
0.0
  0
LINE
  5
2E7
330
1F
100
AcDbEntity
  8
0
  6
Continuous
 62
     7
100
AcDbLine
 10
-208.6999999999996
 20
-3.06000000000002
 30
0.0
 11
-208.3999999999996
 21
-3.06000000000002
 31
0.0
  0
LINE
  5
2E8
330
1F
100
AcDbEntity
  8
0
  6
Continuous
 62
     7
100
AcDbLine
 10
-208.6999999999996
 20
-4.04000000000001
 30
0.0
 11
-210.3094174345249
 21
-4.04000000000001
 31
0.0
  0
LINE
  5
2E9
330
1F
100
AcDbEntity
  8
0
  6
Continuous
 62
     7
100
AcDbLine
 10
-210.3094174345249
 20
-4.04000000000001
 30
0.0
 11
-210.5499999999997
 21
-4.04000000000001
 31
0.0
  0
LINE
  5
2EA
330
1F
100
AcDbEntity
  8
0
  6
Continuous
 62
     7
100
AcDbLine
 10
-210.5813097706359
 20
-3.06000000000002
 30
0.0
 11
-210.5813097706359
 21
-4.04000000000001
 31
0.0
  0
LINE
  5
2EB
330
1F
100
AcDbEntity
  8
0
  6
Continuous
 62
     7
100
AcDbLine
 10
-208.3999999999996
 20
-4.04000000000001
 30
0.0
 11
-208.3999999999996
 21
-8.14000000000001
 31
0.0
  0
LINE
  5
2EC
330
1F
100
AcDbEntity
  8
0
  6
Continuous
 62
     7
100
AcDbLine
 10
-208.6999999999996
 20
-8.14000000000001
 30
0.0
 11
-208.3999999999996
 21
-8.14000000000001
 31
0.0
  0
LINE
  5
2ED
330
1F
100
AcDbEntity
  8
0
  6
Continuous
 62
     7
100
AcDbLine
 10
-208.3999999999996
 20
-4.04000000000001
 30
0.0
 11
-208.6999999999996
 21
-4.04000000000001
 31
0.0
  0
LINE
  5
2EE
330
1F
100
AcDbEntity
  8
0
  6
Continuous
 62
     7
100
AcDbLine
 10
-208.6749999999996
 20
-2.96000000000001
 30
0.0
 11
-208.4749999999995
 21
-2.96000000000001
 31
0.0
  0
LINE
  5
2EF
330
1F
100
AcDbEntity
  8
0
  6
Continuous
 62
     7
100
AcDbLine
 10
-208.6749999999996
 20
0.94
 30
0.0
 11
-208.4749999999995
 21
0.94
 31
0.0
  0
LINE
  5
2F0
330
1F
100
AcDbEntity
  8
0
  6
Continuous
 62
     7
100
AcDbLine
 10
-208.4749999999995
 20
-4.14000000000001
 30
0.0
 11
-208.6749999999996
 21
-4.14000000000001
 31
0.0
  0
LINE
  5
2F1
330
1F
100
AcDbEntity
  8
0
  6
Continuous
 62
     7
100
AcDbLine
 10
-208.1999999999996
 20
-3.06000000000002
 30
0.0
 11
-208.3999999999996
 21
-3.06000000000002
 31
0.0
  0
LINE
  5
2F2
330
1F
100
AcDbEntity
  8
0
  6
Continuous
 62
     7
100
AcDbLine
 10
-208.1999999999996
 20
-4.04000000000001
 30
0.0
 11
-208.3999999999996
 21
-4.04000000000001
 31
0.0
  0
LINE
  5
2F3
330
1F
100
AcDbEntity
  8
0
  6
Continuous
 62
     7
100
AcDbLine
 10
-208.3999999999996
 20
-4.04000000000001
 30
0.0
 11
-208.3999999999996
 21
-3.06000000000002
 31
0.0
  0
LINE
  5
2F4
330
1F
100
AcDbEntity
  8
0
  6
Continuous
 62
     7
100
AcDbLine
 10
-208.4749999999995
 20
-2.96000000000001
 30
0.0
 11
-208.4749999999995
 21
0.94
 31
0.0
  0
LINE
  5
2F5
330
1F
100
AcDbEntity
  8
0
  6
Continuous
 62
     7
100
AcDbLine
 10
-208.3999999999996
 20
1.04000000000001
 30
0.0
 11
-208.3999999999996
 21
-3.06000000000002
 31
0.0
  0
LINE
  5
2F6
330
1F
100
AcDbEntity
  8
0
  6
Continuous
 62
     7
100
AcDbLine
 10
-208.6999999999996
 20
6.61
 30
0.0
 11
-208.3999999999996
 21
6.61
 31
0.0
  0
LINE
  5
2F7
330
1F
100
AcDbEntity
  8
0
  6
Continuous
 62
     7
100
AcDbLine
 10
-205.9000000000009
 20
6.61
 30
0.0
 11
-206.9990378377271
 21
6.61
 31
0.0
  0
LINE
  5
2F8
330
1F
100
AcDbEntity
  8
0
  6
Continuous
 62
     7
100
AcDbLine
 10
-207.199999866025
 20
6.61
 30
0.0
 11
-207.400961894323
 21
6.61
 31
0.0
  0
LINE
  5
2F9
330
1F
100
AcDbEntity
  8
0
  6
Continuous
 62
     7
100
AcDbLine
 10
-207.400961894323
 20
6.61
 30
0.0
 11
-208.1999999999996
 21
6.61
 31
0.0
  0
LINE
  5
2FA
330
1F
100
AcDbEntity
  8
0
  6
Continuous
 62
     7
100
AcDbLine
 10
-206.9990378377271
 20
6.61
 30
0.0
 11
-207.199999866025
 21
6.61
 31
0.0
  0
LINE
  5
2FB
330
1F
100
AcDbEntity
  8
0
  6
Continuous
 62
     7
100
AcDbLine
 10
-205.6892041874229
 20
6.61
 30
0.0
 11
-205.9000000000009
 21
6.61
 31
0.0
  0
LINE
  5
2FC
330
1F
100
AcDbEntity
  8
0
  6
Continuous
 62
     7
100
AcDbLine
 10
-205.5749914738125
 20
6.61
 30
0.0
 11
-205.6892041874229
 21
6.61
 31
0.0
  0
LINE
  5
2FD
330
1F
100
AcDbEntity
  8
0
  6
Continuous
 62
     7
100
AcDbLine
 10
-204.4045542305195
 20
6.61
 30
0.0
 11
-204.2999999999996
 21
6.61
 31
0.0
  0
LINE
  5
2FE
330
1F
100
AcDbEntity
  8
0
  6
Continuous
 62
     7
100
AcDbLine
 10
-204.1761921002267
 20
6.61
 30
0.0
 11
-204.0999999999996
 21
6.61
 31
0.0
  0
LINE
  5
2FF
330
1F
100
AcDbEntity
  8
0
  6
Continuous
 62
     7
100
AcDbLine
 10
-203.9478299699339
 20
6.61
 30
0.0
 11
-203.8999999999996
 21
6.61
 31
0.0
  0
LINE
  5
300
330
1F
100
AcDbEntity
  8
0
  6
Continuous
 62
     7
100
AcDbLine
 10
-204.0999999999996
 20
6.61
 30
0.0
 11
-203.9478299699339
 21
6.61
 31
0.0
  0
LINE
  5
301
330
1F
100
AcDbEntity
  8
0
  6
Continuous
 62
     7
100
AcDbLine
 10
-204.5870944389298
 20
6.61
 30
0.0
 11
-204.4045542305195
 21
6.61
 31
0.0
  0
LINE
  5
302
330
1F
100
AcDbEntity
  8
0
  6
Continuous
 62
     7
100
AcDbLine
 10
-204.2849999999997
 20
6.61
 30
0.0
 11
-204.1761921002267
 21
6.61
 31
0.0
  0
LINE
  5
303
330
1F
100
AcDbEntity
  8
0
  6
Continuous
 62
     7
100
AcDbLine
 10
-205.416894614379
 20
6.61
 30
0.0
 11
-205.5749914738125
 21
6.61
 31
0.0
  0
LINE
  5
304
330
1F
100
AcDbEntity
  8
0
  6
Continuous
 62
     7
100
AcDbLine
 10
-205.416894614379
 20
6.61
 30
0.0
 11
-205.1273756742718
 21
6.61
 31
0.0
  0
LINE
  5
305
330
1F
100
AcDbEntity
  8
0
  6
Continuous
 62
     7
100
AcDbLine
 10
-203.6230543365878
 20
6.61
 30
0.0
 11
-203.7652897615235
 21
6.61
 31
0.0
  0
LINE
  5
306
330
1F
100
AcDbEntity
  8
0
  6
Continuous
 62
     7
100
AcDbLine
 10
-203.4189745962152
 20
6.61
 30
0.0
 11
-203.6230543365878
 21
6.61
 31
0.0
  0
LINE
  5
307
330
1F
100
AcDbEntity
  8
0
  6
Continuous
 62
     7
100
AcDbLine
 10
-203.2250085261815
 20
6.61
 30
0.0
 11
-203.383105385615
 21
6.61
 31
0.0
  0
LINE
  5
308
330
1F
100
AcDbEntity
  8
0
  6
Continuous
 62
     7
100
AcDbLine
 10
-204.9692788148384
 20
6.61
 30
0.0
 11
-205.1273756742718
 21
6.61
 31
0.0
  0
LINE
  5
309
330
1F
100
AcDbEntity
  8
0
  6
Continuous
 62
     7
100
AcDbLine
 10
-204.7293298638655
 20
6.61
 30
0.0
 11
-204.9692788148384
 21
6.61
 31
0.0
  0
LINE
  5
30A
330
1F
100
AcDbEntity
  8
0
  6
Continuous
 62
     7
100
AcDbLine
 10
-204.5870944389298
 20
6.61
 30
0.0
 11
-204.7293298638655
 21
6.61
 31
0.0
  0
LINE
  5
30B
330
1F
100
AcDbEntity
  8
0
  6
Continuous
 62
     7
100
AcDbLine
 10
-203.8999999999996
 20
6.61
 30
0.0
 11
-203.7652897615235
 21
6.61
 31
0.0
  0
LINE
  5
30C
330
1F
100
AcDbEntity
  8
0
  6
Continuous
 62
     7
100
AcDbLine
 10
-208.3999999999996
 20
6.11999999999999
 30
0.0
 11
-208.3999999999996
 21
2.02
 31
0.0
  0
LINE
  5
30D
330
1F
100
AcDbEntity
  8
0
  6
Continuous
 62
     7
100
AcDbLine
 10
-203.7999999999996
 20
0.36499999999999
 30
0.0
 11
-203.7999999999996
 21
0.16500000000001
 31
0.0
  0
LINE
  5
30E
330
1F
100
AcDbEntity
  8
0
  6
Continuous
 62
     7
100
AcDbLine
 10
-202.6249999999996
 20
0.36499999999999
 30
0.0
 11
-203.7999999999996
 21
0.36499999999999
 31
0.0
  0
LINE
  5
30F
330
1F
100
AcDbEntity
  8
0
  6
Continuous
 62
     7
100
AcDbLine
 10
-203.7999999999996
 20
5.245
 30
0.0
 11
-202.6249999999996
 21
5.24499999999999
 31
0.0
  0
LINE
  5
310
330
1F
100
AcDbEntity
  8
0
  6
Continuous
 62
     7
100
AcDbLine
 10
-203.7999999999996
 20
5.44499999999998
 30
0.0
 11
-202.6249999999996
 21
5.44499999999999
 31
0.0
  0
LINE
  5
311
330
1F
100
AcDbEntity
  8
0
  6
Continuous
 62
     7
100
AcDbLine
 10
-203.7999999999996
 20
5.44499999999998
 30
0.0
 11
-203.7999999999996
 21
5.245
 31
0.0
  0
LINE
  5
312
330
1F
100
AcDbEntity
  8
0
  6
Continuous
 62
     7
100
AcDbLine
 10
-208.1999999999996
 20
6.11999999999999
 30
0.0
 11
-208.3999999999996
 21
6.11999999999999
 31
0.0
  0
LINE
  5
313
330
1F
100
AcDbEntity
  8
0
  6
Continuous
 62
     7
100
AcDbLine
 10
-208.3999999999996
 20
6.11999999999999
 30
0.0
 11
-208.3999999999996
 21
6.61
 31
0.0
  0
LINE
  5
314
330
1F
100
AcDbEntity
  8
0
  6
Continuous
 62
     7
100
AcDbLine
 10
-208.1999999999996
 20
6.61
 30
0.0
 11
-208.3999999999996
 21
6.61
 31
0.0
  0
LINE
  5
315
330
1F
100
AcDbEntity
  8
0
  6
Continuous
 62
     7
100
AcDbLine
 10
-210.5499999999997
 20
-4.04000000000001
 30
0.0
 11
-210.5499999999997
 21
-8.14000000000001
 31
0.0
  0
LINE
  5
316
330
1F
100
AcDbEntity
  8
0
  6
Continuous
 62
     7
100
AcDbLine
 10
-203.383105385615
 20
6.61
 30
0.0
 11
-203.4189745962152
 21
6.61
 31
0.0
  0
LINE
  5
317
330
1F
100
AcDbEntity
  8
0
  6
Continuous
 62
     7
100
AcDbLine
 10
-200.8999999999996
 20
6.61
 30
0.0
 11
-201.1999999999996
 21
6.61
 31
0.0
  0
LINE
  5
318
330
1F
100
AcDbEntity
  8
0
  6
Continuous
 62
     7
100
AcDbLine
 10
-203.8999999999996
 20
-28.95
 30
0.0
 11
-203.8999999999996
 21
6.61
 31
0.0
  0
LINE
  5
319
330
1F
100
AcDbEntity
  8
0
  6
Continuous
 62
     7
100
AcDbLine
 10
-203.7999999999996
 20
2.89499999999999
 30
0.0
 11
-203.7999999999996
 21
5.245
 31
0.0
  0
LINE
  5
31A
330
1F
100
AcDbEntity
  8
0
  6
Continuous
 62
     7
100
AcDbLine
 10
-202.6249999999996
 20
2.69499999999999
 30
0.0
 11
-203.7999999999996
 21
2.69499999999998
 31
0.0
  0
LINE
  5
31B
330
1F
100
AcDbEntity
  8
0
  6
Continuous
 62
     7
100
AcDbLine
 10
-203.7999999999996
 20
2.89499999999999
 30
0.0
 11
-203.7999999999996
 21
2.69499999999998
 31
0.0
  0
LINE
  5
31C
330
1F
100
AcDbEntity
  8
0
  6
Continuous
 62
     7
100
AcDbLine
 10
-202.6249999999996
 20
2.895
 30
0.0
 11
-203.7999999999996
 21
2.89499999999999
 31
0.0
  0
LINE
  5
31D
330
1F
100
AcDbEntity
  8
0
  6
Continuous
 62
     7
100
AcDbLine
 10
-201.9199999999996
 20
3.13
 30
0.0
 11
-201.9300000000009
 21
3.13
 31
0.0
  0
LINE
  5
31E
330
1F
100
AcDbEntity
  8
0
  6
Continuous
 62
     7
100
AcDbLine
 10
-200.8999999999996
 20
-1.01
 30
0.0
 11
-200.9000000000012
 21
1.53
 31
0.0
  0
LINE
  5
31F
330
1F
100
AcDbEntity
  8
0
  6
Continuous
 62
     7
100
AcDbLine
 10
-200.9000000000012
 20
1.53
 30
0.0
 11
-200.9000000000012
 21
3.13
 31
0.0
  0
LINE
  5
320
330
1F
100
AcDbEntity
  8
0
  6
Continuous
 62
     7
100
AcDbLine
 10
-201.1999999999996
 20
-28.95
 30
0.0
 11
-202.4000000000009
 21
-28.95
 31
0.0
  0
LINE
  5
321
330
1F
100
AcDbEntity
  8
0
  6
Continuous
 62
     7
100
AcDbLine
 10
-202.4000000000009
 20
-28.95
 30
0.0
 11
-203.4189745962152
 21
-28.95
 31
0.0
  0
LINE
  5
322
330
1F
100
AcDbEntity
  8
0
  6
Continuous
 62
     7
100
AcDbLine
 10
-203.4189745962152
 20
-28.95
 30
0.0
 11
-203.8999999999996
 21
-28.95
 31
0.0
  0
LINE
  5
323
330
1F
100
AcDbEntity
  8
0
  6
Continuous
 62
     7
100
AcDbLine
 10
-202.6249999999996
 20
-22.70500000000002
 30
0.0
 11
-203.7999999999996
 21
-22.70500000000002
 31
0.0
  0
LINE
  5
324
330
1F
100
AcDbEntity
  8
0
  6
Continuous
 62
     7
100
AcDbLine
 10
-203.7999999999996
 20
-19.95500000000002
 30
0.0
 11
-203.7999999999996
 21
-20.15500000000002
 31
0.0
  0
LINE
  5
325
330
1F
100
AcDbEntity
  8
0
  6
Continuous
 62
     7
100
AcDbLine
 10
-202.6249999999996
 20
-14.87500000000001
 30
0.0
 11
-203.7999999999996
 21
-14.875
 31
0.0
  0
LINE
  5
326
330
1F
100
AcDbEntity
  8
0
  6
Continuous
 62
     7
100
AcDbLine
 10
-202.6249999999996
 20
-15.07500000000002
 30
0.0
 11
-203.7999999999996
 21
-15.075
 31
0.0
  0
LINE
  5
327
330
1F
100
AcDbEntity
  8
0
  6
Continuous
 62
     7
100
AcDbLine
 10
-203.7999999999996
 20
-17.42499999999999
 30
0.0
 11
-202.6249999999996
 21
-17.42500000000001
 31
0.0
  0
LINE
  5
328
330
1F
100
AcDbEntity
  8
0
  6
Continuous
 62
     7
100
AcDbLine
 10
-203.7999999999996
 20
-15.075
 30
0.0
 11
-203.7999999999996
 21
-17.42499999999999
 31
0.0
  0
LINE
  5
329
330
1F
100
AcDbEntity
  8
0
  6
Continuous
 62
     7
100
AcDbLine
 10
-203.7999999999996
 20
-14.875
 30
0.0
 11
-203.7999999999996
 21
-15.075
 31
0.0
  0
LINE
  5
32A
330
1F
100
AcDbEntity
  8
0
  6
Continuous
 62
     7
100
AcDbLine
 10
-203.7999999999996
 20
-17.42499999999999
 30
0.0
 11
-203.7999999999996
 21
-17.62499999999999
 31
0.0
  0
LINE
  5
32B
330
1F
100
AcDbEntity
  8
0
  6
Continuous
 62
     7
100
AcDbLine
 10
-202.6249999999996
 20
-17.62500000000001
 30
0.0
 11
-203.7999999999996
 21
-17.62499999999999
 31
0.0
  0
LINE
  5
32C
330
1F
100
AcDbEntity
  8
0
  6
Continuous
 62
     7
100
AcDbLine
 10
-202.6249999999996
 20
-19.95500000000002
 30
0.0
 11
-203.7999999999996
 21
-19.95500000000002
 31
0.0
  0
LINE
  5
32D
330
1F
100
AcDbEntity
  8
0
  6
Continuous
 62
     7
100
AcDbLine
 10
-202.6249999999996
 20
-20.15500000000002
 30
0.0
 11
-203.7999999999996
 21
-20.15500000000002
 31
0.0
  0
LINE
  5
32E
330
1F
100
AcDbEntity
  8
0
  6
Continuous
 62
     7
100
AcDbLine
 10
-203.7999999999996
 20
-20.15500000000002
 30
0.0
 11
-203.7999999999996
 21
-22.505
 31
0.0
  0
LINE
  5
32F
330
1F
100
AcDbEntity
  8
0
  6
Continuous
 62
     7
100
AcDbLine
 10
-203.7999999999996
 20
-22.505
 30
0.0
 11
-202.6249999999996
 21
-22.50500000000002
 31
0.0
  0
LINE
  5
330
330
1F
100
AcDbEntity
  8
0
  6
Continuous
 62
     7
100
AcDbLine
 10
-203.7999999999996
 20
-22.505
 30
0.0
 11
-203.7999999999996
 21
-22.70500000000002
 31
0.0
  0
LINE
  5
331
330
1F
100
AcDbEntity
  8
0
  6
Continuous
 62
     7
100
AcDbLine
 10
-202.6249999999996
 20
-25.03500000000002
 30
0.0
 11
-203.7999999999996
 21
-25.035
 31
0.0
  0
LINE
  5
332
330
1F
100
AcDbEntity
  8
0
  6
Continuous
 62
     7
100
AcDbLine
 10
-203.7999999999996
 20
-25.035
 30
0.0
 11
-203.7999999999996
 21
-25.235
 31
0.0
  0
LINE
  5
333
330
1F
100
AcDbEntity
  8
0
  6
Continuous
 62
     7
100
AcDbLine
 10
-202.6249999999996
 20
-25.23500000000002
 30
0.0
 11
-203.7999999999996
 21
-25.235
 31
0.0
  0
LINE
  5
334
330
1F
100
AcDbEntity
  8
0
  6
Continuous
 62
     7
100
AcDbLine
 10
-202.6249999999996
 20
-27.58500000000002
 30
0.0
 11
-203.7999999999996
 21
-27.58499999999999
 31
0.0
  0
LINE
  5
335
330
1F
100
AcDbEntity
  8
0
  6
Continuous
 62
     7
100
AcDbLine
 10
-203.7999999999996
 20
-25.235
 30
0.0
 11
-203.7999999999996
 21
-27.58499999999999
 31
0.0
  0
LINE
  5
336
330
1F
100
AcDbEntity
  8
0
  6
Continuous
 62
     7
100
AcDbLine
 10
-201.9199999999996
 20
-25.47
 30
0.0
 11
-201.9300000000009
 21
-25.47
 31
0.0
  0
LINE
  5
337
330
1F
100
AcDbEntity
  8
0
  6
Continuous
 62
     7
100
AcDbLine
 10
-203.7999999999996
 20
-27.58499999999999
 30
0.0
 11
-203.7999999999996
 21
-27.785
 31
0.0
  0
LINE
  5
338
330
1F
100
AcDbEntity
  8
0
  6
Continuous
 62
     7
100
AcDbLine
 10
-202.6249999999996
 20
-27.78500000000002
 30
0.0
 11
-203.7999999999996
 21
-27.785
 31
0.0
  0
LINE
  5
339
330
1F
100
AcDbEntity
  8
0
  6
Continuous
 62
     7
100
AcDbLine
 10
-203.7999999999996
 20
-12.345
 30
0.0
 11
-203.7999999999996
 21
-12.54500000000001
 31
0.0
  0
LINE
  5
33A
330
1F
100
AcDbEntity
  8
0
  6
Continuous
 62
     7
100
AcDbLine
 10
-202.6249999999996
 20
-12.54500000000002
 30
0.0
 11
-203.7999999999996
 21
-12.54500000000001
 31
0.0
  0
LINE
  5
33B
330
1F
100
AcDbEntity
  8
0
  6
Continuous
 62
     7
100
AcDbLine
 10
-202.6249999999996
 20
-9.99500000000002
 30
0.0
 11
-203.7999999999996
 21
-9.995
 31
0.0
  0
LINE
  5
33C
330
1F
100
AcDbEntity
  8
0
  6
Continuous
 62
     7
100
AcDbLine
 10
-202.6249999999996
 20
-9.79500000000002
 30
0.0
 11
-203.7999999999996
 21
-9.79500000000002
 31
0.0
  0
LINE
  5
33D
330
1F
100
AcDbEntity
  8
0
  6
Continuous
 62
     7
100
AcDbLine
 10
-203.7999999999996
 20
-9.79500000000002
 30
0.0
 11
-203.7999999999996
 21
-9.995
 31
0.0
  0
LINE
  5
33E
330
1F
100
AcDbEntity
  8
0
  6
Continuous
 62
     7
100
AcDbLine
 10
-203.7999999999996
 20
-12.345
 30
0.0
 11
-203.7999999999996
 21
-9.995
 31
0.0
  0
LINE
  5
33F
330
1F
100
AcDbEntity
  8
0
  6
Continuous
 62
     7
100
AcDbLine
 10
-203.7999999999996
 20
-12.345
 30
0.0
 11
-202.6249999999996
 21
-12.34500000000001
 31
0.0
  0
LINE
  5
340
330
1F
100
AcDbEntity
  8
0
  6
Continuous
 62
     7
100
AcDbLine
 10
-203.7999999999996
 20
-7.26500000000001
 30
0.0
 11
-203.7999999999996
 21
-4.91500000000001
 31
0.0
  0
LINE
  5
341
330
1F
100
AcDbEntity
  8
0
  6
Continuous
 62
     7
100
AcDbLine
 10
-202.6249999999996
 20
-7.26500000000001
 30
0.0
 11
-203.7999999999996
 21
-7.26500000000001
 31
0.0
  0
LINE
  5
342
330
1F
100
AcDbEntity
  8
0
  6
Continuous
 62
     7
100
AcDbLine
 10
-202.6249999999996
 20
-4.91500000000001
 30
0.0
 11
-203.7999999999996
 21
-4.91500000000001
 31
0.0
  0
LINE
  5
343
330
1F
100
AcDbEntity
  8
0
  6
Continuous
 62
     7
100
AcDbLine
 10
-202.6249999999996
 20
-7.46500000000002
 30
0.0
 11
-203.7999999999996
 21
-7.46500000000002
 31
0.0
  0
LINE
  5
344
330
1F
100
AcDbEntity
  8
0
  6
Continuous
 62
     7
100
AcDbLine
 10
-203.7999999999996
 20
-7.26500000000001
 30
0.0
 11
-203.7999999999996
 21
-7.46500000000002
 31
0.0
  0
LINE
  5
345
330
1F
100
AcDbEntity
  8
0
  6
Continuous
 62
     7
100
AcDbLine
 10
-200.8999999999996
 20
-26.41
 30
0.0
 11
-200.9000000000012
 21
-25.47
 31
0.0
  0
LINE
  5
346
330
1F
100
AcDbEntity
  8
0
  6
Continuous
 62
     7
100
AcDbLine
 10
-200.9000000000012
 20
-25.47
 30
0.0
 11
-200.9000000000012
 21
-23.87000000000001
 31
0.0
  0
LINE
  5
347
330
1F
100
AcDbEntity
  8
0
  6
Continuous
 62
     7
100
AcDbLine
 10
-200.8999999999996
 20
-28.95
 30
0.0
 11
-200.8999999999996
 21
-26.41
 31
0.0
  0
LINE
  5
348
330
1F
100
AcDbEntity
  8
0
  6
Continuous
 62
     7
100
AcDbLine
 10
-200.9000000000012
 20
-23.87000000000001
 30
0.0
 11
-200.8999999999996
 21
-21.33000000000001
 31
0.0
  0
LINE
  5
349
330
1F
100
AcDbEntity
  8
0
  6
Continuous
 62
     7
100
AcDbLine
 10
-200.8999999999996
 20
-21.33000000000001
 30
0.0
 11
-200.8999999999996
 21
-16.25
 31
0.0
  0
LINE
  5
34A
330
1F
100
AcDbEntity
  8
0
  6
Continuous
 62
     7
100
AcDbLine
 10
-200.8999999999996
 20
-16.25
 30
0.0
 11
-200.8999999999996
 21
-11.17000000000001
 31
0.0
  0
LINE
  5
34B
330
1F
100
AcDbEntity
  8
0
  6
Continuous
 62
     7
100
AcDbLine
 10
-200.8999999999996
 20
-11.17000000000001
 30
0.0
 11
-200.8999999999996
 21
-6.09000000000001
 31
0.0
  0
LINE
  5
34C
330
1F
100
AcDbEntity
  8
0
  6
Continuous
 62
     7
100
AcDbLine
 10
-201.1999999999996
 20
-28.95
 30
0.0
 11
-200.8999999999996
 21
-28.95
 31
0.0
  0
LINE
  5
34D
330
1F
100
AcDbEntity
  8
0
  6
Continuous
 62
     7
100
AcDbLine
 10
-203.7999999999996
 20
-4.71500000000002
 30
0.0
 11
-203.7999999999996
 21
-4.91500000000001
 31
0.0
  0
LINE
  5
34E
330
1F
100
AcDbEntity
  8
0
  6
Continuous
 62
     7
100
AcDbLine
 10
-202.6249999999996
 20
-4.71500000000002
 30
0.0
 11
-203.7999999999996
 21
-4.71500000000002
 31
0.0
  0
LINE
  5
34F
330
1F
100
AcDbEntity
  8
0
  6
Continuous
 62
     7
100
AcDbLine
 10
-203.7999999999996
 20
-2.18500000000002
 30
0.0
 11
-202.6249999999996
 21
-2.18500000000002
 31
0.0
  0
LINE
  5
350
330
1F
100
AcDbEntity
  8
0
  6
Continuous
 62
     7
100
AcDbLine
 10
-203.7999999999996
 20
-2.18500000000002
 30
0.0
 11
-203.7999999999996
 21
0.16500000000001
 31
0.0
  0
LINE
  5
351
330
1F
100
AcDbEntity
  8
0
  6
Continuous
 62
     7
100
AcDbLine
 10
-202.6249999999996
 20
-2.38500000000001
 30
0.0
 11
-203.7999999999996
 21
-2.38500000000001
 31
0.0
  0
LINE
  5
352
330
1F
100
AcDbEntity
  8
0
  6
Continuous
 62
     7
100
AcDbLine
 10
-203.7999999999996
 20
-2.18500000000002
 30
0.0
 11
-203.7999999999996
 21
-2.38500000000001
 31
0.0
  0
LINE
  5
353
330
1F
100
AcDbEntity
  8
0
  6
Continuous
 62
     7
100
AcDbLine
 10
-200.8999999999996
 20
-6.09000000000001
 30
0.0
 11
-200.8999999999996
 21
-1.01
 31
0.0
  0
LINE
  5
354
330
1F
100
AcDbEntity
  8
0
  6
Continuous
 62
     7
100
AcDbLine
 10
-200.9000000000012
 20
3.13
 30
0.0
 11
-200.8999999999996
 21
4.06999999999999
 31
0.0
  0
LINE
  5
355
330
1F
100
AcDbEntity
  8
0
  6
Continuous
 62
     7
100
AcDbLine
 10
-204.2999999999996
 20
-28.95
 30
0.0
 11
-204.2849999999997
 21
-28.95
 31
0.0
  0
LINE
  5
356
330
1F
100
AcDbEntity
  8
0
  6
Continuous
 62
     7
100
AcDbLine
 10
-204.2849999999997
 20
-28.95
 30
0.0
 11
-203.8999999999996
 21
-28.95
 31
0.0
  0
LINE
  5
357
330
1F
100
AcDbEntity
  8
0
  6
Continuous
 62
     7
100
AcDbLine
 10
-203.1107958125788
 20
6.61
 30
0.0
 11
-203.2250085261815
 21
6.61
 31
0.0
  0
LINE
  5
358
330
1F
100
AcDbEntity
  8
0
  6
Continuous
 62
     7
100
AcDbLine
 10
-202.4000000000009
 20
6.61
 30
0.0
 11
-202.9000000000009
 21
6.61
 31
0.0
  0
LINE
  5
359
330
1F
100
AcDbEntity
  8
0
  6
Continuous
 62
     7
100
AcDbLine
 10
-202.9000000000009
 20
6.61
 30
0.0
 11
-203.1107958125788
 21
6.61
 31
0.0
  0
LINE
  5
35A
330
1F
100
AcDbEntity
  8
0
  6
Continuous
 62
     7
100
AcDbLine
 10
-204.2999999999996
 20
6.61
 30
0.0
 11
-204.2849999999997
 21
6.61
 31
0.0
  0
LINE
  5
35B
330
1F
100
AcDbEntity
  8
0
  6
Continuous
 62
     7
100
AcDbLine
 10
-204.2999999999996
 20
-28.95
 30
0.0
 11
-204.2999999999996
 21
6.61
 31
0.0
  0
LINE
  5
35C
330
1F
100
AcDbEntity
  8
0
  6
Continuous
 62
     7
100
AcDbLine
 10
-200.8999999999996
 20
4.06999999999999
 30
0.0
 11
-200.8999999999996
 21
6.61
 31
0.0
  0
LINE
  5
35D
330
1F
100
AcDbEntity
  8
0
  6
Continuous
 62
     7
100
AcDbLine
 10
-201.1999999999996
 20
6.61
 30
0.0
 11
-202.4000000000009
 21
6.61
 31
0.0
  0
LINE
  5
35E
330
1F
100
AcDbEntity
  8
0
  6
Continuous
 62
     7
100
AcDbLine
 10
-202.6249999999996
 20
0.16500000000001
 30
0.0
 11
-203.7999999999996
 21
0.16500000000001
 31
0.0
  0
LINE
  5
35F
330
1F
100
AcDbEntity
  8
1
  6
Continuous
 62
     7
100
AcDbLine
 10
-134.2499999999997
 20
-28.50000000000001
 30
0.0
 11
-132.7499999999997
 21
-30.00000000000001
 31
0.0
  0
LINE
  5
360
330
1F
100
AcDbEntity
  8
1
  6
Continuous
 62
     7
100
AcDbLine
 10
-134.2499999999997
 20
30.0
 30
0.0
 11
-134.2499999999997
 21
-28.50000000000001
 31
0.0
  0
LINE
  5
361
330
1F
100
AcDbEntity
  8
1
  6
Continuous
 62
     7
100
AcDbLine
 10
-94.24999999999969
 20
30.0
 30
0.0
 11
-134.2499999999997
 21
30.0
 31
0.0
  0
LINE
  5
362
330
1F
100
AcDbEntity
  8
1
  6
Continuous
 62
     7
100
AcDbLine
 10
-94.24999999999969
 20
-30.00000000000001
 30
0.0
 11
-94.24999999999969
 21
30.0
 31
0.0
  0
LINE
  5
363
330
1F
100
AcDbEntity
  8
1
  6
Continuous
 62
     7
100
AcDbLine
 10
-132.7499999999997
 20
-30.00000000000001
 30
0.0
 11
-94.24999999999969
 21
-30.00000000000001
 31
0.0
  0
LINE
  5
364
330
1F
100
AcDbEntity
  8
1
  6
Continuous
 62
     7
100
AcDbLine
 10
-61.24999999999967
 20
37.5
 30
0.0
 11
-66.5
 21
37.5
 31
0.0
  0
LINE
  5
365
330
1F
100
AcDbEntity
  8
1
  6
Continuous
 62
     7
100
AcDbLine
 10
-57.24999999999968
 20
25.0
 30
0.0
 11
-61.24999999999967
 21
37.5
 31
0.0
  0
LINE
  5
366
330
1F
100
AcDbEntity
  8
1
  6
Continuous
 62
     7
100
AcDbLine
 10
-202.0999999999997
 20
-30.0
 30
0.0
 11
-202.0999999999997
 21
-28.95
 31
0.0
  0
LINE
  5
367
330
1F
100
AcDbEntity
  8
0
  6
Continuous
 62
     7
100
AcDbLine
 10
-209.999744058153
 20
-30.0
 30
0.0
 11
-210.1999999999998
 21
-30.0
 31
0.0
  0
LINE
  5
368
330
1F
100
AcDbEntity
  8
0
  6
Continuous
 62
     7
100
AcDbLine
 10
-209.7410500672389
 20
-30.0
 30
0.0
 11
-209.8912420236239
 21
-30.0
 31
0.0
  0
LINE
  5
369
330
1F
100
AcDbEntity
  8
0
  6
Continuous
 62
     7
100
AcDbLine
 10
-209.0878638155256
 20
-30.0
 30
0.0
 11
-209.3158152277692
 21
-30.0
 31
0.0
  0
LINE
  5
36A
330
1F
100
AcDbEntity
  8
0
  6
Continuous
 62
     7
100
AcDbLine
 10
-209.3158152277692
 20
-30.0
 30
0.0
 11
-209.4660071841543
 21
-30.0
 31
0.0
  0
LINE
  5
36B
330
1F
100
AcDbEntity
  8
0
  6
Continuous
 62
     7
100
AcDbLine
 10
-208.7793270872615
 20
-30.0
 30
0.0
 11
-208.9527402158861
 21
-30.0
 31
0.0
  0
LINE
  5
36C
330
1F
100
AcDbEntity
  8
0
  6
Continuous
 62
     7
100
AcDbLine
 10
-208.9527402158861
 20
-30.0
 30
0.0
 11
-209.0878638155256
 21
-30.0
 31
0.0
  0
LINE
  5
36D
330
1F
100
AcDbEntity
  8
0
  6
Continuous
 62
     7
100
AcDbLine
 10
-209.4660071841543
 20
-30.0
 30
0.0
 11
-209.7410500672389
 21
-30.0
 31
0.0
  0
LINE
  5
36E
330
1F
100
AcDbEntity
  8
0
  6
Continuous
 62
     7
100
AcDbLine
 10
-207.5502570818459
 20
-30.0
 30
0.0
 11
-207.6587591163675
 21
-30.0
 31
0.0
  0
LINE
  5
36F
330
1F
100
AcDbEntity
  8
0
  6
Continuous
 62
     7
100
AcDbLine
 10
-207.6587591163675
 20
-30.0
 30
0.0
 11
-207.8089510727527
 21
-30.0
 31
0.0
  0
LINE
  5
370
330
1F
100
AcDbEntity
  8
0
  6
Continuous
 62
     7
100
AcDbLine
 10
-207.8089510727527
 20
-30.0
 30
0.0
 11
-208.0369024849963
 21
-30.0
 31
0.0
  0
LINE
  5
371
330
1F
100
AcDbEntity
  8
0
  6
Continuous
 62
     7
100
AcDbLine
 10
-208.0369024849963
 20
-30.0
 30
0.0
 11
-208.1720260846357
 21
-30.0
 31
0.0
  0
LINE
  5
372
330
1F
100
AcDbEntity
  8
0
  6
Continuous
 62
     7
100
AcDbLine
 10
-208.1720260846357
 20
-30.0
 30
0.0
 11
-208.3454392132604
 21
-30.0
 31
0.0
  0
LINE
  5
373
330
1F
100
AcDbEntity
  8
0
  6
Continuous
 62
     7
100
AcDbLine
 10
-208.3454392132604
 20
-30.0
 30
0.0
 11
-208.562383150261
 21
-30.0
 31
0.0
  0
LINE
  5
374
330
1F
100
AcDbEntity
  8
0
  6
Continuous
 62
     7
100
AcDbLine
 10
-208.562383150261
 20
-30.0
 30
0.0
 11
-208.7793270872615
 21
-30.0
 31
0.0
  0
LINE
  5
375
330
1F
100
AcDbEntity
  8
0
  6
Continuous
 62
     7
100
AcDbLine
 10
-209.8912420236239
 20
-30.0
 30
0.0
 11
-209.999744058153
 21
-30.0
 31
0.0
  0
LINE
  5
376
330
1F
100
AcDbEntity
  8
0
  6
Continuous
 62
     7
100
AcDbLine
 10
-203.0299999999997
 20
-30.0
 30
0.0
 11
-207.3500011399992
 21
-30.0
 31
0.0
  0
LINE
  5
377
330
1F
100
AcDbEntity
  8
0
  6
Continuous
 62
     7
100
AcDbLine
 10
-207.3500011399992
 20
-30.0
 30
0.0
 11
-207.5502570818459
 21
-30.0
 31
0.0
  0
LINE
  5
378
330
1F
100
AcDbEntity
  8
0
  6
Continuous
 62
     7
100
AcDbLine
 10
-203.0299999999997
 20
-30.0
 30
0.0
 11
-202.0999999999997
 21
-30.0
 31
0.0
  0
LINE
  5
379
330
1F
100
AcDbEntity
  8
0
  6
Continuous
 62
     7
100
AcDbLine
 10
-210.1999999999998
 20
-30.0
 30
0.0
 11
-210.6999999999997
 21
-30.0
 31
0.0
  0
LINE
  5
37A
330
1F
100
AcDbEntity
  8
1
  6
Continuous
 62
     7
100
AcDbLine
 10
-210.6999999999997
 20
-30.0
 30
0.0
 11
-210.6999999999997
 21
-28.95
 31
0.0
  0
LINE
  5
37B
330
1F
100
AcDbEntity
  8
1
  6
Continuous
 62
     7
100
AcDbLine
 10
-202.0999999999999
 20
7.55999999999999
 30
0.0
 11
-202.0999999999997
 21
6.61
 31
0.0
  0
LINE
  5
37C
330
1F
100
AcDbEntity
  8
0
  6
Continuous
 62
     7
100
AcDbLine
 10
-206.8299999999997
 20
7.55999999999999
 30
0.0
 11
-207.030961894323
 21
7.55999999999995
 31
0.0
  0
LINE
  5
37D
330
1F
100
AcDbEntity
  8
0
  6
Continuous
 62
     7
100
AcDbLine
 10
-206.6290381056764
 20
7.56
 30
0.0
 11
-206.8299999999997
 21
7.55999999999999
 31
0.0
  0
LINE
  5
37E
330
1F
100
AcDbEntity
  8
0
  6
Continuous
 62
     7
100
AcDbLine
 10
-203.0299999999997
 20
7.55999999999995
 30
0.0
 11
-206.6290381056764
 21
7.56
 31
0.0
  0
LINE
  5
37F
330
1F
100
AcDbEntity
  8
0
  6
Continuous
 62
     7
100
AcDbLine
 10
-203.0299999999997
 20
7.55999999999995
 30
0.0
 11
-202.0999999999999
 21
7.55999999999999
 31
0.0
  0
LINE
  5
380
330
1F
100
AcDbEntity
  8
0
  6
Continuous
 62
     7
100
AcDbLine
 10
-207.030961894323
 20
7.55999999999995
 30
0.0
 11
-210.6999999999998
 21
7.55999999999999
 31
0.0
  0
LINE
  5
381
330
1F
100
AcDbEntity
  8
1
  6
Continuous
 62
     7
100
AcDbLine
 10
-210.6999999999998
 20
7.55999999999999
 30
0.0
 11
-210.6999999999997
 21
6.61
 31
0.0
  0
LINE
  5
382
330
1F
100
AcDbEntity
  8
1
  6
Continuous
 62
     7
100
AcDbLine
 10
-211.4999999999998
 20
8.00000000000001
 30
0.0
 11
-199.9999999999997
 21
8.0
 31
0.0
  0
LINE
  5
383
330
1F
100
AcDbEntity
  8
1
  6
Continuous
 62
     7
100
AcDbLine
 10
-211.4999999999998
 20
8.00000000000001
 30
0.0
 11
-211.4999999999997
 21
6.61
 31
0.0
  0
LINE
  5
384
330
1F
100
AcDbEntity
  8
1
  6
Continuous
 62
     7
100
AcDbLine
 10
-214.4999999999997
 20
-31.99999999999999
 30
0.0
 11
-199.9999999999997
 21
-32.0
 31
0.0
  0
LINE
  5
385
330
1F
100
AcDbEntity
  8
1
  6
Continuous
 62
     7
100
AcDbLine
 10
-200.2499999999997
 20
-40.5
 30
0.0
 11
-201.2499999999997
 21
-41.5
 31
0.0
  0
LINE
  5
386
330
1F
100
AcDbEntity
  8
1
  6
Continuous
 62
     7
100
AcDbLine
 10
-213.2499999999997
 20
-41.5
 30
0.0
 11
-214.2499999999997
 21
-40.5
 31
0.0
  0
LINE
  5
387
330
1F
100
AcDbEntity
  8
1
  6
Continuous
 62
     7
100
AcDbLine
 10
-203.2499999999997
 20
-39.5
 30
0.0
 11
-203.2499999999997
 21
-37.5
 31
0.0
  0
LINE
  5
388
330
1F
100
AcDbEntity
  8
1
  6
Continuous
 62
     7
100
AcDbLine
 10
-211.2499999999997
 20
-39.5
 30
0.0
 11
-203.2499999999997
 21
-39.5
 31
0.0
  0
LINE
  5
389
330
1F
100
AcDbEntity
  8
1
  6
Continuous
 62
     7
100
AcDbLine
 10
-211.2499999999997
 20
-37.5
 30
0.0
 11
-211.2499999999997
 21
-39.5
 31
0.0
  0
LINE
  5
38A
330
1F
100
AcDbEntity
  8
1
  6
Continuous
 62
     7
100
AcDbLine
 10
-200.2499999999997
 20
-40.5
 30
0.0
 11
-200.2499999999997
 21
-37.5
 31
0.0
  0
LINE
  5
38B
330
1F
100
AcDbEntity
  8
1
  6
Continuous
 62
     7
100
AcDbLine
 10
-213.2499999999997
 20
-41.5
 30
0.0
 11
-201.2499999999997
 21
-41.5
 31
0.0
  0
LINE
  5
38C
330
1F
100
AcDbEntity
  8
1
  6
Continuous
 62
     7
100
AcDbLine
 10
-214.2499999999997
 20
-37.5
 30
0.0
 11
-214.2499999999997
 21
-40.5
 31
0.0
  0
LINE
  5
38D
330
1F
100
AcDbEntity
  8
1
  6
Continuous
 62
     7
100
AcDbLine
 10
-143.2499999999997
 20
-30.0
 30
0.0
 11
-142.2499999999997
 21
-30.0
 31
0.0
  0
LINE
  5
38E
330
1F
100
AcDbEntity
  8
1
  6
Continuous
 62
     7
100
AcDbLine
 10
-143.2499999999997
 20
7.55999999999998
 30
0.0
 11
-143.2499999999997
 21
-30.0
 31
0.0
  0
LINE
  5
38F
330
1F
100
AcDbEntity
  8
1
  6
Continuous
 62
     7
100
AcDbLine
 10
-142.2499999999997
 20
7.55999999999998
 30
0.0
 11
-143.2499999999997
 21
7.55999999999998
 31
0.0
  0
LINE
  5
390
330
1F
100
AcDbEntity
  8
1
  6
Continuous
 62
     7
100
AcDbLine
 10
-61.24999999999968
 20
-41.5
 30
0.0
 11
-61.24999999999968
 21
-18.00000000000031
 31
0.0
  0
LINE
  5
391
330
1F
100
AcDbEntity
  8
1
  6
Continuous
 62
     7
100
AcDbLine
 10
-59.14999999999968
 20
-33.5
 30
0.0
 11
-59.14999999999968
 21
-34.0
 31
0.0
  0
LINE
  5
392
330
1F
100
AcDbEntity
  8
1
  6
Continuous
 62
     7
100
AcDbLine
 10
-59.24999999999968
 20
-15.5
 30
0.0
 11
-57.74999999999968
 21
-15.5
 31
0.0
  0
LINE
  5
393
330
1F
100
AcDbEntity
  8
1
  6
Continuous
 62
     7
100
AcDbLine
 10
-59.74999999999968
 20
-16.0
 30
0.0
 11
-59.74999999999968
 21
-17.50000000000031
 31
0.0
  0
LINE
  5
394
330
1F
100
AcDbEntity
  8
1
  6
Continuous
 62
     7
100
AcDbLine
 10
-59.74999999999968
 20
-17.50000000000031
 30
0.0
 11
-60.74999999999968
 21
-17.5000000000002
 31
0.0
  0
LINE
  5
395
330
1F
100
AcDbEntity
  8
1
  6
Continuous
 62
     7
100
AcDbLine
 10
-57.24999999999968
 20
-16.0
 30
0.0
 11
-57.24999999999968
 21
-41.5
 31
0.0
  0
LINE
  5
396
330
1F
100
AcDbEntity
  8
1
  6
Continuous
 62
     7
100
AcDbLine
 10
-57.24999999999968
 20
-41.5
 30
0.0
 11
-61.24999999999968
 21
-41.5
 31
0.0
  0
LINE
  5
397
330
1F
100
AcDbEntity
  8
1
  6
Continuous
 62
     7
100
AcDbLine
 10
-57.24999999999968
 20
-16.0
 30
0.0
 11
-57.74999999999968
 21
-15.5
 31
0.0
  0
LINE
  5
398
330
1F
100
AcDbEntity
  8
1
  6
Continuous
 62
     7
100
AcDbLine
 10
-59.74999999999968
 20
-16.0
 30
0.0
 11
-59.24999999999968
 21
-15.5
 31
0.0
  0
LINE
  5
399
330
1F
100
AcDbEntity
  8
1
  6
Continuous
 62
     7
100
AcDbLine
 10
-57.24999999999968
 20
-34.0
 30
0.0
 11
-59.14999999999968
 21
-34.0
 31
0.0
  0
LINE
  5
39A
330
1F
100
AcDbEntity
  8
1
  6
Continuous
 62
     7
100
AcDbLine
 10
-57.24999999999968
 20
-26.0
 30
0.0
 11
-61.24999999999968
 21
-25.99999999999999
 31
0.0
  0
LINE
  5
39B
330
1F
100
AcDbEntity
  8
1
  6
Continuous
 62
     7
100
AcDbLine
 10
-61.24999999999968
 20
-18.00000000000031
 30
0.0
 11
-60.74999999999968
 21
-17.5000000000002
 31
0.0
  0
LINE
  5
39C
330
1F
100
AcDbEntity
  8
1
  6
Continuous
 62
     7
100
AcDbLine
 10
-61.24999999999968
 20
-40.5
 30
0.0
 11
-57.24999999999968
 21
-40.5
 31
0.0
  0
LINE
  5
39D
330
1F
100
AcDbEntity
  8
0
  6
Continuous
 62
     7
100
AcDbLine
 10
-60.74999999999968
 20
-14.5000000000008
 30
0.0
 11
-60.75000000000076
 21
-13.84999999999999
 31
0.0
  0
LINE
  5
39E
330
1F
100
AcDbEntity
  8
1
  6
Continuous
 62
     7
100
AcDbLine
 10
-214.4999999999997
 20
-30.49999999999999
 30
0.0
 11
-199.9999999999997
 21
-30.5
 31
0.0
  0
LINE
  5
39F
330
1F
100
AcDbEntity
  8
1
  6
Continuous
 62
     7
100
AcDbLine
 10
-199.9999999999997
 20
36.0
 30
0.0
 11
-214.4999999999997
 21
36.0
 31
0.0
  0
LINE
  5
3A0
330
1F
100
AcDbEntity
  8
1
  6
Continuous
 62
     7
100
AcDbLine
 10
-199.9999999999997
 20
36.0
 30
0.0
 11
-199.9999999999997
 21
-1.5
 31
0.0
  0
LINE
  5
3A1
330
1F
100
AcDbEntity
  8
1
  6
Continuous
 62
     7
100
AcDbLine
 10
-211.4999999999997
 20
-30.5
 30
0.0
 11
-211.4999999999997
 21
-28.95
 31
0.0
  0
LINE
  5
3A2
330
1F
100
AcDbEntity
  8
1
  6
Continuous
 62
     7
100
AcDbLine
 10
-66.5
 20
20.0
 30
0.0
 11
-66.5
 21
37.5
 31
0.0
  0
LINE
  5
3A3
330
1F
100
AcDbEntity
  8
1
  6
Continuous
 62
     7
100
AcDbLine
 10
-69.5
 20
20.0
 30
0.0
 11
-66.5
 21
20.0
 31
0.0
  0
LINE
  5
3A4
330
1F
100
AcDbEntity
  8
1
  6
Continuous
 62
     7
100
AcDbLine
 10
-69.5
 20
-20.0
 30
0.0
 11
-69.5
 21
20.0
 31
0.0
  0
LINE
  5
3A5
330
1F
100
AcDbEntity
  8
1
  6
Continuous
 62
     7
100
AcDbLine
 10
-66.5
 20
-20.0
 30
0.0
 11
-69.5
 21
-20.0
 31
0.0
  0
LINE
  5
3A6
330
1F
100
AcDbEntity
  8
1
  6
Continuous
 62
     7
100
AcDbLine
 10
-66.5
 20
-37.5
 30
0.0
 11
-66.5
 21
-20.0
 31
0.0
  0
LINE
  5
3A7
330
1F
100
AcDbEntity
  8
1
  6
Continuous
 62
     7
100
AcDbLine
 10
-199.9999999999997
 20
-30.5
 30
0.0
 11
-199.9999999999997
 21
36.0
 31
0.0
  0
LINE
  5
3A8
330
1F
100
AcDbEntity
  8
1
  6
Continuous
 62
     7
100
AcDbLine
 10
-213.9999999999997
 20
-36.0
 30
0.0
 11
-200.4999999999997
 21
-36.0
 31
0.0
  0
LINE
  5
3A9
330
1F
100
AcDbEntity
  8
1
  6
Continuous
 62
     7
100
AcDbLine
 10
-214.4999999999997
 20
-31.99999999999999
 30
0.0
 11
-214.4999999999997
 21
-35.5
 31
0.0
  0
LINE
  5
3AA
330
1F
100
AcDbEntity
  8
1
  6
Continuous
 62
     7
100
AcDbLine
 10
-199.9999999999997
 20
-35.5
 30
0.0
 11
-199.9999999999997
 21
-32.0
 31
0.0
  0
LINE
  5
3AB
330
1F
100
AcDbEntity
  8
1
  6
Continuous
 62
     7
100
AcDbLine
 10
-214.9999999999997
 20
-37.5
 30
0.0
 11
-199.4999999999997
 21
-37.5
 31
0.0
  0
LINE
  5
3AC
330
1F
100
AcDbEntity
  8
1
  6
Continuous
 62
     7
100
AcDbLine
 10
-142.2499999999997
 20
36.5
 30
0.0
 11
-142.2499999999997
 21
-36.49999999999999
 31
0.0
  0
LINE
  5
3AD
330
1F
100
AcDbEntity
  8
1
  6
Continuous
 62
     7
100
AcDbLine
 10
-198.4999999999997
 20
36.5
 30
0.0
 11
-198.4999999999997
 21
-36.5
 31
0.0
  0
LINE
  5
3AE
330
1F
100
AcDbEntity
  8
1
  6
Continuous
 62
     7
100
AcDbLine
 10
-214.9999999999997
 20
37.5
 30
0.0
 11
-199.4999999999997
 21
37.5
 31
0.0
  0
LINE
  5
3AF
330
1F
100
AcDbEntity
  8
1
  6
Continuous
 62
     7
100
AcDbLine
 10
-215.9999999999997
 20
-36.5
 30
0.0
 11
-215.9999999999997
 21
36.5
 31
0.0
  0
LINE
  5
3B0
330
1F
100
AcDbEntity
  8
1
  6
Continuous
 62
     7
100
AcDbLine
 10
-141.2499999999997
 20
37.5
 30
0.0
 11
-66.5
 21
37.5
 31
0.0
  0
LINE
  5
3B1
330
1F
100
AcDbEntity
  8
1
  6
Continuous
 62
     7
100
AcDbLine
 10
-66.5
 20
-37.5
 30
0.0
 11
-141.2499999999997
 21
-37.49999999999999
 31
0.0
  0
LINE
  5
3B2
330
1F
100
AcDbEntity
  8
1
  6
Continuous
 62
     7
100
AcDbLine
 10
-199.9999999999997
 20
36.0
 30
0.0
 11
-214.4999999999997
 21
36.0
 31
0.0
  0
LINE
  5
3B3
330
1F
100
AcDbEntity
  8
1
  6
Continuous
 62
     7
100
AcDbLine
 10
-214.4999999999997
 20
-30.49999999999999
 30
0.0
 11
-199.9999999999997
 21
-30.5
 31
0.0
  0
LINE
  5
3B4
330
1F
100
AcDbEntity
  8
1
  6
Continuous
 62
     7
100
AcDbLine
 10
-214.4999999999997
 20
-30.49999999999999
 30
0.0
 11
-214.4999999999997
 21
-28.95
 31
0.0
  0
LINE
  5
3B5
330
1F
100
AcDbEntity
  8
1
  6
Continuous
 62
     7
100
AcDbLine
 10
-214.4999999999997
 20
36.0
 30
0.0
 11
-214.4999999999997
 21
6.61
 31
0.0
  0
LINE
  5
3B6
330
1F
100
AcDbEntity
  8
1
  6
Continuous
 62
     7
100
AcDbLine
 10
-58.94999999999968
 20
-33.5
 30
0.0
 11
-58.94999999999968
 21
-30.0
 31
0.0
  0
LINE
  5
3B7
330
1F
100
AcDbEntity
  8
1
  6
Continuous
 62
     7
100
AcDbLine
 10
-57.24999999999968
 20
-33.5
 30
0.0
 11
-61.24999999999968
 21
-33.5
 31
0.0
  0
LINE
  5
3B8
330
1F
100
AcDbEntity
  8
1
  6
Continuous
 62
     7
100
AcDbLine
 10
-57.24999999999968
 20
-30.0
 30
0.0
 11
-61.24999999999968
 21
-30.0
 31
0.0
  0
LINE
  5
3B9
330
1F
100
AcDbEntity
  8
1
  6
Continuous
 62
     7
100
AcDbLine
 10
-57.24999999999968
 20
-30.0
 30
0.0
 11
-57.24999999999968
 21
-33.5
 31
0.0
  0
LINE
  5
3BA
330
1F
100
AcDbEntity
  8
1
  6
Continuous
 62
     7
100
AcDbLine
 10
-61.24999999999968
 20
-37.5
 30
0.0
 11
-66.5
 21
-37.5
 31
0.0
  0
LINE
  5
3BB
330
1F
100
AcDbEntity
  8
1
  6
Continuous
 62
     7
100
AcDbLine
 10
-57.24999999999968
 20
17.69999999999972
 30
0.0
 11
-57.24999999999968
 21
25.0
 31
0.0
  0
LINE
  5
3BC
330
1F
100
AcDbEntity
  8
1
  6
Continuous
 62
     7
100
AcDbLine
 10
-57.24999999999967
 20
15.6999999999998
 30
0.0
 11
-57.24999999999968
 21
17.69999999999972
 31
0.0
  0
LINE
  5
3BD
330
1F
100
AcDbEntity
  8
1
  6
Continuous
 62
     7
100
AcDbLine
 10
-58.56922359359568
 20
15.6999999999998
 30
0.0
 11
-57.24999999999967
 21
15.6999999999998
 31
0.0
  0
LINE
  5
3BE
330
1F
100
AcDbEntity
  8
1
  6
Continuous
 62
     7
100
AcDbLine
 10
-61.24999999999968
 20
13.23114224595505
 30
0.0
 11
-61.24999999999968
 21
12.2
 31
0.0
  0
LINE
  5
3BF
330
1F
100
AcDbEntity
  8
1
  6
Continuous
 62
     7
100
AcDbLine
 10
-61.24999999999967
 20
17.19999999999977
 30
0.0
 11
-61.24999999999967
 21
15.76885775404495
 31
0.0
  0
LINE
  5
3C0
330
1F
100
AcDbEntity
  8
1
  6
Continuous
 62
     7
100
AcDbLine
 10
-65.0
 20
-11.2
 30
0.0
 11
-65.0
 21
11.2
 31
0.0
  0
LINE
  5
3C1
330
1F
100
AcDbEntity
  8
1
  6
Continuous
 62
     7
100
AcDbLine
 10
-65.0
 20
11.2
 30
0.0
 11
-61.24999999999968
 21
12.2
 31
0.0
  0
LINE
  5
3C2
330
1F
100
AcDbEntity
  8
1
  6
Continuous
 62
     7
100
AcDbLine
 10
-65.0
 20
-11.2
 30
0.0
 11
-61.24999999999968
 21
-12.2
 31
0.0
  0
LINE
  5
3C3
330
1F
100
AcDbEntity
  8
1
  6
Continuous
 62
     7
100
AcDbLine
 10
-60.74999999999965
 20
17.69999999999977
 30
0.0
 11
-60.00615528128155
 21
17.69999999999973
 31
0.0
  0
LINE
  5
3C4
330
1F
100
AcDbEntity
  8
1
  6
Continuous
 62
     7
100
AcDbLine
 10
-59.81212678125252
 20
17.5485071250071
 30
0.0
 11
-59.53936609374089
 21
16.45746437496296
 31
0.0
  0
LINE
  5
3C5
330
1F
100
AcDbEntity
  8
1
  6
Continuous
 62
     7
100
AcDbLine
 10
-61.24999999999968
 20
-13.5
 30
0.0
 11
-60.74999999999968
 21
-13.5
 31
0.0
  0
LINE
  5
3C6
330
1F
100
AcDbEntity
  8
1
  6
Continuous
 62
     7
100
AcDbLine
 10
-60.74999999999968
 20
-13.5
 30
0.0
 11
-60.74999999999968
 21
-15.5
 31
0.0
  0
LINE
  5
3C7
330
1F
100
AcDbEntity
  8
1
  6
Continuous
 62
     7
100
AcDbLine
 10
-60.74999999999968
 20
-15.5
 30
0.0
 11
-61.24999999999968
 21
-15.5
 31
0.0
  0
LINE
  5
3C8
330
1F
100
AcDbEntity
  8
1
  6
Continuous
 62
     7
100
AcDbLine
 10
-61.24999999999968
 20
-12.2
 30
0.0
 11
-61.24999999999968
 21
-13.5
 31
0.0
  0
LINE
  5
3C9
330
1F
100
AcDbEntity
  8
1
  6
Continuous
 62
     7
100
AcDbLine
 10
-61.24999999999968
 20
-37.5
 30
0.0
 11
-61.24999999999968
 21
-15.5
 31
0.0
  0
LINE
  5
3CA
330
1F
100
AcDbEntity
  8
1
  6
Continuous
 62
     7
100
AcDbLine
 10
-211.3999999999998
 20
29.25000000000001
 30
0.0
 11
-211.3999999999998
 21
28.74200000000001
 31
0.0
  0
LINE
  5
3CB
330
1F
100
AcDbEntity
  8
1
  6
Continuous
 62
     7
100
AcDbLine
 10
-209.8999999999998
 20
29.75000000000001
 30
0.0
 11
-210.8999999999998
 21
29.75000000000001
 31
0.0
  0
LINE
  5
3CC
330
1F
100
AcDbEntity
  8
1
  6
Continuous
 62
     7
100
AcDbLine
 10
-209.3999999999998
 20
28.74200000000001
 30
0.0
 11
-209.3999999999998
 21
29.25000000000001
 31
0.0
  0
LINE
  5
3CD
330
1F
100
AcDbEntity
  8
1
  6
Continuous
 62
     7
100
AcDbLine
 10
-210.8999999999998
 20
28.24200000000001
 30
0.0
 11
-209.8999999999998
 21
28.24200000000001
 31
0.0
  0
LINE
  5
3CE
330
1F
100
AcDbEntity
  8
1
  6
Continuous
 62
     7
100
AcDbLine
 10
-210.8999999999998
 20
31.24600000000002
 30
0.0
 11
-209.8999999999998
 21
31.24600000000002
 31
0.0
  0
LINE
  5
3CF
330
1F
100
AcDbEntity
  8
1
  6
Continuous
 62
     7
100
AcDbLine
 10
-209.3999999999998
 20
31.746
 30
0.0
 11
-209.3999999999997
 21
32.246
 31
0.0
  0
LINE
  5
3D0
330
1F
100
AcDbEntity
  8
1
  6
Continuous
 62
     7
100
AcDbLine
 10
-209.8999999999997
 20
32.746
 30
0.0
 11
-210.8999999999997
 21
32.746
 31
0.0
  0
LINE
  5
3D1
330
1F
100
AcDbEntity
  8
1
  6
Continuous
 62
     7
100
AcDbLine
 10
-211.3999999999997
 20
32.246
 30
0.0
 11
-211.3999999999998
 21
31.746
 31
0.0
  0
LINE
  5
3D2
330
1F
100
AcDbEntity
  8
1
  6
Continuous
 62
     7
100
AcDbLine
 10
-142.2499999999997
 20
23.25000000000001
 30
0.0
 11
-142.5499999999997
 21
23.25000000000001
 31
0.0
  0
LINE
  5
3D3
330
1F
100
AcDbEntity
  8
1
  6
Continuous
 62
     7
100
AcDbLine
 10
-142.8499999999997
 20
22.95000000000001
 30
0.0
 11
-142.8499999999997
 21
20.05000000000001
 31
0.0
  0
LINE
  5
3D4
330
1F
100
AcDbEntity
  8
1
  6
Continuous
 62
     7
100
AcDbLine
 10
-142.5499999999997
 20
19.75000000000001
 30
0.0
 11
-142.2499999999997
 21
19.75000000000001
 31
0.0
  0
LINE
  5
3D5
330
1F
100
AcDbEntity
  8
1
  6
Continuous
 62
     7
100
AcDbLine
 10
-142.2499999999997
 20
14.75000000000001
 30
0.0
 11
-142.5499999999997
 21
14.75000000000001
 31
0.0
  0
LINE
  5
3D6
330
1F
100
AcDbEntity
  8
1
  6
Continuous
 62
     7
100
AcDbLine
 10
-142.8499999999997
 20
14.45000000000001
 30
0.0
 11
-142.8499999999997
 21
11.55000000000001
 31
0.0
  0
LINE
  5
3D7
330
1F
100
AcDbEntity
  8
1
  6
Continuous
 62
     7
100
AcDbLine
 10
-142.5499999999997
 20
11.25000000000001
 30
0.0
 11
-142.2499999999997
 21
11.25000000000001
 31
0.0
  0
ARC
  5
3D8
330
1F
100
AcDbEntity
  8
0
  6
Continuous
 62
     7
100
AcDbCircle
 10
-149.1849999999999
 20
-1.06000000000001
 30
0.0
 40
1.174999999999999
100
AcDbArc
 50
270.0
 51
0.0
  0
ARC
  5
3D9
330
1F
100
AcDbEntity
  8
0
  6
Continuous
 62
     7
100
AcDbCircle
 10
-149.1849999999999
 20
-1.06000000000001
 30
0.0
 40
1.174999999999983
100
AcDbArc
 50
0.0
 51
90.0
  0
ARC
  5
3DA
330
1F
100
AcDbEntity
  8
0
  6
Continuous
 62
     7
100
AcDbCircle
 10
-147.0100000000012
 20
-1.06000000000002
 30
0.0
 40
2.499999999999967
100
AcDbArc
 50
113.5781784781695
 51
151.9657034651179
  0
ARC
  5
3DB
330
1F
100
AcDbEntity
  8
0
  6
Continuous
 62
     7
100
AcDbCircle
 10
-147.0100000000012
 20
-1.06000000000002
 30
0.0
 40
2.499999999999947
100
AcDbArc
 50
208.0342965348819
 51
246.4218215218305
  0
ARC
  5
3DC
330
1F
100
AcDbEntity
  8
0
  6
Continuous
 62
     7
100
AcDbCircle
 10
-147.0100000000012
 20
-6.14000000000001
 30
0.0
 40
2.499999999999947
100
AcDbArc
 50
208.034296534882
 51
246.4218215218305
  0
ARC
  5
3DD
330
1F
100
AcDbEntity
  8
0
  6
Continuous
 62
     7
100
AcDbCircle
 10
-147.0100000000012
 20
-6.14000000000001
 30
0.0
 40
2.499999999999966
100
AcDbArc
 50
113.5781784781695
 51
151.9657034651179
  0
ARC
  5
3DE
330
1F
100
AcDbEntity
  8
0
  6
Continuous
 62
     7
100
AcDbCircle
 10
-149.1849999999999
 20
-6.14000000000001
 30
0.0
 40
1.174999999999983
100
AcDbArc
 50
0.0
 51
90.0
  0
ARC
  5
3DF
330
1F
100
AcDbEntity
  8
0
  6
Continuous
 62
     7
100
AcDbCircle
 10
-149.1849999999999
 20
-6.14000000000001
 30
0.0
 40
1.174999999999999
100
AcDbArc
 50
270.0
 51
0.0
  0
ARC
  5
3E0
330
1F
100
AcDbEntity
  8
0
  6
Continuous
 62
     7
100
AcDbCircle
 10
-147.0100000000012
 20
-26.46000000000001
 30
0.0
 40
2.499999999999918
100
AcDbArc
 50
113.57817847817
 51
151.9657034651181
  0
ARC
  5
3E1
330
1F
100
AcDbEntity
  8
0
  6
Continuous
 62
     7
100
AcDbCircle
 10
-147.0100000000012
 20
-26.46000000000001
 30
0.0
 40
2.499999999999944
100
AcDbArc
 50
208.0342965348819
 51
246.4218215218309
  0
ARC
  5
3E2
330
1F
100
AcDbEntity
  8
0
  6
Continuous
 62
     7
100
AcDbCircle
 10
-149.1849999999999
 20
-26.46000000000001
 30
0.0
 40
1.174999999999997
100
AcDbArc
 50
270.0
 51
0.0
  0
ARC
  5
3E3
330
1F
100
AcDbEntity
  8
0
  6
Continuous
 62
     7
100
AcDbCircle
 10
-149.1849999999999
 20
-26.46000000000001
 30
0.0
 40
1.174999999999983
100
AcDbArc
 50
0.0
 51
90.0
  0
ARC
  5
3E4
330
1F
100
AcDbEntity
  8
0
  6
Continuous
 62
     7
100
AcDbCircle
 10
-147.0100000000012
 20
-21.38000000000001
 30
0.0
 40
2.499999999999973
100
AcDbArc
 50
113.5781784781694
 51
151.9657034651181
  0
ARC
  5
3E5
330
1F
100
AcDbEntity
  8
0
  6
Continuous
 62
     7
100
AcDbCircle
 10
-149.1849999999999
 20
4.02000000000004
 30
0.0
 40
1.174999999999997
100
AcDbArc
 50
270.0
 51
0.0
  0
ARC
  5
3E6
330
1F
100
AcDbEntity
  8
0
  6
Continuous
 62
     7
100
AcDbCircle
 10
-149.1849999999999
 20
-11.22
 30
0.0
 40
1.174999999999999
100
AcDbArc
 50
270.0
 51
0.0
  0
ARC
  5
3E7
330
1F
100
AcDbEntity
  8
0
  6
Continuous
 62
     7
100
AcDbCircle
 10
-149.1849999999999
 20
-11.22
 30
0.0
 40
1.174999999999983
100
AcDbArc
 50
0.0
 51
90.0
  0
ARC
  5
3E8
330
1F
100
AcDbEntity
  8
0
  6
Continuous
 62
     7
100
AcDbCircle
 10
-147.0100000000012
 20
-11.22000000000001
 30
0.0
 40
2.499999999999967
100
AcDbArc
 50
113.5781784781695
 51
151.9657034651179
  0
ARC
  5
3E9
330
1F
100
AcDbEntity
  8
0
  6
Continuous
 62
     7
100
AcDbCircle
 10
-147.0100000000012
 20
4.02000000000004
 30
0.0
 40
2.499999999999944
100
AcDbArc
 50
208.0342965348819
 51
246.4218215218304
  0
ARC
  5
3EA
330
1F
100
AcDbEntity
  8
0
  6
Continuous
 62
     7
100
AcDbCircle
 10
-149.1849999999999
 20
-16.30000000000001
 30
0.0
 40
1.174999999999997
100
AcDbArc
 50
270.0
 51
0.00000000000052
  0
ARC
  5
3EB
330
1F
100
AcDbEntity
  8
0
  6
Continuous
 62
     7
100
AcDbCircle
 10
-149.1849999999999
 20
-16.30000000000001
 30
0.0
 40
1.174999999999983
100
AcDbArc
 50
0.00000000000052
 51
90.0
  0
ARC
  5
3EC
330
1F
100
AcDbEntity
  8
0
  6
Continuous
 62
     7
100
AcDbCircle
 10
-147.0100000000012
 20
-16.30000000000001
 30
0.0
 40
2.499999999999973
100
AcDbArc
 50
113.5781784781694
 51
151.9657034651179
  0
ARC
  5
3ED
330
1F
100
AcDbEntity
  8
0
  6
Continuous
 62
     7
100
AcDbCircle
 10
-147.0100000000012
 20
-11.22000000000001
 30
0.0
 40
2.499999999999946
100
AcDbArc
 50
208.0342965348819
 51
246.4218215218305
  0
ARC
  5
3EE
330
1F
100
AcDbEntity
  8
0
  6
Continuous
 62
     7
100
AcDbCircle
 10
-149.1849999999999
 20
4.02000000000004
 30
0.0
 40
1.174999999999983
100
AcDbArc
 50
0.0
 51
90.0
  0
ARC
  5
3EF
330
1F
100
AcDbEntity
  8
0
  6
Continuous
 62
     7
100
AcDbCircle
 10
-147.0100000000012
 20
4.02000000000004
 30
0.0
 40
2.500000000000009
100
AcDbArc
 50
113.5781784781691
 51
151.9657034651178
  0
ARC
  5
3F0
330
1F
100
AcDbEntity
  8
0
  6
Continuous
 62
     7
100
AcDbCircle
 10
-147.0100000000012
 20
-16.30000000000001
 30
0.0
 40
2.499999999999944
100
AcDbArc
 50
208.0342965348819
 51
246.4218215218305
  0
ARC
  5
3F1
330
1F
100
AcDbEntity
  8
0
  6
Continuous
 62
     7
100
AcDbCircle
 10
-147.0100000000012
 20
-21.38000000000001
 30
0.0
 40
2.499999999999946
100
AcDbArc
 50
208.0342965348819
 51
246.421821521831
  0
ARC
  5
3F2
330
1F
100
AcDbEntity
  8
0
  6
Continuous
 62
     7
100
AcDbCircle
 10
-149.1849999999999
 20
-21.38000000000001
 30
0.0
 40
1.175000000000001
100
AcDbArc
 50
270.0
 51
0.0
  0
ARC
  5
3F3
330
1F
100
AcDbEntity
  8
0
  6
Continuous
 62
     7
100
AcDbCircle
 10
-149.1849999999999
 20
-21.38000000000001
 30
0.0
 40
1.174999999999983
100
AcDbArc
 50
0.0
 51
90.0
  0
ARC
  5
3F4
330
1F
100
AcDbEntity
  8
0
  6
Continuous
 62
     7
100
AcDbCircle
 10
-214.2190850270145
 20
-26.21045250085614
 30
0.0
 40
0.8309150961969135
100
AcDbArc
 50
168.3284403736782
 51
179.968797786102
  0
ARC
  5
3F5
330
1F
100
AcDbEntity
  8
0
  6
Continuous
 62
     7
100
AcDbCircle
 10
-214.1807888027537
 20
-26.21967790729388
 30
0.0
 40
0.8702867456872503
100
AcDbArc
 50
156.9949487128469
 51
168.2436913594254
  0
ARC
  5
3F6
330
1F
100
AcDbEntity
  8
0
  6
Continuous
 62
     7
100
AcDbCircle
 10
-214.1170972004081
 20
-26.2486761790102
 30
0.0
 40
0.9402475852999765
100
AcDbArc
 50
146.1769942031677
 51
156.8852262304203
  0
ARC
  5
3F7
330
1F
100
AcDbEntity
  8
0
  6
Continuous
 62
     7
100
AcDbCircle
 10
-214.0379138398048
 20
-26.30400805697646
 30
0.0
 40
1.036831102567856
100
AcDbArc
 50
136.0724890024208
 51
146.0724526605395
  0
ARC
  5
3F8
330
1F
100
AcDbEntity
  8
0
  6
Continuous
 62
     7
100
AcDbCircle
 10
-213.9551619650031
 20
-26.38650675109465
 30
0.0
 40
1.153665528689739
100
AcDbArc
 50
126.649754979346
 51
135.9727571168196
  0
ARC
  5
3F9
330
1F
100
AcDbEntity
  8
0
  6
Continuous
 62
     7
100
AcDbCircle
 10
-213.8763372970008
 20
-26.49768808620356
 30
0.0
 40
1.28992219917402
100
AcDbArc
 50
115.6950383545237
 51
126.5109228723734
  0
ARC
  5
3FA
330
1F
100
AcDbEntity
  8
0
  6
Continuous
 62
     7
100
AcDbCircle
 10
-213.8176085853632
 20
-26.62455198416806
 30
0.0
 40
1.429706282397488
100
AcDbArc
 50
105.5132681394807
 51
115.6115021684253
  0
ARC
  5
3FB
330
1F
100
AcDbEntity
  8
0
  6
Continuous
 62
     7
100
AcDbCircle
 10
-213.8261477888386
 20
-25.81821156328396
 30
0.0
 40
1.405489764606609
100
AcDbArc
 50
244.301270000428
 51
254.5739596916612
  0
ARC
  5
3FC
330
1F
100
AcDbEntity
  8
0
  6
Continuous
 62
     7
100
AcDbCircle
 10
-213.8874719199701
 20
-25.94076781840686
 30
0.0
 40
1.268465179725835
100
AcDbArc
 50
233.3973181921154
 51
244.3967205809903
  0
ARC
  5
3FD
330
1F
100
AcDbEntity
  8
0
  6
Continuous
 62
     7
100
AcDbCircle
 10
-213.9702825214053
 20
-26.05069779928609
 30
0.0
 40
1.130838070115224
100
AcDbArc
 50
223.9329297908222
 51
233.4445581130114
  0
ARC
  5
3FE
330
1F
100
AcDbEntity
  8
0
  6
Continuous
 62
     7
100
AcDbCircle
 10
-214.051018888884
 20
-26.12657678490519
 30
0.0
 40
1.020050455832213
100
AcDbArc
 50
213.8450789783119
 51
224.0099793587345
  0
ARC
  5
3FF
330
1F
100
AcDbEntity
  8
0
  6
Continuous
 62
     7
100
AcDbCircle
 10
-214.1292389195111
 20
-26.177907702915
 30
0.0
 40
0.9264968334229191
100
AcDbArc
 50
203.0350724612432
 51
213.9027071051637
  0
ARC
  5
400
330
1F
100
AcDbEntity
  8
0
  6
Continuous
 62
     7
100
AcDbCircle
 10
-214.1897696213102
 20
-26.20313318527374
 30
0.0
 40
0.8609220525333681
100
AcDbArc
 50
191.694928932989
 51
203.0664309947429
  0
ARC
  5
401
330
1F
100
AcDbEntity
  8
0
  6
Continuous
 62
     7
100
AcDbCircle
 10
-214.2199367076595
 20
-26.20963478141828
 30
0.0
 40
0.8300633726862304
100
AcDbArc
 50
180.0252095017051
 51
191.6775523385099
  0
ARC
  5
402
330
1F
100
AcDbEntity
  8
0
  6
Continuous
 62
     7
100
AcDbCircle
 10
-212.2738522111606
 20
-26.60178843671564
 30
0.0
 40
1.405489764606123
100
AcDbArc
 50
64.30127000042879
 51
74.57395969166436
  0
ARC
  5
403
330
1F
100
AcDbEntity
  8
0
  6
Continuous
 62
     7
100
AcDbCircle
 10
-212.2125280800291
 20
-26.47923218159297
 30
0.0
 40
1.268465179725556
100
AcDbArc
 50
53.39731819211734
 51
64.39672058099569
  0
ARC
  5
404
330
1F
100
AcDbEntity
  8
0
  6
Continuous
 62
     7
100
AcDbCircle
 10
-212.1297174785937
 20
-26.36930220071353
 30
0.0
 40
1.130838070114654
100
AcDbArc
 50
43.93292979082126
 51
53.44455811301528
  0
ARC
  5
405
330
1F
100
AcDbEntity
  8
0
  6
Continuous
 62
     7
100
AcDbCircle
 10
-212.0489811111149
 20
-26.29342321509453
 30
0.0
 40
1.020050455831615
100
AcDbArc
 50
33.84507897831346
 51
44.00997935874194
  0
ARC
  5
406
330
1F
100
AcDbEntity
  8
0
  6
Continuous
 62
     7
100
AcDbCircle
 10
-211.9707610804889
 20
-26.24209229708537
 30
0.0
 40
0.9264968334236887
100
AcDbArc
 50
23.03507246124731
 51
33.90270710516065
  0
ARC
  5
407
330
1F
100
AcDbEntity
  8
0
  6
Continuous
 62
     7
100
AcDbCircle
 10
-211.9102303786887
 20
-26.21686681472615
 30
0.0
 40
0.8609220525329518
100
AcDbArc
 50
11.69492893298586
 51
23.0664309947459
  0
ARC
  5
408
330
1F
100
AcDbEntity
  8
0
  6
Continuous
 62
     7
100
AcDbCircle
 10
-211.8800632923385
 20
-26.21036521858165
 30
0.0
 40
0.8300633726848377
100
AcDbArc
 50
0.0252095016971
 51
11.67755233852219
  0
ARC
  5
409
330
1F
100
AcDbEntity
  8
0
  6
Continuous
 62
     7
100
AcDbCircle
 10
-211.8809149729848
 20
-26.2095474991439
 30
0.0
 40
0.83091509619691
100
AcDbArc
 50
348.3284403736794
 51
359.9687977861013
  0
ARC
  5
40A
330
1F
100
AcDbEntity
  8
0
  6
Continuous
 62
     7
100
AcDbCircle
 10
-211.9192111972463
 20
-26.20032209270588
 30
0.0
 40
0.8702867456880016
100
AcDbArc
 50
336.9949487128501
 51
348.2436913594182
  0
ARC
  5
40B
330
1F
100
AcDbEntity
  8
0
  6
Continuous
 62
     7
100
AcDbCircle
 10
-211.9829027995914
 20
-26.17132382098978
 30
0.0
 40
0.940247585300075
100
AcDbArc
 50
326.176994203168
 51
336.8852262304227
  0
ARC
  5
40C
330
1F
100
AcDbEntity
  8
0
  6
Continuous
 62
     7
100
AcDbCircle
 10
-212.0620861601944
 20
-26.11599194302361
 30
0.0
 40
1.036831102567686
100
AcDbArc
 50
316.0724890024147
 51
326.0724526605352
  0
ARC
  5
40D
330
1F
100
AcDbEntity
  8
0
  6
Continuous
 62
     7
100
AcDbCircle
 10
-212.144838034996
 20
-26.03349324890569
 30
0.0
 40
1.153665528689321
100
AcDbArc
 50
306.6497549793439
 51
315.9727571168208
  0
ARC
  5
40E
330
1F
100
AcDbEntity
  8
0
  6
Continuous
 62
     7
100
AcDbCircle
 10
-212.2236627029983
 20
-25.9223119137968
 30
0.0
 40
1.289922199173574
100
AcDbArc
 50
295.6950383545164
 51
306.5109228723709
  0
ARC
  5
40F
330
1F
100
AcDbEntity
  8
0
  6
Continuous
 62
     7
100
AcDbCircle
 10
-212.282391414636
 20
-25.79544801583241
 30
0.0
 40
1.42970628239701
100
AcDbArc
 50
285.5132681394777
 51
295.6115021684247
  0
ARC
  5
410
330
1F
100
AcDbEntity
  8
0
  6
Continuous
 62
     7
100
AcDbCircle
 10
-214.2190850270145
 20
-21.13045250085613
 30
0.0
 40
0.8309150961969114
100
AcDbArc
 50
168.3284403736789
 51
179.9687977861027
  0
ARC
  5
411
330
1F
100
AcDbEntity
  8
0
  6
Continuous
 62
     7
100
AcDbCircle
 10
-214.1807888027537
 20
-21.13967790729388
 30
0.0
 40
0.8702867456872462
100
AcDbArc
 50
156.9949487128475
 51
168.2436913594256
  0
ARC
  5
412
330
1F
100
AcDbEntity
  8
0
  6
Continuous
 62
     7
100
AcDbCircle
 10
-214.1170972004082
 20
-21.16867617901016
 30
0.0
 40
0.9402475852998604
100
AcDbArc
 50
146.1769942031658
 51
156.8852262304204
  0
ARC
  5
413
330
1F
100
AcDbEntity
  8
0
  6
Continuous
 62
     7
100
AcDbCircle
 10
-214.0379138398047
 20
-21.22400805697649
 30
0.0
 40
1.03683110256794
100
AcDbArc
 50
136.0724890024228
 51
146.0724526605407
  0
ARC
  5
414
330
1F
100
AcDbEntity
  8
0
  6
Continuous
 62
     7
100
AcDbCircle
 10
-213.9551619650032
 20
-21.30650675109452
 30
0.0
 40
1.153665528689565
100
AcDbArc
 50
126.6497549793454
 51
135.9727571168202
  0
ARC
  5
415
330
1F
100
AcDbEntity
  8
0
  6
Continuous
 62
     7
100
AcDbCircle
 10
-213.8763372970008
 20
-21.41768808620365
 30
0.0
 40
1.289922199174103
100
AcDbArc
 50
115.6950383545219
 51
126.510922872371
  0
ARC
  5
416
330
1F
100
AcDbEntity
  8
0
  6
Continuous
 62
     7
100
AcDbCircle
 10
-213.8176085853631
 20
-21.54455198416815
 30
0.0
 40
1.4297062823976
100
AcDbArc
 50
105.513268139483
 51
115.6115021684268
  0
ARC
  5
417
330
1F
100
AcDbEntity
  8
0
  6
Continuous
 62
     7
100
AcDbCircle
 10
-212.2738522111606
 20
-21.52178843671576
 30
0.0
 40
1.405489764606232
100
AcDbArc
 50
64.30127000043093
 51
74.57395969166566
  0
ARC
  5
418
330
1F
100
AcDbEntity
  8
0
  6
Continuous
 62
     7
100
AcDbCircle
 10
-212.2125280800292
 20
-21.39923218159314
 30
0.0
 40
1.268465179725741
100
AcDbArc
 50
53.39731819211875
 51
64.39672058099553
  0
ARC
  5
419
330
1F
100
AcDbEntity
  8
0
  6
Continuous
 62
     7
100
AcDbCircle
 10
-212.1297174785938
 20
-21.28930220071359
 30
0.0
 40
1.130838070114757
100
AcDbArc
 50
43.93292979082047
 51
53.44455811301351
  0
ARC
  5
41A
330
1F
100
AcDbEntity
  8
0
  6
Continuous
 62
     7
100
AcDbCircle
 10
-212.0489811111149
 20
-21.21342321509453
 30
0.0
 40
1.020050455831615
100
AcDbArc
 50
33.84507897831346
 51
44.00997935874194
  0
ARC
  5
41B
330
1F
100
AcDbEntity
  8
0
  6
Continuous
 62
     7
100
AcDbCircle
 10
-211.9707610804889
 20
-21.16209229708537
 30
0.0
 40
0.9264968334236845
100
AcDbArc
 50
23.03507246124671
 51
33.90270710516065
  0
ARC
  5
41C
330
1F
100
AcDbEntity
  8
0
  6
Continuous
 62
     7
100
AcDbCircle
 10
-211.9102303786887
 20
-21.13686681472617
 30
0.0
 40
0.8609220525329554
100
AcDbArc
 50
11.69492893298702
 51
23.06643099474655
  0
ARC
  5
41D
330
1F
100
AcDbEntity
  8
0
  6
Continuous
 62
     7
100
AcDbCircle
 10
-211.8800632923385
 20
-21.13036521858165
 30
0.0
 40
0.8300633726848377
100
AcDbArc
 50
0.0252095016971
 51
11.67755233852219
  0
ARC
  5
41E
330
1F
100
AcDbEntity
  8
0
  6
Continuous
 62
     7
100
AcDbCircle
 10
-211.8809149729848
 20
-21.12954749914389
 30
0.0
 40
0.8309150961969121
100
AcDbArc
 50
348.3284403736787
 51
359.9687977861005
  0
ARC
  5
41F
330
1F
100
AcDbEntity
  8
0
  6
Continuous
 62
     7
100
AcDbCircle
 10
-211.9192111972463
 20
-21.12032209270588
 30
0.0
 40
0.8702867456880016
100
AcDbArc
 50
336.9949487128501
 51
348.2436913594182
  0
ARC
  5
420
330
1F
100
AcDbEntity
  8
0
  6
Continuous
 62
     7
100
AcDbCircle
 10
-211.9829027995914
 20
-21.09132382098974
 30
0.0
 40
0.9402475853000988
100
AcDbArc
 50
326.1769942031659
 51
336.8852262304204
  0
ARC
  5
421
330
1F
100
AcDbEntity
  8
0
  6
Continuous
 62
     7
100
AcDbCircle
 10
-212.0620861601943
 20
-21.03599194302368
 30
0.0
 40
1.036831102567547
100
AcDbArc
 50
316.0724890024136
 51
326.0724526605349
  0
ARC
  5
422
330
1F
100
AcDbEntity
  8
0
  6
Continuous
 62
     7
100
AcDbCircle
 10
-212.1448380349959
 20
-20.95349324890584
 30
0.0
 40
1.153665528689131
100
AcDbArc
 50
306.6497549793439
 51
315.9727571168225
  0
ARC
  5
423
330
1F
100
AcDbEntity
  8
0
  6
Continuous
 62
     7
100
AcDbCircle
 10
-212.2236627029983
 20
-20.84231191379677
 30
0.0
 40
1.289922199173603
100
AcDbArc
 50
295.6950383545158
 51
306.5109228723702
  0
ARC
  5
424
330
1F
100
AcDbEntity
  8
0
  6
Continuous
 62
     7
100
AcDbCircle
 10
-212.2823914146361
 20
-20.71544801583229
 30
0.0
 40
1.429706282397156
100
AcDbArc
 50
285.5132681394796
 51
295.6115021684257
  0
ARC
  5
425
330
1F
100
AcDbEntity
  8
0
  6
Continuous
 62
     7
100
AcDbCircle
 10
-213.8261477888387
 20
-20.73821156328418
 30
0.0
 40
1.405489764606361
100
AcDbArc
 50
244.3012700004283
 51
254.5739596916634
  0
ARC
  5
426
330
1F
100
AcDbEntity
  8
0
  6
Continuous
 62
     7
100
AcDbCircle
 10
-213.8874719199701
 20
-20.86076781840693
 30
0.0
 40
1.268465179725778
100
AcDbArc
 50
233.3973181921135
 51
244.3967205809889
  0
ARC
  5
427
330
1F
100
AcDbEntity
  8
0
  6
Continuous
 62
     7
100
AcDbCircle
 10
-213.9702825214053
 20
-20.97069779928614
 30
0.0
 40
1.130838070115192
100
AcDbArc
 50
223.9329297908205
 51
233.4445581130099
  0
ARC
  5
428
330
1F
100
AcDbEntity
  8
0
  6
Continuous
 62
     7
100
AcDbCircle
 10
-214.0510188888841
 20
-21.04657678490533
 30
0.0
 40
1.020050455832041
100
AcDbArc
 50
213.8450789783089
 51
224.0099793587333
  0
ARC
  5
429
330
1F
100
AcDbEntity
  8
0
  6
Continuous
 62
     7
100
AcDbCircle
 10
-214.1292389195111
 20
-21.097907702915
 30
0.0
 40
0.9264968334229206
100
AcDbArc
 50
203.0350724612434
 51
213.9027071051639
  0
ARC
  5
42A
330
1F
100
AcDbEntity
  8
0
  6
Continuous
 62
     7
100
AcDbCircle
 10
-214.1897696213103
 20
-21.12313318527375
 30
0.0
 40
0.860922052533286
100
AcDbArc
 50
191.6949289329906
 51
203.0664309947445
  0
ARC
  5
42B
330
1F
100
AcDbEntity
  8
0
  6
Continuous
 62
     7
100
AcDbCircle
 10
-214.2199367076594
 20
-21.12963478141828
 30
0.0
 40
0.8300633726863441
100
AcDbArc
 50
180.0252095017054
 51
191.6775523385098
  0
ARC
  5
42C
330
1F
100
AcDbEntity
  8
0
  6
Continuous
 62
     7
100
AcDbCircle
 10
-213.8261477888387
 20
-15.65821156328416
 30
0.0
 40
1.405489764606379
100
AcDbArc
 50
244.3012700004286
 51
254.5739596916635
  0
ARC
  5
42D
330
1F
100
AcDbEntity
  8
0
  6
Continuous
 62
     7
100
AcDbCircle
 10
-213.8874719199701
 20
-15.78076781840689
 30
0.0
 40
1.268465179725812
100
AcDbArc
 50
233.3973181921147
 51
244.3967205809898
  0
ARC
  5
42E
330
1F
100
AcDbEntity
  8
0
  6
Continuous
 62
     7
100
AcDbCircle
 10
-213.9702825214053
 20
-15.89069779928611
 30
0.0
 40
1.130838070115218
100
AcDbArc
 50
223.9329297908218
 51
233.4445581130109
  0
ARC
  5
42F
330
1F
100
AcDbEntity
  8
0
  6
Continuous
 62
     7
100
AcDbCircle
 10
-214.0510188888841
 20
-15.96657678490531
 30
0.0
 40
1.020050455832051
100
AcDbArc
 50
213.8450789783098
 51
224.0099793587345
  0
ARC
  5
430
330
1F
100
AcDbEntity
  8
0
  6
Continuous
 62
     7
100
AcDbCircle
 10
-214.1292389195111
 20
-16.01790770291499
 30
0.0
 40
0.9264968334229317
100
AcDbArc
 50
203.035072461245
 51
213.9027071051643
  0
ARC
  5
431
330
1F
100
AcDbEntity
  8
0
  6
Continuous
 62
     7
100
AcDbCircle
 10
-214.1897696213103
 20
-16.04313318527375
 30
0.0
 40
0.8609220525332825
100
AcDbArc
 50
191.6949289329895
 51
203.0664309947458
  0
ARC
  5
432
330
1F
100
AcDbEntity
  8
0
  6
Continuous
 62
     7
100
AcDbCircle
 10
-214.2199367076595
 20
-16.04963478141828
 30
0.0
 40
0.8300633726862304
100
AcDbArc
 50
180.0252095017051
 51
191.6775523385099
  0
ARC
  5
433
330
1F
100
AcDbEntity
  8
0
  6
Continuous
 62
     7
100
AcDbCircle
 10
-214.2190850270145
 20
-16.05045250085613
 30
0.0
 40
0.8309150961969121
100
AcDbArc
 50
168.3284403736787
 51
179.9687977861025
  0
ARC
  5
434
330
1F
100
AcDbEntity
  8
0
  6
Continuous
 62
     7
100
AcDbCircle
 10
-214.1807888027537
 20
-16.05967790729388
 30
0.0
 40
0.8702867456872462
100
AcDbArc
 50
156.9949487128475
 51
168.2436913594254
  0
ARC
  5
435
330
1F
100
AcDbEntity
  8
0
  6
Continuous
 62
     7
100
AcDbCircle
 10
-214.1170972004082
 20
-16.08867617901014
 30
0.0
 40
0.9402475852998544
100
AcDbArc
 50
146.1769942031663
 51
156.8852262304216
  0
ARC
  5
436
330
1F
100
AcDbEntity
  8
0
  6
Continuous
 62
     7
100
AcDbCircle
 10
-214.0379138398047
 20
-16.14400805697655
 30
0.0
 40
1.036831102567981
100
AcDbArc
 50
136.0724890024205
 51
146.0724526605376
  0
ARC
  5
437
330
1F
100
AcDbEntity
  8
0
  6
Continuous
 62
     7
100
AcDbCircle
 10
-213.9551619650032
 20
-16.22650675109451
 30
0.0
 40
1.15366552868956
100
AcDbArc
 50
126.6497549793456
 51
135.9727571168206
  0
ARC
  5
438
330
1F
100
AcDbEntity
  8
0
  6
Continuous
 62
     7
100
AcDbCircle
 10
-213.8763372970007
 20
-16.33768808620379
 30
0.0
 40
1.289922199174274
100
AcDbArc
 50
115.6950383545225
 51
126.5109228723703
  0
ARC
  5
439
330
1F
100
AcDbEntity
  8
0
  6
Continuous
 62
     7
100
AcDbCircle
 10
-213.8176085853631
 20
-16.46455198416819
 30
0.0
 40
1.429706282397644
100
AcDbArc
 50
105.5132681394825
 51
115.6115021684259
  0
ARC
  5
43A
330
1F
100
AcDbEntity
  8
0
  6
Continuous
 62
     7
100
AcDbCircle
 10
-213.8261477888385
 20
-10.57821156328371
 30
0.0
 40
1.40548976460687
100
AcDbArc
 50
244.3012700004293
 51
254.5739596916605
  0
ARC
  5
43B
330
1F
100
AcDbEntity
  8
0
  6
Continuous
 62
     7
100
AcDbCircle
 10
-213.88747191997
 20
-10.70076781840671
 30
0.0
 40
1.268465179725998
100
AcDbArc
 50
233.3973181921162
 51
244.3967205809898
  0
ARC
  5
43C
330
1F
100
AcDbEntity
  8
0
  6
Continuous
 62
     7
100
AcDbCircle
 10
-213.9702825214054
 20
-10.81069779928621
 30
0.0
 40
1.130838070115054
100
AcDbArc
 50
223.9329297908215
 51
233.4445581130121
  0
ARC
  5
43D
330
1F
100
AcDbEntity
  8
0
  6
Continuous
 62
     7
100
AcDbCircle
 10
-214.0510188888843
 20
-10.88657678490541
 30
0.0
 40
1.020050455831825
100
AcDbArc
 50
213.845078978311
 51
224.0099793587374
  0
ARC
  5
43E
330
1F
100
AcDbEntity
  8
0
  6
Continuous
 62
     7
100
AcDbCircle
 10
-214.1292389195111
 20
-10.937907702915
 30
0.0
 40
0.9264968334229157
100
AcDbArc
 50
203.0350724612427
 51
213.9027071051633
  0
ARC
  5
43F
330
1F
100
AcDbEntity
  8
0
  6
Continuous
 62
     7
100
AcDbCircle
 10
-214.1897696213103
 20
-10.96313318527381
 30
0.0
 40
0.8609220525332741
100
AcDbArc
 50
191.6949289329868
 51
203.0664309947402
  0
ARC
  5
440
330
1F
100
AcDbEntity
  8
0
  6
Continuous
 62
     7
100
AcDbCircle
 10
-214.2199367076595
 20
-10.9696347814183
 30
0.0
 40
0.8300633726862304
100
AcDbArc
 50
180.0252095017039
 51
191.6775523385099
  0
ARC
  5
441
330
1F
100
AcDbEntity
  8
0
  6
Continuous
 62
     7
100
AcDbCircle
 10
-214.2190850270145
 20
-10.9704525008561
 30
0.0
 40
0.8309150961969117
100
AcDbArc
 50
168.3284403736788
 51
179.9687977861048
  0
ARC
  5
442
330
1F
100
AcDbEntity
  8
0
  6
Continuous
 62
     7
100
AcDbCircle
 10
-214.1807888027536
 20
-10.9796779072939
 30
0.0
 40
0.8702867456873578
100
AcDbArc
 50
156.9949487128494
 51
168.2436913594238
  0
ARC
  5
443
330
1F
100
AcDbEntity
  8
0
  6
Continuous
 62
     7
100
AcDbCircle
 10
-214.1170972004082
 20
-11.0086761790102
 30
0.0
 40
0.9402475852999098
100
AcDbArc
 50
146.1769942031613
 51
156.8852262304182
  0
ARC
  5
444
330
1F
100
AcDbEntity
  8
0
  6
Continuous
 62
     7
100
AcDbCircle
 10
-214.0379138398047
 20
-11.06400805697661
 30
0.0
 40
1.036831102568001
100
AcDbArc
 50
136.0724890024193
 51
146.072452660533
  0
ARC
  5
445
330
1F
100
AcDbEntity
  8
0
  6
Continuous
 62
     7
100
AcDbCircle
 10
-213.9551619650033
 20
-11.1465067510943
 30
0.0
 40
1.153665528689371
100
AcDbArc
 50
126.6497549793473
 51
135.9727571168262
  0
ARC
  5
446
330
1F
100
AcDbEntity
  8
0
  6
Continuous
 62
     7
100
AcDbCircle
 10
-213.8763372970006
 20
-11.2576880862039
 30
0.0
 40
1.289922199174395
100
AcDbArc
 50
115.6950383545254
 51
126.5109228723704
  0
ARC
  5
447
330
1F
100
AcDbEntity
  8
0
  6
Continuous
 62
     7
100
AcDbCircle
 10
-213.8176085853629
 20
-11.38455198416891
 30
0.0
 40
1.429706282398382
100
AcDbArc
 50
105.5132681394826
 51
115.6115021684212
  0
ARC
  5
448
330
1F
100
AcDbEntity
  8
0
  6
Continuous
 62
     7
100
AcDbCircle
 10
-211.8809149729845
 20
-16.04954749914396
 30
0.0
 40
0.8309150961965915
100
AcDbArc
 50
348.3284403736791
 51
359.9687977861059
  0
ARC
  5
449
330
1F
100
AcDbEntity
  8
0
  6
Continuous
 62
     7
100
AcDbCircle
 10
-211.919211197246
 20
-16.04032209270597
 30
0.0
 40
0.8702867456876776
100
AcDbArc
 50
336.9949487128477
 51
348.2436913594199
  0
ARC
  5
44A
330
1F
100
AcDbEntity
  8
0
  6
Continuous
 62
     7
100
AcDbCircle
 10
-211.9829027995915
 20
-16.01132382098971
 30
0.0
 40
0.940247585300209
100
AcDbArc
 50
326.1769942031682
 51
336.8852262304216
  0
ARC
  5
44B
330
1F
100
AcDbEntity
  8
0
  6
Continuous
 62
     7
100
AcDbCircle
 10
-212.0620861601943
 20
-15.9559919430237
 30
0.0
 40
1.036831102567549
100
AcDbArc
 50
316.0724890024136
 51
326.0724526605358
  0
ARC
  5
44C
330
1F
100
AcDbEntity
  8
0
  6
Continuous
 62
     7
100
AcDbCircle
 10
-212.144838034996
 20
-15.87349324890568
 30
0.0
 40
1.153665528689328
100
AcDbArc
 50
306.6497549793436
 51
315.9727571168201
  0
ARC
  5
44D
330
1F
100
AcDbEntity
  8
0
  6
Continuous
 62
     7
100
AcDbCircle
 10
-212.2236627029983
 20
-15.76231191379677
 30
0.0
 40
1.289922199173601
100
AcDbArc
 50
295.6950383545158
 51
306.5109228723701
  0
ARC
  5
44E
330
1F
100
AcDbEntity
  8
0
  6
Continuous
 62
     7
100
AcDbCircle
 10
-212.282391414636
 20
-15.63544801583237
 30
0.0
 40
1.429706282397048
100
AcDbArc
 50
285.5132681394773
 51
295.611502168424
  0
ARC
  5
44F
330
1F
100
AcDbEntity
  8
0
  6
Continuous
 62
     7
100
AcDbCircle
 10
-212.2738522111605
 20
-16.44178843671556
 30
0.0
 40
1.40548976460601
100
AcDbArc
 50
64.30127000043171
 51
74.57395969166805
  0
ARC
  5
450
330
1F
100
AcDbEntity
  8
0
  6
Continuous
 62
     7
100
AcDbCircle
 10
-212.2125280800292
 20
-16.31923218159301
 30
0.0
 40
1.268465179725639
100
AcDbArc
 50
53.3973181921153
 51
64.39672058099319
  0
ARC
  5
451
330
1F
100
AcDbEntity
  8
0
  6
Continuous
 62
     7
100
AcDbCircle
 10
-212.1297174785939
 20
-16.20930220071369
 30
0.0
 40
1.13083807011491
100
AcDbArc
 50
43.93292979082016
 51
53.44455811301201
  0
ARC
  5
452
330
1F
100
AcDbEntity
  8
0
  6
Continuous
 62
     7
100
AcDbCircle
 10
-212.048981111115
 20
-16.13342321509462
 30
0.0
 40
1.020050455831765
100
AcDbArc
 50
33.84507897831454
 51
44.00997935874117
  0
ARC
  5
453
330
1F
100
AcDbEntity
  8
0
  6
Continuous
 62
     7
100
AcDbCircle
 10
-211.9707610804889
 20
-16.0820922970854
 30
0.0
 40
0.9264968334236956
100
AcDbArc
 50
23.03507246124832
 51
33.90270710516266
  0
ARC
  5
454
330
1F
100
AcDbEntity
  8
0
  6
Continuous
 62
     7
100
AcDbCircle
 10
-211.9102303786888
 20
-16.05686681472617
 30
0.0
 40
0.8609220525330396
100
AcDbArc
 50
11.6949289329861
 51
23.06643099474433
  0
ARC
  5
455
330
1F
100
AcDbEntity
  8
0
  6
Continuous
 62
     7
100
AcDbCircle
 10
-211.8800632923385
 20
-16.05036521858161
 30
0.0
 40
0.8300633726848377
100
AcDbArc
 50
0.02520950169489
 51
11.67755233851955
  0
ARC
  5
456
330
1F
100
AcDbEntity
  8
0
  6
Continuous
 62
     7
100
AcDbCircle
 10
-211.8809149729848
 20
-10.96954749914391
 30
0.0
 40
0.8309150961969074
100
AcDbArc
 50
348.3284403736803
 51
359.9687977861027
  0
ARC
  5
457
330
1F
100
AcDbEntity
  8
0
  6
Continuous
 62
     7
100
AcDbCircle
 10
-211.9192111972463
 20
-10.9603220927059
 30
0.0
 40
0.8702867456879898
100
AcDbArc
 50
336.994948712852
 51
348.2436913594195
  0
ARC
  5
458
330
1F
100
AcDbEntity
  8
0
  6
Continuous
 62
     7
100
AcDbCircle
 10
-211.9829027995914
 20
-10.93132382098971
 30
0.0
 40
0.9402475853001087
100
AcDbArc
 50
326.176994203165
 51
336.8852262304194
  0
ARC
  5
459
330
1F
100
AcDbEntity
  8
0
  6
Continuous
 62
     7
100
AcDbCircle
 10
-212.0620861601942
 20
-10.87599194302381
 30
0.0
 40
1.036831102567397
100
AcDbArc
 50
316.0724890024155
 51
326.0724526605386
  0
ARC
  5
45A
330
1F
100
AcDbEntity
  8
0
  6
Continuous
 62
     7
100
AcDbCircle
 10
-212.1448380349959
 20
-10.79349324890581
 30
0.0
 40
1.153665528689148
100
AcDbArc
 50
306.6497549793432
 51
315.9727571168215
  0
ARC
  5
45B
330
1F
100
AcDbEntity
  8
0
  6
Continuous
 62
     7
100
AcDbCircle
 10
-212.2236627029982
 20
-10.6823119137971
 30
0.0
 40
1.289922199173258
100
AcDbArc
 50
295.6950383545189
 51
306.5109228723761
  0
ARC
  5
45C
330
1F
100
AcDbEntity
  8
0
  6
Continuous
 62
     7
100
AcDbCircle
 10
-212.2823914146361
 20
-10.5554480158322
 30
0.0
 40
1.429706282397235
100
AcDbArc
 50
285.5132681394788
 51
295.6115021684243
  0
ARC
  5
45D
330
1F
100
AcDbEntity
  8
0
  6
Continuous
 62
     7
100
AcDbCircle
 10
-212.2738522111605
 20
-11.36178843671562
 30
0.0
 40
1.405489764606038
100
AcDbArc
 50
64.30127000043228
 51
74.57395969166862
  0
ARC
  5
45E
330
1F
100
AcDbEntity
  8
0
  6
Continuous
 62
     7
100
AcDbCircle
 10
-212.2125280800291
 20
-11.2392321815929
 30
0.0
 40
1.268465179725532
100
AcDbArc
 50
53.39731819211653
 51
64.39672058099396
  0
ARC
  5
45F
330
1F
100
AcDbEntity
  8
0
  6
Continuous
 62
     7
100
AcDbCircle
 10
-212.129717478594
 20
-11.1293022007138
 30
0.0
 40
1.130838070115026
100
AcDbArc
 50
43.93292979082008
 51
53.44455811301304
  0
ARC
  5
460
330
1F
100
AcDbEntity
  8
0
  6
Continuous
 62
     7
100
AcDbCircle
 10
-212.0489811111151
 20
-11.0534232150946
 30
0.0
 40
1.020050455831847
100
AcDbArc
 50
33.84507897831278
 51
44.00997935873583
  0
ARC
  5
461
330
1F
100
AcDbEntity
  8
0
  6
Continuous
 62
     7
100
AcDbCircle
 10
-211.9707610804889
 20
-11.0020922970854
 30
0.0
 40
0.9264968334236956
100
AcDbArc
 50
23.03507246124832
 51
33.90270710516467
  0
ARC
  5
462
330
1F
100
AcDbEntity
  8
0
  6
Continuous
 62
     7
100
AcDbCircle
 10
-211.9102303786887
 20
-10.9768668147262
 30
0.0
 40
0.8609220525329684
100
AcDbArc
 50
11.69492893299119
 51
23.0664309947484
  0
ARC
  5
463
330
1F
100
AcDbEntity
  8
0
  6
Continuous
 62
     7
100
AcDbCircle
 10
-211.8800632923385
 20
-10.9703652185816
 30
0.0
 40
0.8300633726848377
100
AcDbArc
 50
0.02520950169428
 51
11.67755233852087
  0
ARC
  5
464
330
1F
100
AcDbEntity
  8
0
  6
Continuous
 62
     7
100
AcDbCircle
 10
-214.2190850270144
 20
4.2695474991439
 30
0.0
 40
0.8309150961970186
100
AcDbArc
 50
168.3284403736818
 51
179.9687977861027
  0
ARC
  5
465
330
1F
100
AcDbEntity
  8
0
  6
Continuous
 62
     7
100
AcDbCircle
 10
-214.1807888027537
 20
4.26032209270612
 30
0.0
 40
0.8702867456872475
100
AcDbArc
 50
156.9949487128473
 51
168.2436913594254
  0
ARC
  5
466
330
1F
100
AcDbEntity
  8
0
  6
Continuous
 62
     7
100
AcDbCircle
 10
-214.1170972004082
 20
4.23132382098986
 30
0.0
 40
0.940247585299856
100
AcDbArc
 50
146.1769942031662
 51
156.8852262304212
  0
ARC
  5
467
330
1F
100
AcDbEntity
  8
0
  6
Continuous
 62
     7
100
AcDbCircle
 10
-214.0379138398047
 20
4.17599194302345
 30
0.0
 40
1.036831102567982
100
AcDbArc
 50
136.0724890024204
 51
146.0724526605374
  0
ARC
  5
468
330
1F
100
AcDbEntity
  8
0
  6
Continuous
 62
     7
100
AcDbCircle
 10
-213.9551619650032
 20
4.09349324890549
 30
0.0
 40
1.153665528689557
100
AcDbArc
 50
126.6497549793457
 51
135.9727571168206
  0
ARC
  5
469
330
1F
100
AcDbEntity
  8
0
  6
Continuous
 62
     7
100
AcDbCircle
 10
-213.8763372970007
 20
3.98231191379621
 30
0.0
 40
1.289922199174274
100
AcDbArc
 50
115.6950383545225
 51
126.5109228723704
  0
ARC
  5
46A
330
1F
100
AcDbEntity
  8
0
  6
Continuous
 62
     7
100
AcDbCircle
 10
-213.8176085853631
 20
3.85544801583182
 30
0.0
 40
1.429706282397629
100
AcDbArc
 50
105.5132681394827
 51
115.611502168426
  0
ARC
  5
46B
330
1F
100
AcDbEntity
  8
0
  6
Continuous
 62
     7
100
AcDbCircle
 10
-212.2738522111605
 20
3.87821156328444
 30
0.0
 40
1.405489764606013
100
AcDbArc
 50
64.30127000043178
 51
74.57395969166794
  0
ARC
  5
46C
330
1F
100
AcDbEntity
  8
0
  6
Continuous
 62
     7
100
AcDbCircle
 10
-212.2125280800292
 20
4.00076781840699
 30
0.0
 40
1.268465179725641
100
AcDbArc
 50
53.39731819211539
 51
64.39672058099332
  0
ARC
  5
46D
330
1F
100
AcDbEntity
  8
0
  6
Continuous
 62
     7
100
AcDbCircle
 10
-212.1297174785939
 20
4.11069779928632
 30
0.0
 40
1.130838070114906
100
AcDbArc
 50
43.93292979081997
 51
53.44455811301179
  0
ARC
  5
46E
330
1F
100
AcDbEntity
  8
0
  6
Continuous
 62
     7
100
AcDbCircle
 10
-212.048981111115
 20
4.18657678490539
 30
0.0
 40
1.020050455831784
100
AcDbArc
 50
33.84507897831612
 51
44.00997935874095
  0
ARC
  5
46F
330
1F
100
AcDbEntity
  8
0
  6
Continuous
 62
     7
100
AcDbCircle
 10
-211.9707610804889
 20
4.2379077029146
 30
0.0
 40
0.9264968334236985
100
AcDbArc
 50
23.03507246124873
 51
33.90270710516476
  0
ARC
  5
470
330
1F
100
AcDbEntity
  8
0
  6
Continuous
 62
     7
100
AcDbCircle
 10
-211.9102303786888
 20
4.26313318527384
 30
0.0
 40
0.8609220525330396
100
AcDbArc
 50
11.6949289329861
 51
23.06643099474454
  0
ARC
  5
471
330
1F
100
AcDbEntity
  8
0
  6
Continuous
 62
     7
100
AcDbCircle
 10
-211.8800632923385
 20
4.26963478141839
 30
0.0
 40
0.8300633726848377
100
AcDbArc
 50
0.02520950169501
 51
11.67755233851955
  0
ARC
  5
472
330
1F
100
AcDbEntity
  8
0
  6
Continuous
 62
     7
100
AcDbCircle
 10
-212.2738522111605
 20
-1.20178843671562
 30
0.0
 40
1.405489764606038
100
AcDbArc
 50
64.30127000043228
 51
74.57395969166875
  0
ARC
  5
473
330
1F
100
AcDbEntity
  8
0
  6
Continuous
 62
     7
100
AcDbCircle
 10
-212.2125280800291
 20
-1.0792321815929
 30
0.0
 40
1.268465179725534
100
AcDbArc
 50
53.39731819211657
 51
64.39672058099403
  0
ARC
  5
474
330
1F
100
AcDbEntity
  8
0
  6
Continuous
 62
     7
100
AcDbCircle
 10
-212.129717478594
 20
-0.9693022007138
 30
0.0
 40
1.130838070115026
100
AcDbArc
 50
43.93292979082008
 51
53.44455811301304
  0
ARC
  5
475
330
1F
100
AcDbEntity
  8
0
  6
Continuous
 62
     7
100
AcDbCircle
 10
-212.0489811111151
 20
-0.8934232150946
 30
0.0
 40
1.02005045583185
100
AcDbArc
 50
33.84507897831304
 51
44.0099793587359
  0
ARC
  5
476
330
1F
100
AcDbEntity
  8
0
  6
Continuous
 62
     7
100
AcDbCircle
 10
-211.9707610804889
 20
-0.8420922970854
 30
0.0
 40
0.9264968334236985
100
AcDbArc
 50
23.03507246124873
 51
33.90270710516503
  0
ARC
  5
477
330
1F
100
AcDbEntity
  8
0
  6
Continuous
 62
     7
100
AcDbCircle
 10
-211.9102303786887
 20
-0.8168668147262
 30
0.0
 40
0.8609220525329676
100
AcDbArc
 50
11.69492893299095
 51
23.06643099474851
  0
ARC
  5
478
330
1F
100
AcDbEntity
  8
0
  6
Continuous
 62
     7
100
AcDbCircle
 10
-211.8800632923385
 20
-0.81036521858159
 30
0.0
 40
0.8300633726848377
100
AcDbArc
 50
0.0252095016944
 51
11.67755233852051
  0
ARC
  5
479
330
1F
100
AcDbEntity
  8
0
  6
Continuous
 62
     7
100
AcDbCircle
 10
-211.8809149729848
 20
-0.8095474991439
 30
0.0
 40
0.8309150961969121
100
AcDbArc
 50
348.3284403736787
 51
359.9687977861027
  0
ARC
  5
47A
330
1F
100
AcDbEntity
  8
0
  6
Continuous
 62
     7
100
AcDbCircle
 10
-211.9192111972463
 20
-0.8003220927059
 30
0.0
 40
0.8702867456879905
100
AcDbArc
 50
336.9949487128519
 51
348.2436913594184
  0
ARC
  5
47B
330
1F
100
AcDbEntity
  8
0
  6
Continuous
 62
     7
100
AcDbCircle
 10
-211.9829027995914
 20
-0.77132382098971
 30
0.0
 40
0.9402475853001087
100
AcDbArc
 50
326.176994203165
 51
336.8852262304192
  0
ARC
  5
47C
330
1F
100
AcDbEntity
  8
0
  6
Continuous
 62
     7
100
AcDbCircle
 10
-212.0620861601942
 20
-0.71599194302381
 30
0.0
 40
1.036831102567397
100
AcDbArc
 50
316.0724890024155
 51
326.0724526605388
  0
ARC
  5
47D
330
1F
100
AcDbEntity
  8
0
  6
Continuous
 62
     7
100
AcDbCircle
 10
-212.1448380349959
 20
-0.63349324890581
 30
0.0
 40
1.153665528689148
100
AcDbArc
 50
306.6497549793432
 51
315.9727571168215
  0
ARC
  5
47E
330
1F
100
AcDbEntity
  8
0
  6
Continuous
 62
     7
100
AcDbCircle
 10
-212.2236627029982
 20
-0.5223119137971
 30
0.0
 40
1.289922199173259
100
AcDbArc
 50
295.6950383545189
 51
306.5109228723761
  0
ARC
  5
47F
330
1F
100
AcDbEntity
  8
0
  6
Continuous
 62
     7
100
AcDbCircle
 10
-212.2823914146361
 20
-0.3954480158322
 30
0.0
 40
1.429706282397239
100
AcDbArc
 50
285.5132681394787
 51
295.6115021684243
  0
ARC
  5
480
330
1F
100
AcDbEntity
  8
0
  6
Continuous
 62
     7
100
AcDbCircle
 10
-214.2190850270145
 20
-0.8104525008561
 30
0.0
 40
0.8309150961969121
100
AcDbArc
 50
168.3284403736787
 51
179.9687977861027
  0
ARC
  5
481
330
1F
100
AcDbEntity
  8
0
  6
Continuous
 62
     7
100
AcDbCircle
 10
-214.1807888027536
 20
-0.81967790729389
 30
0.0
 40
0.8702867456873578
100
AcDbArc
 50
156.9949487128494
 51
168.2436913594242
  0
ARC
  5
482
330
1F
100
AcDbEntity
  8
0
  6
Continuous
 62
     7
100
AcDbCircle
 10
-214.1170972004082
 20
-0.8486761790102
 30
0.0
 40
0.9402475852999118
100
AcDbArc
 50
146.1769942031611
 51
156.885226230418
  0
ARC
  5
483
330
1F
100
AcDbEntity
  8
0
  6
Continuous
 62
     7
100
AcDbCircle
 10
-214.0379138398047
 20
-0.90400805697661
 30
0.0
 40
1.036831102568001
100
AcDbArc
 50
136.0724890024193
 51
146.0724526605328
  0
ARC
  5
484
330
1F
100
AcDbEntity
  8
0
  6
Continuous
 62
     7
100
AcDbCircle
 10
-213.9551619650033
 20
-0.9865067510943
 30
0.0
 40
1.153665528689369
100
AcDbArc
 50
126.6497549793474
 51
135.9727571168263
  0
ARC
  5
485
330
1F
100
AcDbEntity
  8
0
  6
Continuous
 62
     7
100
AcDbCircle
 10
-213.8763372970006
 20
-1.0976880862039
 30
0.0
 40
1.289922199174401
100
AcDbArc
 50
115.6950383545253
 51
126.5109228723703
  0
ARC
  5
486
330
1F
100
AcDbEntity
  8
0
  6
Continuous
 62
     7
100
AcDbCircle
 10
-213.8176085853629
 20
-1.22455198416891
 30
0.0
 40
1.4297062823984
100
AcDbArc
 50
105.5132681394824
 51
115.6115021684211
  0
ARC
  5
487
330
1F
100
AcDbEntity
  8
0
  6
Continuous
 62
     7
100
AcDbCircle
 10
-213.8261477888385
 20
-0.41821156328371
 30
0.0
 40
1.405489764606864
100
AcDbArc
 50
244.3012700004292
 51
254.5739596916607
  0
ARC
  5
488
330
1F
100
AcDbEntity
  8
0
  6
Continuous
 62
     7
100
AcDbCircle
 10
-213.88747191997
 20
-0.54076781840671
 30
0.0
 40
1.268465179726
100
AcDbArc
 50
233.3973181921162
 51
244.3967205809896
  0
ARC
  5
489
330
1F
100
AcDbEntity
  8
0
  6
Continuous
 62
     7
100
AcDbCircle
 10
-213.9702825214054
 20
-0.65069779928621
 30
0.0
 40
1.130838070115056
100
AcDbArc
 50
223.9329297908216
 51
233.4445581130122
  0
ARC
  5
48A
330
1F
100
AcDbEntity
  8
0
  6
Continuous
 62
     7
100
AcDbCircle
 10
-214.0510188888843
 20
-0.7265767849054
 30
0.0
 40
1.020050455831826
100
AcDbArc
 50
213.845078978311
 51
224.0099793587376
  0
ARC
  5
48B
330
1F
100
AcDbEntity
  8
0
  6
Continuous
 62
     7
100
AcDbCircle
 10
-214.1292389195111
 20
-0.777907702915
 30
0.0
 40
0.926496833422915
100
AcDbArc
 50
203.0350724612426
 51
213.902707105163
  0
ARC
  5
48C
330
1F
100
AcDbEntity
  8
0
  6
Continuous
 62
     7
100
AcDbCircle
 10
-214.1897696213103
 20
-0.80313318527381
 30
0.0
 40
0.8609220525332738
100
AcDbArc
 50
191.6949289329867
 51
203.0664309947404
  0
ARC
  5
48D
330
1F
100
AcDbEntity
  8
0
  6
Continuous
 62
     7
100
AcDbCircle
 10
-214.2199367076595
 20
-0.8096347814183
 30
0.0
 40
0.8300633726862304
100
AcDbArc
 50
180.0252095017022
 51
191.6775523385099
  0
ARC
  5
48E
330
1F
100
AcDbEntity
  8
0
  6
Continuous
 62
     7
100
AcDbCircle
 10
-213.8261477888387
 20
4.66178843671584
 30
0.0
 40
1.405489764606381
100
AcDbArc
 50
244.3012700004287
 51
254.5739596916633
  0
ARC
  5
48F
330
1F
100
AcDbEntity
  8
0
  6
Continuous
 62
     7
100
AcDbCircle
 10
-213.8874719199701
 20
4.53923218159311
 30
0.0
 40
1.268465179725812
100
AcDbArc
 50
233.3973181921147
 51
244.3967205809898
  0
ARC
  5
490
330
1F
100
AcDbEntity
  8
0
  6
Continuous
 62
     7
100
AcDbCircle
 10
-213.9702825214053
 20
4.4293022007139
 30
0.0
 40
1.130838070115217
100
AcDbArc
 50
223.9329297908218
 51
233.444558113011
  0
ARC
  5
491
330
1F
100
AcDbEntity
  8
0
  6
Continuous
 62
     7
100
AcDbCircle
 10
-214.0510188888841
 20
4.3534232150947
 30
0.0
 40
1.020050455832055
100
AcDbArc
 50
213.8450789783101
 51
224.0099793587345
  0
ARC
  5
492
330
1F
100
AcDbEntity
  8
0
  6
Continuous
 62
     7
100
AcDbCircle
 10
-214.1292389195111
 20
4.30209229708502
 30
0.0
 40
0.9264968334229318
100
AcDbArc
 50
203.035072461245
 51
213.9027071051645
  0
ARC
  5
493
330
1F
100
AcDbEntity
  8
0
  6
Continuous
 62
     7
100
AcDbCircle
 10
-214.1897696213103
 20
4.27686681472625
 30
0.0
 40
0.8609220525332825
100
AcDbArc
 50
191.6949289329895
 51
203.0664309947456
  0
ARC
  5
494
330
1F
100
AcDbEntity
  8
0
  6
Continuous
 62
     7
100
AcDbCircle
 10
-214.2199367076595
 20
4.27036521858172
 30
0.0
 40
0.8300633726862304
100
AcDbArc
 50
180.0252095017036
 51
191.6775523385099
  0
ARC
  5
495
330
1F
100
AcDbEntity
  8
0
  6
Continuous
 62
     7
100
AcDbCircle
 10
-211.8809149729845
 20
4.27045250085604
 30
0.0
 40
0.8309150961965915
100
AcDbArc
 50
348.3284403736791
 51
359.9687977861062
  0
ARC
  5
496
330
1F
100
AcDbEntity
  8
0
  6
Continuous
 62
     7
100
AcDbCircle
 10
-211.919211197246
 20
4.27967790729403
 30
0.0
 40
0.8702867456876803
100
AcDbArc
 50
336.9949487128473
 51
348.2436913594197
  0
ARC
  5
497
330
1F
100
AcDbEntity
  8
0
  6
Continuous
 62
     7
100
AcDbCircle
 10
-211.9829027995915
 20
4.3086761790103
 30
0.0
 40
0.9402475853002118
100
AcDbArc
 50
326.1769942031681
 51
336.8852262304211
  0
ARC
  5
498
330
1F
100
AcDbEntity
  8
0
  6
Continuous
 62
     7
100
AcDbCircle
 10
-212.0620861601943
 20
4.36400805697631
 30
0.0
 40
1.036831102567547
100
AcDbArc
 50
316.0724890024136
 51
326.0724526605355
  0
ARC
  5
499
330
1F
100
AcDbEntity
  8
0
  6
Continuous
 62
     7
100
AcDbCircle
 10
-212.144838034996
 20
4.44650675109432
 30
0.0
 40
1.15366552868933
100
AcDbArc
 50
306.6497549793435
 51
315.9727571168203
  0
ARC
  5
49A
330
1F
100
AcDbEntity
  8
0
  6
Continuous
 62
     7
100
AcDbCircle
 10
-212.2236627029983
 20
4.55768808620323
 30
0.0
 40
1.289922199173602
100
AcDbArc
 50
295.6950383545158
 51
306.5109228723701
  0
ARC
  5
49B
330
1F
100
AcDbEntity
  8
0
  6
Continuous
 62
     7
100
AcDbCircle
 10
-212.282391414636
 20
4.68455198416763
 30
0.0
 40
1.429706282397029
100
AcDbArc
 50
285.5132681394775
 51
295.6115021684241
  0
ARC
  5
49C
330
1F
100
AcDbEntity
  8
0
  6
Continuous
 62
     7
100
AcDbCircle
 10
-212.2738522111605
 20
-6.28178843671556
 30
0.0
 40
1.405489764606014
100
AcDbArc
 50
64.3012700004318
 51
74.573959691668
  0
ARC
  5
49D
330
1F
100
AcDbEntity
  8
0
  6
Continuous
 62
     7
100
AcDbCircle
 10
-212.2125280800292
 20
-6.15923218159301
 30
0.0
 40
1.268465179725641
100
AcDbArc
 50
53.39731819211539
 51
64.39672058099332
  0
ARC
  5
49E
330
1F
100
AcDbEntity
  8
0
  6
Continuous
 62
     7
100
AcDbCircle
 10
-212.1297174785939
 20
-6.04930220071368
 30
0.0
 40
1.130838070114906
100
AcDbArc
 50
43.93292979081997
 51
53.44455811301179
  0
ARC
  5
49F
330
1F
100
AcDbEntity
  8
0
  6
Continuous
 62
     7
100
AcDbCircle
 10
-212.048981111115
 20
-5.97342321509461
 30
0.0
 40
1.020050455831784
100
AcDbArc
 50
33.84507897831607
 51
44.00997935874095
  0
ARC
  5
4A0
330
1F
100
AcDbEntity
  8
0
  6
Continuous
 62
     7
100
AcDbCircle
 10
-211.9707610804889
 20
-5.9220922970854
 30
0.0
 40
0.9264968334236985
100
AcDbArc
 50
23.03507246124873
 51
33.90270710516472
  0
ARC
  5
4A1
330
1F
100
AcDbEntity
  8
0
  6
Continuous
 62
     7
100
AcDbCircle
 10
-211.9102303786888
 20
-5.89686681472617
 30
0.0
 40
0.8609220525330396
100
AcDbArc
 50
11.6949289329861
 51
23.06643099474454
  0
ARC
  5
4A2
330
1F
100
AcDbEntity
  8
0
  6
Continuous
 62
     7
100
AcDbCircle
 10
-211.8800632923385
 20
-5.89036521858161
 30
0.0
 40
0.8300633726848377
100
AcDbArc
 50
0.0252095016944
 51
11.67755233851955
  0
ARC
  5
4A3
330
1F
100
AcDbEntity
  8
0
  6
Continuous
 62
     7
100
AcDbCircle
 10
-211.8809149729845
 20
-5.88954749914396
 30
0.0
 40
0.8309150961965913
100
AcDbArc
 50
348.3284403736792
 51
359.9687977861057
  0
ARC
  5
4A4
330
1F
100
AcDbEntity
  8
0
  6
Continuous
 62
     7
100
AcDbCircle
 10
-211.919211197246
 20
-5.88032209270597
 30
0.0
 40
0.8702867456876804
100
AcDbArc
 50
336.9949487128472
 51
348.2436913594197
  0
ARC
  5
4A5
330
1F
100
AcDbEntity
  8
0
  6
Continuous
 62
     7
100
AcDbCircle
 10
-211.9829027995915
 20
-5.85132382098971
 30
0.0
 40
0.9402475853002116
100
AcDbArc
 50
326.1769942031681
 51
336.8852262304211
  0
ARC
  5
4A6
330
1F
100
AcDbEntity
  8
0
  6
Continuous
 62
     7
100
AcDbCircle
 10
-212.0620861601943
 20
-5.79599194302369
 30
0.0
 40
1.036831102567547
100
AcDbArc
 50
316.0724890024136
 51
326.0724526605355
  0
ARC
  5
4A7
330
1F
100
AcDbEntity
  8
0
  6
Continuous
 62
     7
100
AcDbCircle
 10
-212.144838034996
 20
-5.71349324890568
 30
0.0
 40
1.15366552868933
100
AcDbArc
 50
306.6497549793435
 51
315.9727571168203
  0
ARC
  5
4A8
330
1F
100
AcDbEntity
  8
0
  6
Continuous
 62
     7
100
AcDbCircle
 10
-212.2236627029983
 20
-5.60231191379677
 30
0.0
 40
1.289922199173603
100
AcDbArc
 50
295.6950383545158
 51
306.5109228723701
  0
ARC
  5
4A9
330
1F
100
AcDbEntity
  8
0
  6
Continuous
 62
     7
100
AcDbCircle
 10
-212.282391414636
 20
-5.47544801583237
 30
0.0
 40
1.429706282397051
100
AcDbArc
 50
285.5132681394772
 51
295.611502168424
  0
ARC
  5
4AA
330
1F
100
AcDbEntity
  8
0
  6
Continuous
 62
     7
100
AcDbCircle
 10
-214.2190850270145
 20
-5.89045250085613
 30
0.0
 40
0.8309150961969121
100
AcDbArc
 50
168.3284403736787
 51
179.9687977861027
  0
ARC
  5
4AB
330
1F
100
AcDbEntity
  8
0
  6
Continuous
 62
     7
100
AcDbCircle
 10
-214.1807888027537
 20
-5.89967790729388
 30
0.0
 40
0.8702867456872475
100
AcDbArc
 50
156.9949487128473
 51
168.2436913594254
  0
ARC
  5
4AC
330
1F
100
AcDbEntity
  8
0
  6
Continuous
 62
     7
100
AcDbCircle
 10
-214.1170972004082
 20
-5.92867617901014
 30
0.0
 40
0.9402475852998564
100
AcDbArc
 50
146.1769942031662
 51
156.8852262304212
  0
ARC
  5
4AD
330
1F
100
AcDbEntity
  8
0
  6
Continuous
 62
     7
100
AcDbCircle
 10
-214.0379138398047
 20
-5.98400805697655
 30
0.0
 40
1.036831102567982
100
AcDbArc
 50
136.0724890024204
 51
146.0724526605374
  0
ARC
  5
4AE
330
1F
100
AcDbEntity
  8
0
  6
Continuous
 62
     7
100
AcDbCircle
 10
-213.9551619650032
 20
-6.06650675109451
 30
0.0
 40
1.153665528689557
100
AcDbArc
 50
126.6497549793457
 51
135.9727571168206
  0
ARC
  5
4AF
330
1F
100
AcDbEntity
  8
0
  6
Continuous
 62
     7
100
AcDbCircle
 10
-213.8763372970007
 20
-6.17768808620379
 30
0.0
 40
1.289922199174274
100
AcDbArc
 50
115.6950383545225
 51
126.5109228723704
  0
ARC
  5
4B0
330
1F
100
AcDbEntity
  8
0
  6
Continuous
 62
     7
100
AcDbCircle
 10
-213.8176085853631
 20
-6.30455198416819
 30
0.0
 40
1.429706282397634
100
AcDbArc
 50
105.5132681394826
 51
115.6115021684259
  0
ARC
  5
4B1
330
1F
100
AcDbEntity
  8
0
  6
Continuous
 62
     7
100
AcDbCircle
 10
-213.8261477888387
 20
-5.49821156328416
 30
0.0
 40
1.40548976460638
100
AcDbArc
 50
244.3012700004287
 51
254.5739596916636
  0
ARC
  5
4B2
330
1F
100
AcDbEntity
  8
0
  6
Continuous
 62
     7
100
AcDbCircle
 10
-213.8874719199701
 20
-5.62076781840689
 30
0.0
 40
1.268465179725812
100
AcDbArc
 50
233.3973181921147
 51
244.3967205809898
  0
ARC
  5
4B3
330
1F
100
AcDbEntity
  8
0
  6
Continuous
 62
     7
100
AcDbCircle
 10
-213.9702825214053
 20
-5.73069779928611
 30
0.0
 40
1.130838070115217
100
AcDbArc
 50
223.9329297908218
 51
233.444558113011
  0
ARC
  5
4B4
330
1F
100
AcDbEntity
  8
0
  6
Continuous
 62
     7
100
AcDbCircle
 10
-214.0510188888841
 20
-5.8065767849053
 30
0.0
 40
1.020050455832055
100
AcDbArc
 50
213.8450789783101
 51
224.0099793587345
  0
ARC
  5
4B5
330
1F
100
AcDbEntity
  8
0
  6
Continuous
 62
     7
100
AcDbCircle
 10
-214.1292389195111
 20
-5.85790770291499
 30
0.0
 40
0.9264968334229317
100
AcDbArc
 50
203.035072461245
 51
213.9027071051645
  0
ARC
  5
4B6
330
1F
100
AcDbEntity
  8
0
  6
Continuous
 62
     7
100
AcDbCircle
 10
-214.1897696213103
 20
-5.88313318527375
 30
0.0
 40
0.8609220525332825
100
AcDbArc
 50
191.6949289329895
 51
203.0664309947456
  0
ARC
  5
4B7
330
1F
100
AcDbEntity
  8
0
  6
Continuous
 62
     7
100
AcDbCircle
 10
-214.2199367076595
 20
-5.88963478141828
 30
0.0
 40
0.8300633726862304
100
AcDbArc
 50
180.0252095017051
 51
191.6775523385099
  0
ARC
  5
4B8
330
1F
100
AcDbEntity
  8
0
  6
Continuous
 62
     7
100
AcDbCircle
 10
-213.0499999999997
 20
-26.21000000000002
 30
0.0
 40
1.499999999999998
100
AcDbArc
 50
219.9445051898144
 51
320.0554948101856
  0
ARC
  5
4B9
330
1F
100
AcDbEntity
  8
0
  6
Continuous
 62
     7
100
AcDbCircle
 10
-213.0499999999997
 20
-26.21000000000002
 30
0.0
 40
1.500000000000002
100
AcDbArc
 50
39.94450518981466
 51
140.0554948101853
  0
ARC
  5
4BA
330
1F
100
AcDbEntity
  8
0
  6
Continuous
 62
     7
100
AcDbCircle
 10
-213.0499999999997
 20
-26.21000000000002
 30
0.0
 40
2.0
100
AcDbArc
 50
180.0000000000003
 51
354.2608295227367
  0
ARC
  5
4BB
330
1F
100
AcDbEntity
  8
0
  6
Continuous
 62
     7
100
AcDbCircle
 10
-213.0499999999997
 20
-26.21000000000002
 30
0.0
 40
2.000000000000036
100
AcDbArc
 50
354.2608295227367
 51
0.0
  0
ARC
  5
4BC
330
1F
100
AcDbEntity
  8
0
  6
Continuous
 62
     7
100
AcDbCircle
 10
-213.0499999999997
 20
-26.21000000000002
 30
0.0
 40
2.0
100
AcDbArc
 50
0.0
 51
180.0000000000003
  0
ARC
  5
4BD
330
1F
100
AcDbEntity
  8
0
  6
Continuous
 62
     7
100
AcDbCircle
 10
-213.0499999999997
 20
-21.13000000000002
 30
0.0
 40
1.500000000000005
100
AcDbArc
 50
39.94450518981476
 51
140.0554948101853
  0
ARC
  5
4BE
330
1F
100
AcDbEntity
  8
0
  6
Continuous
 62
     7
100
AcDbCircle
 10
-213.0499999999997
 20
-21.13000000000002
 30
0.0
 40
2.0
100
AcDbArc
 50
0.0
 51
180.0000000000003
  0
ARC
  5
4BF
330
1F
100
AcDbEntity
  8
0
  6
Continuous
 62
     7
100
AcDbCircle
 10
-213.0499999999997
 20
-21.13000000000002
 30
0.0
 40
1.500000000000002
100
AcDbArc
 50
219.9445051898146
 51
320.0554948101853
  0
ARC
  5
4C0
330
1F
100
AcDbEntity
  8
0
  6
Continuous
 62
     7
100
AcDbCircle
 10
-213.0499999999997
 20
-21.13000000000002
 30
0.0
 40
2.0
100
AcDbArc
 50
180.0000000000003
 51
354.260829522734
  0
ARC
  5
4C1
330
1F
100
AcDbEntity
  8
0
  6
Continuous
 62
     7
100
AcDbCircle
 10
-213.0499999999997
 20
-21.13000000000002
 30
0.0
 40
2.000000000000046
100
AcDbArc
 50
354.260829522734
 51
0.0
  0
ARC
  5
4C2
330
1F
100
AcDbEntity
  8
0
  6
Continuous
 62
     7
100
AcDbCircle
 10
-213.0499999999997
 20
-16.05000000000001
 30
0.0
 40
1.500000000000002
100
AcDbArc
 50
219.9445051898146
 51
320.0554948101853
  0
ARC
  5
4C3
330
1F
100
AcDbEntity
  8
0
  6
Continuous
 62
     7
100
AcDbCircle
 10
-213.0499999999997
 20
-16.05000000000001
 30
0.0
 40
1.500000000000005
100
AcDbArc
 50
39.94450518981476
 51
140.0554948101853
  0
ARC
  5
4C4
330
1F
100
AcDbEntity
  8
0
  6
Continuous
 62
     7
100
AcDbCircle
 10
-213.0499999999997
 20
-16.05000000000001
 30
0.0
 40
2.0
100
AcDbArc
 50
180.0000000000005
 51
185.7391704773985
  0
ARC
  5
4C5
330
1F
100
AcDbEntity
  8
0
  6
Continuous
 62
     7
100
AcDbCircle
 10
-213.0499999999997
 20
-10.97000000000001
 30
0.0
 40
2.0
100
AcDbArc
 50
180.0000000000006
 51
185.7391704773986
  0
ARC
  5
4C6
330
1F
100
AcDbEntity
  8
0
  6
Continuous
 62
     7
100
AcDbCircle
 10
-213.0499999999997
 20
-10.97000000000001
 30
0.0
 40
1.500000000000004
100
AcDbArc
 50
219.9445051898147
 51
320.0554948101853
  0
ARC
  5
4C7
330
1F
100
AcDbEntity
  8
0
  6
Continuous
 62
     7
100
AcDbCircle
 10
-213.0499999999997
 20
-16.05000000000001
 30
0.0
 40
1.999999999999911
100
AcDbArc
 50
185.7391704773985
 51
0.0
  0
ARC
  5
4C8
330
1F
100
AcDbEntity
  8
0
  6
Continuous
 62
     7
100
AcDbCircle
 10
-213.0499999999997
 20
-10.97000000000001
 30
0.0
 40
1.999999999999911
100
AcDbArc
 50
185.7391704773986
 51
0.0
  0
ARC
  5
4C9
330
1F
100
AcDbEntity
  8
0
  6
Continuous
 62
     7
100
AcDbCircle
 10
-213.0499999999997
 20
-10.97000000000001
 30
0.0
 40
2.0
100
AcDbArc
 50
0.0
 51
180.0000000000006
  0
ARC
  5
4CA
330
1F
100
AcDbEntity
  8
0
  6
Continuous
 62
     7
100
AcDbCircle
 10
-213.0499999999997
 20
-16.05000000000001
 30
0.0
 40
2.0
100
AcDbArc
 50
0.0
 51
180.0000000000005
  0
ARC
  5
4CB
330
1F
100
AcDbEntity
  8
0
  6
Continuous
 62
     7
100
AcDbCircle
 10
-213.0499999999997
 20
4.27
 30
0.0
 40
1.499999999999993
100
AcDbArc
 50
39.94450518981424
 51
140.0554948101858
  0
ARC
  5
4CC
330
1F
100
AcDbEntity
  8
0
  6
Continuous
 62
     7
100
AcDbCircle
 10
-213.0499999999997
 20
4.27
 30
0.0
 40
2.0
100
AcDbArc
 50
0.0
 51
180.0
  0
ARC
  5
4CD
330
1F
100
AcDbEntity
  8
0
  6
Continuous
 62
     7
100
AcDbCircle
 10
-202.6249999999996
 20
4.06999999999998
 30
0.0
 40
1.174999999999988
100
AcDbArc
 50
270.0
 51
90.0
  0
ARC
  5
4CE
330
1F
100
AcDbEntity
  8
0
  6
Continuous
 62
     7
100
AcDbCircle
 10
-201.2250000000009
 20
4.06999999999999
 30
0.0
 40
1.174999999999999
100
AcDbArc
 50
126.5657369321465
 51
180.0
  0
ARC
  5
4CF
330
1F
100
AcDbEntity
  8
0
  6
Continuous
 62
     7
100
AcDbCircle
 10
-213.0499999999997
 20
-0.81
 30
0.0
 40
1.500000000000012
100
AcDbArc
 50
219.9445051898151
 51
320.0554948101849
  0
ARC
  5
4D0
330
1F
100
AcDbEntity
  8
0
  6
Continuous
 62
     7
100
AcDbCircle
 10
-213.0499999999997
 20
-0.81
 30
0.0
 40
2.0
100
AcDbArc
 50
180.0
 51
354.2608295227333
  0
ARC
  5
4D1
330
1F
100
AcDbEntity
  8
0
  6
Continuous
 62
     7
100
AcDbCircle
 10
-213.0499999999997
 20
-0.81
 30
0.0
 40
2.000000000000048
100
AcDbArc
 50
354.2608295227333
 51
0.0
  0
ARC
  5
4D2
330
1F
100
AcDbEntity
  8
0
  6
Continuous
 62
     7
100
AcDbCircle
 10
-213.0499999999997
 20
-0.81
 30
0.0
 40
1.500000000000002
100
AcDbArc
 50
39.94450518981466
 51
140.0554948101853
  0
ARC
  5
4D3
330
1F
100
AcDbEntity
  8
0
  6
Continuous
 62
     7
100
AcDbCircle
 10
-213.0499999999997
 20
-0.81
 30
0.0
 40
2.0
100
AcDbArc
 50
0.0
 51
180.0
  0
ARC
  5
4D4
330
1F
100
AcDbEntity
  8
0
  6
Continuous
 62
     7
100
AcDbCircle
 10
-213.0499999999997
 20
4.27
 30
0.0
 40
1.499999999999994
100
AcDbArc
 50
219.9445051898142
 51
320.0554948101857
  0
ARC
  5
4D5
330
1F
100
AcDbEntity
  8
0
  6
Continuous
 62
     7
100
AcDbCircle
 10
-213.0499999999997
 20
4.27
 30
0.0
 40
2.0
100
AcDbArc
 50
180.0
 51
185.7391704773993
  0
ARC
  5
4D6
330
1F
100
AcDbEntity
  8
0
  6
Continuous
 62
     7
100
AcDbCircle
 10
-213.0499999999997
 20
4.27
 30
0.0
 40
1.999999999999914
100
AcDbArc
 50
185.7391704773993
 51
0.0
  0
ARC
  5
4D7
330
1F
100
AcDbEntity
  8
0
  6
Continuous
 62
     7
100
AcDbCircle
 10
-202.6249999999996
 20
4.06999999999998
 30
0.0
 40
1.374999999999991
100
AcDbArc
 50
270.0
 51
90.0
  0
ARC
  5
4D8
330
1F
100
AcDbEntity
  8
0
  6
Continuous
 62
     7
100
AcDbCircle
 10
-213.0499999999997
 20
-5.89000000000001
 30
0.0
 40
1.499999999999997
100
AcDbArc
 50
39.9445051898144
 51
140.0554948101856
  0
ARC
  5
4D9
330
1F
100
AcDbEntity
  8
0
  6
Continuous
 62
     7
100
AcDbCircle
 10
-213.0499999999997
 20
-5.89000000000001
 30
0.0
 40
2.0
100
AcDbArc
 50
359.9999999999998
 51
180.0000000000007
  0
ARC
  5
4DA
330
1F
100
AcDbEntity
  8
0
  6
Continuous
 62
     7
100
AcDbCircle
 10
-213.0499999999997
 20
-5.89000000000001
 30
0.0
 40
1.500000000000008
100
AcDbArc
 50
219.9445051898149
 51
320.0554948101851
  0
ARC
  5
4DB
330
1F
100
AcDbEntity
  8
0
  6
Continuous
 62
     7
100
AcDbCircle
 10
-213.0499999999997
 20
-5.89000000000001
 30
0.0
 40
2.0
100
AcDbArc
 50
180.0000000000007
 51
185.7391704773987
  0
ARC
  5
4DC
330
1F
100
AcDbEntity
  8
0
  6
Continuous
 62
     7
100
AcDbCircle
 10
-213.0499999999997
 20
-5.89000000000001
 30
0.0
 40
1.999999999999912
100
AcDbArc
 50
185.7391704773987
 51
359.9999999999998
  0
ARC
  5
4DD
330
1F
100
AcDbEntity
  8
0
  6
Continuous
 62
     7
100
AcDbCircle
 10
-213.0499999999997
 20
-10.97000000000001
 30
0.0
 40
1.499999999999997
100
AcDbArc
 50
39.9445051898144
 51
140.0554948101856
  0
ARC
  5
4DE
330
1F
100
AcDbEntity
  8
0
  6
Continuous
 62
     7
100
AcDbCircle
 10
-202.5999999999996
 20
4.06999999999998
 30
0.0
 40
0.4999999999999578
100
AcDbArc
 50
303.5543172093115
 51
56.44568279068947
  0
ARC
  5
4DF
330
1F
100
AcDbEntity
  8
0
  6
Continuous
 62
     7
100
AcDbCircle
 10
-202.6249999999996
 20
-16.25
 30
0.0
 40
1.375000000000011
100
AcDbArc
 50
270.0
 51
90.0
  0
ARC
  5
4E0
330
1F
100
AcDbEntity
  8
0
  6
Continuous
 62
     7
100
AcDbCircle
 10
-202.5999999999996
 20
-16.25000000000001
 30
0.0
 40
0.4999999999999608
100
AcDbArc
 50
303.5543172093112
 51
56.44568279068891
  0
ARC
  5
4E1
330
1F
100
AcDbEntity
  8
0
  6
Continuous
 62
     7
100
AcDbCircle
 10
-201.2250000000009
 20
-16.25000000000001
 30
0.0
 40
1.174999999999983
100
AcDbArc
 50
179.9999999999995
 51
233.4342630678566
  0
ARC
  5
4E2
330
1F
100
AcDbEntity
  8
0
  6
Continuous
 62
     7
100
AcDbCircle
 10
-202.6249999999996
 20
-16.25
 30
0.0
 40
1.175000000000011
100
AcDbArc
 50
270.0
 51
90.0
  0
ARC
  5
4E3
330
1F
100
AcDbEntity
  8
0
  6
Continuous
 62
     7
100
AcDbCircle
 10
-202.5999999999996
 20
-21.33000000000001
 30
0.0
 40
0.4999999999999696
100
AcDbArc
 50
303.5543172093105
 51
56.44568279068879
  0
ARC
  5
4E4
330
1F
100
AcDbEntity
  8
0
  6
Continuous
 62
     7
100
AcDbCircle
 10
-201.2250000000009
 20
-21.33000000000001
 30
0.0
 40
1.174999999999995
100
AcDbArc
 50
126.5657369321467
 51
180.0000000000005
  0
ARC
  5
4E5
330
1F
100
AcDbEntity
  8
0
  6
Continuous
 62
     7
100
AcDbCircle
 10
-201.2250000000009
 20
-21.33000000000001
 30
0.0
 40
1.174999999999983
100
AcDbArc
 50
180.0000000000005
 51
233.4342630678573
  0
ARC
  5
4E6
330
1F
100
AcDbEntity
  8
0
  6
Continuous
 62
     7
100
AcDbCircle
 10
-202.6249999999996
 20
-21.33000000000001
 30
0.0
 40
1.175000000000011
100
AcDbArc
 50
270.0
 51
90.0
  0
ARC
  5
4E7
330
1F
100
AcDbEntity
  8
0
  6
Continuous
 62
     7
100
AcDbCircle
 10
-202.6249999999996
 20
-21.33000000000001
 30
0.0
 40
1.375000000000011
100
AcDbArc
 50
270.0
 51
90.0
  0
ARC
  5
4E8
330
1F
100
AcDbEntity
  8
0
  6
Continuous
 62
     7
100
AcDbCircle
 10
-201.2250000000009
 20
-16.25000000000001
 30
0.0
 40
1.175000000000005
100
AcDbArc
 50
126.5657369321463
 51
179.9999999999995
  0
ARC
  5
4E9
330
1F
100
AcDbEntity
  8
0
  6
Continuous
 62
     7
100
AcDbCircle
 10
-201.2250000000009
 20
-26.41000000000002
 30
0.0
 40
1.174999999999983
100
AcDbArc
 50
179.9999999999989
 51
233.4342630678563
  0
ARC
  5
4EA
330
1F
100
AcDbEntity
  8
0
  6
Continuous
 62
     7
100
AcDbCircle
 10
-202.5999999999996
 20
-26.41000000000002
 30
0.0
 40
0.4999999999999519
100
AcDbArc
 50
303.5543172093119
 51
56.44568279068969
  0
ARC
  5
4EB
330
1F
100
AcDbEntity
  8
0
  6
Continuous
 62
     7
100
AcDbCircle
 10
-202.6249999999996
 20
-26.41
 30
0.0
 40
1.175000000000018
100
AcDbArc
 50
270.0
 51
90.0
  0
ARC
  5
4EC
330
1F
100
AcDbEntity
  8
0
  6
Continuous
 62
     7
100
AcDbCircle
 10
-202.6249999999996
 20
-26.41
 30
0.0
 40
1.375000000000021
100
AcDbArc
 50
270.0
 51
90.0
  0
ARC
  5
4ED
330
1F
100
AcDbEntity
  8
0
  6
Continuous
 62
     7
100
AcDbCircle
 10
-201.2250000000009
 20
-26.41000000000002
 30
0.0
 40
1.175000000000006
100
AcDbArc
 50
126.5657369321463
 51
179.9999999999989
  0
ARC
  5
4EE
330
1F
100
AcDbEntity
  8
0
  6
Continuous
 62
     7
100
AcDbCircle
 10
-202.5999999999996
 20
-6.09000000000002
 30
0.0
 40
0.4999999999999578
100
AcDbArc
 50
303.5543172093115
 51
56.44568279068947
  0
ARC
  5
4EF
330
1F
100
AcDbEntity
  8
0
  6
Continuous
 62
     7
100
AcDbCircle
 10
-202.6249999999996
 20
-6.09000000000002
 30
0.0
 40
1.174999999999997
100
AcDbArc
 50
270.0
 51
90.0
  0
ARC
  5
4F0
330
1F
100
AcDbEntity
  8
0
  6
Continuous
 62
     7
100
AcDbCircle
 10
-201.2250000000009
 20
-6.09000000000001
 30
0.0
 40
1.174999999999983
100
AcDbArc
 50
180.0
 51
233.434263067857
  0
ARC
  5
4F1
330
1F
100
AcDbEntity
  8
0
  6
Continuous
 62
     7
100
AcDbCircle
 10
-201.2250000000009
 20
-6.09000000000001
 30
0.0
 40
1.174999999999999
100
AcDbArc
 50
126.5657369321465
 51
180.0
  0
ARC
  5
4F2
330
1F
100
AcDbEntity
  8
0
  6
Continuous
 62
     7
100
AcDbCircle
 10
-201.2250000000009
 20
-11.17000000000001
 30
0.0
 40
1.174999999999983
100
AcDbArc
 50
180.0
 51
233.4342630678573
  0
ARC
  5
4F3
330
1F
100
AcDbEntity
  8
0
  6
Continuous
 62
     7
100
AcDbCircle
 10
-202.6249999999996
 20
-11.17000000000001
 30
0.0
 40
1.174999999999999
100
AcDbArc
 50
270.0
 51
90.0
  0
ARC
  5
4F4
330
1F
100
AcDbEntity
  8
0
  6
Continuous
 62
     7
100
AcDbCircle
 10
-201.2250000000009
 20
-11.17000000000001
 30
0.0
 40
1.175000000000005
100
AcDbArc
 50
126.5657369321463
 51
180.0
  0
ARC
  5
4F5
330
1F
100
AcDbEntity
  8
0
  6
Continuous
 62
     7
100
AcDbCircle
 10
-202.5999999999996
 20
-11.17000000000001
 30
0.0
 40
0.4999999999999696
100
AcDbArc
 50
303.5543172093105
 51
56.44568279069082
  0
ARC
  5
4F6
330
1F
100
AcDbEntity
  8
0
  6
Continuous
 62
     7
100
AcDbCircle
 10
-202.6249999999996
 20
-11.17000000000001
 30
0.0
 40
1.375000000000009
100
AcDbArc
 50
270.0
 51
90.0
  0
ARC
  5
4F7
330
1F
100
AcDbEntity
  8
0
  6
Continuous
 62
     7
100
AcDbCircle
 10
-202.6249999999996
 20
-6.09000000000002
 30
0.0
 40
1.375
100
AcDbArc
 50
270.0
 51
90.0
  0
ARC
  5
4F8
330
1F
100
AcDbEntity
  8
0
  6
Continuous
 62
     7
100
AcDbCircle
 10
-202.5999999999996
 20
-1.01
 30
0.0
 40
0.4999999999999695
100
AcDbArc
 50
303.5543172093106
 51
56.44568279069035
  0
ARC
  5
4F9
330
1F
100
AcDbEntity
  8
0
  6
Continuous
 62
     7
100
AcDbCircle
 10
-201.2250000000009
 20
-1.01
 30
0.0
 40
1.174999999999983
100
AcDbArc
 50
180.0
 51
233.4342630678575
  0
ARC
  5
4FA
330
1F
100
AcDbEntity
  8
0
  6
Continuous
 62
     7
100
AcDbCircle
 10
-202.6249999999996
 20
-1.01
 30
0.0
 40
1.175000000000012
100
AcDbArc
 50
270.0
 51
90.0
  0
ARC
  5
4FB
330
1F
100
AcDbEntity
  8
0
  6
Continuous
 62
     7
100
AcDbCircle
 10
-201.2250000000009
 20
-1.01
 30
0.0
 40
1.175000000000006
100
AcDbArc
 50
126.5657369321463
 51
180.0
  0
ARC
  5
4FC
330
1F
100
AcDbEntity
  8
0
  6
Continuous
 62
     7
100
AcDbCircle
 10
-202.6249999999996
 20
-1.01
 30
0.0
 40
1.375
100
AcDbArc
 50
270.0
 51
90.0
  0
ARC
  5
4FD
330
1F
100
AcDbEntity
  8
0
  6
Continuous
 62
     7
100
AcDbCircle
 10
-201.2250000000009
 20
4.06999999999999
 30
0.0
 40
1.174999999999983
100
AcDbArc
 50
180.0
 51
233.434263067857
  0
ARC
  5
4FE
330
1F
100
AcDbEntity
  8
1
  6
Continuous
 62
     7
100
AcDbCircle
 10
-62.04999999999968
 20
14.5
 30
0.0
 40
1.499999999999996
100
AcDbArc
 50
302.2309526355021
 51
57.7690473644977
  0
CIRCLE
  5
4FF
330
1F
100
AcDbEntity
  8
0
  6
Continuous
 62
     7
100
AcDbCircle
 10
-146.9099999999999
 20
-1.06000000000001
 30
0.0
 40
0.4582575694961974
  0
CIRCLE
  5
500
330
1F
100
AcDbEntity
  8
0
  6
Continuous
 62
     7
100
AcDbCircle
 10
-146.9099999999999
 20
-6.14000000000001
 30
0.0
 40
0.4582575694961974
  0
CIRCLE
  5
501
330
1F
100
AcDbEntity
  8
0
  6
Continuous
 62
     7
100
AcDbCircle
 10
-146.9099999999999
 20
-26.46000000000001
 30
0.0
 40
0.4582575694961974
  0
CIRCLE
  5
502
330
1F
100
AcDbEntity
  8
0
  6
Continuous
 62
     7
100
AcDbCircle
 10
-146.9099999999999
 20
-16.3
 30
0.0
 40
0.4582575694961974
  0
CIRCLE
  5
503
330
1F
100
AcDbEntity
  8
0
  6
Continuous
 62
     7
100
AcDbCircle
 10
-146.9099999999999
 20
-11.22
 30
0.0
 40
0.4582575694961974
  0
CIRCLE
  5
504
330
1F
100
AcDbEntity
  8
0
  6
Continuous
 62
     7
100
AcDbCircle
 10
-146.9099999999999
 20
4.02000000000004
 30
0.0
 40
0.4582575694961974
  0
CIRCLE
  5
505
330
1F
100
AcDbEntity
  8
0
  6
Continuous
 62
     7
100
AcDbCircle
 10
-146.9099999999999
 20
-21.38000000000001
 30
0.0
 40
0.4582575694961974
  0
CIRCLE
  5
506
330
1F
100
AcDbEntity
  8
1
  6
Continuous
 62
     7
100
AcDbCircle
 10
-206.1999999999997
 20
21.50000000000001
 30
0.0
 40
2.0
  0
CIRCLE
  5
507
330
1F
100
AcDbEntity
  8
1
  6
Continuous
 62
     7
100
AcDbCircle
 10
-206.1999999999997
 20
13.00000000000001
 30
0.0
 40
2.0
  0
CIRCLE
  5
508
330
1F
100
AcDbEntity
  8
1
  6
Continuous
 62
     7
100
AcDbCircle
 10
-206.1999999999997
 20
21.50000000000001
 30
0.0
 40
3.200000000000017
  0
CIRCLE
  5
509
330
1F
100
AcDbEntity
  8
1
  6
Continuous
 62
     7
100
AcDbCircle
 10
-206.1999999999997
 20
13.00000000000001
 30
0.0
 40
3.200000000000017
  0
ARC
  5
50A
330
1F
100
AcDbEntity
  8
1
  6
DOTTED
 62
     7
100
AcDbCircle
 10
-58.7500000000008
 20
14.5
 30
0.0
 40
2.0
100
AcDbArc
 50
180.0
 51
270.0
  0
ARC
  5
50B
330
1F
100
AcDbEntity
  8
1
  6
DOTTED
 62
     7
100
AcDbCircle
 10
-58.7500000000008
 20
-14.50000000000001
 30
0.0
 40
2.0
100
AcDbArc
 50
90.0
 51
180.0
  0
ARC
  5
50C
330
1F
100
AcDbEntity
  8
1
  6
DOTTED
 62
     7
100
AcDbCircle
 10
-54.2500000000008
 20
13.0
 30
0.0
 40
1.0
100
AcDbArc
 50
0.0
 51
90.0
  0
ARC
  5
50D
330
1F
100
AcDbEntity
  8
1
  6
DOTTED
 62
     7
100
AcDbCircle
 10
-54.2500000000008
 20
-13.00000000000001
 30
0.0
 40
1.0
100
AcDbArc
 50
270.0
 51
0.0
  0
ARC
  5
50E
330
1F
100
AcDbEntity
  8
1
  6
Continuous
 62
     7
100
AcDbCircle
 10
-58.56922359359568
 20
16.6999999999998
 30
0.0
 40
1.000000000000003
100
AcDbArc
 50
194.0362434679564
 51
270.0
  0
ARC
  5
50F
330
1F
100
AcDbEntity
  8
1
  6
Continuous
 62
     7
100
AcDbCircle
 10
-141.2499999999997
 20
-36.49999999999999
 30
0.0
 40
1.0
100
AcDbArc
 50
180.0
 51
270.0
  0
ARC
  5
510
330
1F
100
AcDbEntity
  8
1
  6
Continuous
 62
     7
100
AcDbCircle
 10
-199.4999999999997
 20
36.5
 30
0.0
 40
1.0
100
AcDbArc
 50
0.0
 51
90.0
  0
ARC
  5
511
330
1F
100
AcDbEntity
  8
1
  6
Continuous
 62
     7
100
AcDbCircle
 10
-214.9999999999997
 20
36.5
 30
0.0
 40
1.0
100
AcDbArc
 50
90.0
 51
180.0
  0
ARC
  5
512
330
1F
100
AcDbEntity
  8
1
  6
Continuous
 62
     7
100
AcDbCircle
 10
-214.9999999999997
 20
-36.5
 30
0.0
 40
1.0
100
AcDbArc
 50
180.0
 51
270.0
  0
ARC
  5
513
330
1F
100
AcDbEntity
  8
1
  6
Continuous
 62
     7
100
AcDbCircle
 10
-199.4999999999997
 20
-36.5
 30
0.0
 40
1.0
100
AcDbArc
 50
270.0
 51
0.0
  0
ARC
  5
514
330
1F
100
AcDbEntity
  8
1
  6
Continuous
 62
     7
100
AcDbCircle
 10
-200.4999999999997
 20
-35.5
 30
0.0
 40
0.5
100
AcDbArc
 50
270.0
 51
0.0
  0
ARC
  5
515
330
1F
100
AcDbEntity
  8
1
  6
Continuous
 62
     7
100
AcDbCircle
 10
-213.9999999999997
 20
-35.5
 30
0.0
 40
0.5
100
AcDbArc
 50
180.0
 51
270.0
  0
ARC
  5
516
330
1F
100
AcDbEntity
  8
1
  6
Continuous
 62
     7
100
AcDbCircle
 10
-141.2499999999997
 20
36.5
 30
0.0
 40
1.0
100
AcDbArc
 50
90.0
 51
180.0
  0
ARC
  5
517
330
1F
100
AcDbEntity
  8
1
  6
Continuous
 62
     7
100
AcDbCircle
 10
-60.74999999999967
 20
17.19999999999977
 30
0.0
 40
0.5
100
AcDbArc
 50
89.99999999999756
 51
180.0
  0
ARC
  5
518
330
1F
100
AcDbEntity
  8
1
  6
Continuous
 62
     7
100
AcDbCircle
 10
-60.00615528128157
 20
17.49999999999973
 30
0.0
 40
0.2000000000000076
100
AcDbArc
 50
14.0362434679561
 51
89.99999999999389
  0
ARC
  5
519
330
1F
100
AcDbEntity
  8
1
  6
Continuous
 62
     7
100
AcDbCircle
 10
-209.8999999999998
 20
29.25000000000001
 30
0.0
 40
0.5
100
AcDbArc
 50
0.0
 51
90.0
  0
ARC
  5
51A
330
1F
100
AcDbEntity
  8
1
  6
Continuous
 62
     7
100
AcDbCircle
 10
-209.8999999999998
 20
28.74200000000001
 30
0.0
 40
0.5
100
AcDbArc
 50
270.0
 51
0.0
  0
ARC
  5
51B
330
1F
100
AcDbEntity
  8
1
  6
Continuous
 62
     7
100
AcDbCircle
 10
-210.8999999999998
 20
28.74200000000001
 30
0.0
 40
0.5
100
AcDbArc
 50
180.0
 51
270.0
  0
ARC
  5
51C
330
1F
100
AcDbEntity
  8
1
  6
Continuous
 62
     7
100
AcDbCircle
 10
-210.8999999999998
 20
29.25000000000001
 30
0.0
 40
0.5
100
AcDbArc
 50
90.0
 51
180.0
  0
ARC
  5
51D
330
1F
100
AcDbEntity
  8
1
  6
Continuous
 62
     7
100
AcDbCircle
 10
-210.8999999999998
 20
32.24600000000002
 30
0.0
 40
0.4999999999999787
100
AcDbArc
 50
89.99999999998697
 51
180.0000000000024
  0
ARC
  5
51E
330
1F
100
AcDbEntity
  8
1
  6
Continuous
 62
     7
100
AcDbCircle
 10
-210.8999999999998
 20
31.74600000000002
 30
0.0
 40
0.5
100
AcDbArc
 50
180.0000000000024
 51
270.0
  0
ARC
  5
51F
330
1F
100
AcDbEntity
  8
1
  6
Continuous
 62
     7
100
AcDbCircle
 10
-209.8999999999998
 20
31.74600000000002
 30
0.0
 40
0.5
100
AcDbArc
 50
270.0
 51
359.9999999999976
  0
ARC
  5
520
330
1F
100
AcDbEntity
  8
1
  6
Continuous
 62
     7
100
AcDbCircle
 10
-209.8999999999998
 20
32.24600000000002
 30
0.0
 40
0.5000000000001137
100
AcDbArc
 50
359.9999999999976
 51
89.99999999998697
  0
ARC
  5
521
330
1F
100
AcDbEntity
  8
1
  6
Continuous
 62
     7
100
AcDbCircle
 10
-142.5499999999997
 20
22.95000000000001
 30
0.0
 40
0.3000000000000007
100
AcDbArc
 50
90.0
 51
180.0
  0
ARC
  5
522
330
1F
100
AcDbEntity
  8
1
  6
Continuous
 62
     7
100
AcDbCircle
 10
-142.5499999999997
 20
20.05000000000001
 30
0.0
 40
0.3000000000000114
100
AcDbArc
 50
180.0
 51
270.0
  0
ARC
  5
523
330
1F
100
AcDbEntity
  8
1
  6
Continuous
 62
     7
100
AcDbCircle
 10
-142.5499999999997
 20
14.45000000000001
 30
0.0
 40
0.3000000000000007
100
AcDbArc
 50
90.0
 51
180.0
  0
ARC
  5
524
330
1F
100
AcDbEntity
  8
1
  6
Continuous
 62
     7
100
AcDbCircle
 10
-142.5499999999997
 20
11.55000000000001
 30
0.0
 40
0.3000000000000114
100
AcDbArc
 50
180.0
 51
270.0
  0
ENDSEC
  0
SECTION
  2
OBJECTS
  0
DICTIONARY
  5
C
330
0
100
AcDbDictionary
281
     1
  3
ACAD_GROUP
350
D
  3
ACAD_LAYOUT
350
1A
  3
ACAD_MATERIAL
350
3B
  3
ACAD_MLEADERSTYLE
350
527
  3
ACAD_MLINESTYLE
350
17
  3
ACAD_PLOTSETTINGS
350
19
  3
ACAD_PLOTSTYLENAME
350
E
  3
ACAD_VISUALSTYLE
350
2A
  3
AcDbVariableDictionary
350
525
  0
DICTIONARY
  5
D
102
{ACAD_REACTORS
330
C
102
}
330
C
100
AcDbDictionary
281
     1
  0
DICTIONARY
  5
1A
102
{ACAD_REACTORS
330
C
102
}
330
C
100
AcDbDictionary
281
     1
  3
Layout1
350
1E
  3
Layout2
350
26
  3
Model
350
22
  0
DICTIONARY
  5
3B
102
{ACAD_REACTORS
330
C
102
}
330
C
100
AcDbDictionary
281
     1
  3
ByBlock
350
3D
  3
ByLayer
350
3C
  3
Global
350
3E
  0
DICTIONARY
  5
527
102
{ACAD_REACTORS
330
C
102
}
330
C
100
AcDbDictionary
281
     1
  0
DICTIONARY
  5
17
102
{ACAD_REACTORS
330
C
102
}
330
C
100
AcDbDictionary
281
     1
  3
Standard
350
18
  0
DICTIONARY
  5
19
102
{ACAD_REACTORS
330
C
102
}
330
C
100
AcDbDictionary
281
     1
  0
ACDBDICTIONARYWDFLT
  5
E
102
{ACAD_REACTORS
330
C
102
}
330
C
100
AcDbDictionary
281
     1
  3
Normal
350
F
100
AcDbDictionaryWithDefault
340
F
  0
DICTIONARY
  5
2A
102
{ACAD_REACTORS
330
C
102
}
330
C
100
AcDbDictionary
281
     1
  3
2dWireframe
350
2F
  3
3D Hidden
350
31
  3
3dWireframe
350
30
  3
Basic
350
32
  3
Brighten
350
36
  3
ColorChange
350
3A
  3
Conceptual
350
34
  3
Dim
350
35
  3
Facepattern
350
39
  3
Flat
350
2B
  3
FlatWithEdges
350
2C
  3
Gouraud
350
2D
  3
GouraudWithEdges
350
2E
  3
Linepattern
350
38
  3
Realistic
350
33
  3
Thicken
350
37
  0
DICTIONARY
  5
525
102
{ACAD_REACTORS
330
C
102
}
330
C
100
AcDbDictionary
281
     1
  3
DIMASSOC
350
528
  3
HIDETEXT
350
529
  0
LAYOUT
  5
1E
102
{ACAD_REACTORS
330
1A
102
}
330
1A
100
AcDbPlotSettings
  1

  2
none_device
  4

  6

 40
0.0
 41
0.0
 42
0.0
 43
0.0
 44
0.0
 45
0.0
 46
0.0
 47
0.0
 48
0.0
 49
0.0
140
0.0
141
0.0
142
1.0
143
1.0
 70
   688
 72
     0
 73
     0
 74
     5
  7

 75
    16
147
1.0
148
0.0
149
0.0
100
AcDbLayout
  1
Layout1
 70
     1
 71
     1
 10
0.0
 20
0.0
 11
12.0
 21
9.0
 12
0.0
 22
0.0
 32
0.0
 14
1.00000000000000E+20
 24
1.00000000000000E+20
 34
1.00000000000000E+20
 15
-1.00000000000000E+20
 25
-1.00000000000000E+20
 35
-1.00000000000000E+20
146
0.0
 13
0.0
 23
0.0
 33
0.0
 16
1.0
 26
0.0
 36
0.0
 17
0.0
 27
1.0
 37
0.0
 76
     0
330
1B
  0
LAYOUT
  5
26
102
{ACAD_REACTORS
330
1A
102
}
330
1A
100
AcDbPlotSettings
  1

  2
none_device
  4

  6

 40
0.0
 41
0.0
 42
0.0
 43
0.0
 44
0.0
 45
0.0
 46
0.0
 47
0.0
 48
0.0
 49
0.0
140
0.0
141
0.0
142
1.0
143
1.0
 70
   688
 72
     0
 73
     0
 74
     5
  7

 75
    16
147
1.0
148
0.0
149
0.0
100
AcDbLayout
  1
Layout2
 70
     1
 71
     2
 10
0.0
 20
0.0
 11
0.0
 21
0.0
 12
0.0
 22
0.0
 32
0.0
 14
0.0
 24
0.0
 34
0.0
 15
0.0
 25
0.0
 35
0.0
146
0.0
 13
0.0
 23
0.0
 33
0.0
 16
1.0
 26
0.0
 36
0.0
 17
0.0
 27
1.0
 37
0.0
 76
     0
330
23
  0
LAYOUT
  5
22
102
{ACAD_REACTORS
330
1A
102
}
330
1A
100
AcDbPlotSettings
  1

  2
none_device
  4

  6

 40
0.0
 41
0.0
 42
0.0
 43
0.0
 44
0.0
 45
0.0
 46
0.0
 47
0.0
 48
0.0
 49
0.0
140
0.0
141
0.0
142
1.0
143
1.0
 70
  1712
 72
     0
 73
     0
 74
     0
  7

 75
     0
147
1.0
148
0.0
149
0.0
100
AcDbLayout
  1
Model
 70
     1
 71
     0
 10
0.0
 20
0.0
 11
12.0
 21
9.0
 12
0.0
 22
0.0
 32
0.0
 14
-215.9999999999997
 24
-41.5
 34
0.0
 15
-53.2500000000008
 25
37.5
 35
0.0
146
0.0
 13
0.0
 23
0.0
 33
0.0
 16
1.0
 26
0.0
 36
0.0
 17
0.0
 27
1.0
 37
0.0
 76
     0
330
1F
331
29
  0
MATERIAL
  5
3D
102
{ACAD_REACTORS
330
3B
102
}
102
{ACAD_XDICTIONARY
360
54C
102
}
330
3B
100
AcDbMaterial
  1
ByBlock
  0
MATERIAL
  5
3C
102
{ACAD_REACTORS
330
3B
102
}
102
{ACAD_XDICTIONARY
360
54A
102
}
330
3B
100
AcDbMaterial
  1
ByLayer
  0
MATERIAL
  5
3E
102
{ACAD_REACTORS
330
3B
102
}
102
{ACAD_XDICTIONARY
360
54E
102
}
330
3B
100
AcDbMaterial
  1
Global
  0
MLINESTYLE
  5
18
102
{ACAD_REACTORS
330
17
102
}
330
17
100
AcDbMlineStyle
  2
Standard
 70
     0
  3

 62
   256
 51
90.0
 52
90.0
 71
     2
 49
0.5
 62
   256
  6
BYLAYER
 49
-0.5
 62
   256
  6
BYLAYER
  0
ACDBPLACEHOLDER
  5
F
102
{ACAD_REACTORS
330
E
102
}
330
E
  0
VISUALSTYLE
  5
2F
102
{ACAD_REACTORS
330
2A
102
}
102
{ACAD_XDICTIONARY
360
532
102
}
330
2A
100
AcDbVisualStyle
  2
2dWireframe
 70
     4
 71
     0
 72
     2
 73
     0
 90
        0
 40
-0.6
 41
-30.0
 62
     5
 63
     7
 74
     1
 91
        4
 64
     7
 65
   257
 75
     1
175
     1
 42
1.0
 92
        0
 66
   257
 43
1.0
 76
     1
 77
     6
 78
     2
 67
     7
 79
     5
170
     0
171
     0
290
     0
174
     0
 93
        1
 44
0.0
173
     0
291
     0
 45
0.0
1001
ACAD
1000
AcDbSavedByObjectVersion
1070
     0
  0
VISUALSTYLE
  5
31
102
{ACAD_REACTORS
330
2A
102
}
102
{ACAD_XDICTIONARY
360
536
102
}
330
2A
100
AcDbVisualStyle
  2
3D Hidden
 70
     6
 71
     1
 72
     2
 73
     2
 90
        0
 40
-0.6
 41
-30.0
 62
     5
 63
     7
 74
     2
 91
        2
 64
     7
 65
   257
 75
     2
175
     1
 42
40.0
 92
        0
 66
   257
 43
1.0
 76
     1
 77
     6
 78
     2
 67
     7
 79
     3
170
     0
171
     0
290
     0
174
     0
 93
        1
 44
0.0
173
     0
291
     0
 45
0.0
1001
ACAD
1000
AcDbSavedByObjectVersion
1070
     0
  0
VISUALSTYLE
  5
30
102
{ACAD_REACTORS
330
2A
102
}
102
{ACAD_XDICTIONARY
360
534
102
}
330
2A
100
AcDbVisualStyle
  2
3dWireframe
 70
     5
 71
     0
 72
     2
 73
     0
 90
        0
 40
-0.6
 41
-30.0
 62
     5
 63
     7
 74
     1
 91
        4
 64
     7
 65
   257
 75
     1
175
     1
 42
1.0
 92
        0
 66
   257
 43
1.0
 76
     1
 77
     6
 78
     2
 67
     7
 79
     5
170
     0
171
     0
290
     0
174
     0
 93
        1
 44
0.0
173
     0
291
     0
 45
0.0
1001
ACAD
1000
AcDbSavedByObjectVersion
1070
     0
  0
VISUALSTYLE
  5
32
102
{ACAD_REACTORS
330
2A
102
}
102
{ACAD_XDICTIONARY
360
538
102
}
330
2A
100
AcDbVisualStyle
  2
Basic
 70
     7
 71
     1
 72
     0
 73
     1
 90
        0
 40
-0.6
 41
-30.0
 62
     5
 63
     7
 74
     0
 91
        4
 64
     7
 65
   257
 75
     1
175
     1
 42
1.0
 92
        8
 66
     7
 43
1.0
 76
     1
 77
     6
 78
     2
 67
     7
 79
     5
170
     0
171
     0
290
     0
174
     0
 93
        1
 44
0.0
173
     0
291
     1
 45
0.0
1001
ACAD
1000
AcDbSavedByObjectVersion
1070
     0
  0
VISUALSTYLE
  5
36
102
{ACAD_REACTORS
330
2A
102
}
102
{ACAD_XDICTIONARY
360
540
102
}
330
2A
100
AcDbVisualStyle
  2
Brighten
 70
    12
 71
     2
 72
     2
 73
     0
 90
        0
 40
-0.6
 41
-30.0
 62
     5
 63
     7
 74
     1
 91
        4
 64
     7
 65
   257
 75
     1
175
     1
 42
1.0
 92
        8
 66
     7
 43
1.0
 76
     1
 77
     6
 78
     2
 67
     7
 79
     5
170
     0
171
     0
290
     0
174
     0
 93
        1
 44
50.0
173
     0
291
     1
 45
0.0
1001
ACAD
1000
AcDbSavedByObjectVersion
1070
     0
  0
VISUALSTYLE
  5
3A
102
{ACAD_REACTORS
330
2A
102
}
102
{ACAD_XDICTIONARY
360
548
102
}
330
2A
100
AcDbVisualStyle
  2
ColorChange
 70
    16
 71
     2
 72
     2
 73
     3
 90
        0
 40
-0.6
 41
-30.0
 62
     5
 63
     8
 74
     1
 91
        4
 64
     7
 65
   257
 75
     1
175
     1
 42
1.0
 92
        8
 66
     8
 43
1.0
 76
     1
 77
     6
 78
     2
 67
     7
 79
     5
170
     0
171
     0
290
     0
174
     0
 93
        1
 44
0.0
173
     0
291
     1
 45
0.0
1001
ACAD
1000
AcDbSavedByObjectVersion
1070
     0
  0
VISUALSTYLE
  5
34
102
{ACAD_REACTORS
330
2A
102
}
102
{ACAD_XDICTIONARY
360
53C
102
}
330
2A
100
AcDbVisualStyle
  2
Conceptual
 70
     9
 71
     3
 72
     2
 73
     0
 90
        0
 40
-0.6
 41
-30.0
 62
     5
 63
     7
 74
     2
 91
        2
 64
     7
 65
   257
 75
     1
175
     1
 42
40.0
 92
        8
 66
     7
 43
1.0
 76
     1
 77
     6
 78
     2
 67
     7
 79
     3
170
     0
171
     0
290
     0
174
     0
 93
        1
 44
0.0
173
     0
291
     0
 45
0.0
1001
ACAD
1000
AcDbSavedByObjectVersion
1070
     0
  0
VISUALSTYLE
  5
35
102
{ACAD_REACTORS
330
2A
102
}
102
{ACAD_XDICTIONARY
360
53E
102
}
330
2A
100
AcDbVisualStyle
  2
Dim
 70
    11
 71
     2
 72
     2
 73
     0
 90
        0
 40
-0.6
 41
-30.0
 62
     5
 63
     7
 74
     1
 91
        4
 64
     7
 65
   257
 75
     1
175
     1
 42
1.0
 92
        8
 66
     7
 43
1.0
 76
     1
 77
     6
 78
     2
 67
     7
 79
     5
170
     0
171
     0
290
     0
174
     0
 93
        1
 44
-50.0
173
     0
291
     1
 45
0.0
1001
ACAD
1000
AcDbSavedByObjectVersion
1070
     0
  0
VISUALSTYLE
  5
39
102
{ACAD_REACTORS
330
2A
102
}
102
{ACAD_XDICTIONARY
360
546
102
}
330
2A
100
AcDbVisualStyle
  2
Facepattern
 70
    15
 71
     2
 72
     2
 73
     0
 90
        0
 40
-0.6
 41
-30.0
 62
     5
 63
     7
 74
     1
 91
        4
 64
     7
 65
   257
 75
     1
175
     1
 42
1.0
 92
        8
 66
     7
 43
1.0
 76
     1
 77
     6
 78
     2
 67
     7
 79
     5
170
     0
171
     0
290
     0
174
     0
 93
        1
 44
0.0
173
     0
291
     1
 45
0.0
1001
ACAD
1000
AcDbSavedByObjectVersion
1070
     0
  0
VISUALSTYLE
  5
2B
102
{ACAD_REACTORS
330
2A
102
}
102
{ACAD_XDICTIONARY
360
52A
102
}
330
2A
100
AcDbVisualStyle
  2
Flat
 70
     0
 71
     2
 72
     1
 73
     1
 90
        2
 40
-0.6
 41
30.0
 62
     5
 63
     7
 74
     0
 91
        4
 64
     7
 65
   257
 75
     1
175
     1
 42
1.0
 92
        8
 66
     7
 43
1.0
 76
     1
 77
     6
 78
     2
 67
     7
 79
     5
170
     0
171
     0
290
     0
174
     0
 93
       13
 44
0.0
173
     0
291
     1
 45
0.0
1001
ACAD
1000
AcDbSavedByObjectVersion
1070
     0
  0
VISUALSTYLE
  5
2C
102
{ACAD_REACTORS
330
2A
102
}
102
{ACAD_XDICTIONARY
360
52C
102
}
330
2A
100
AcDbVisualStyle
  2
FlatWithEdges
 70
     1
 71
     2
 72
     1
 73
     1
 90
        2
 40
-0.6
 41
30.0
 62
     5
 63
     7
 74
     1
 91
        4
 64
     7
 65
   257
 75
     1
175
     1
 42
1.0
 92
        0
 66
   257
 43
1.0
 76
     1
 77
     6
 78
     2
 67
     7
 79
     5
170
     0
171
     0
290
     0
174
     0
 93
       13
 44
0.0
173
     0
291
     1
 45
0.0
1001
ACAD
1000
AcDbSavedByObjectVersion
1070
     0
  0
VISUALSTYLE
  5
2D
102
{ACAD_REACTORS
330
2A
102
}
102
{ACAD_XDICTIONARY
360
52E
102
}
330
2A
100
AcDbVisualStyle
  2
Gouraud
 70
     2
 71
     2
 72
     2
 73
     1
 90
        2
 40
-0.6
 41
30.0
 62
     5
 63
     7
 74
     0
 91
        4
 64
     7
 65
   257
 75
     1
175
     1
 42
1.0
 92
        0
 66
     7
 43
1.0
 76
     1
 77
     6
 78
     2
 67
     7
 79
     5
170
     0
171
     0
290
     0
174
     0
 93
       13
 44
0.0
173
     0
291
     1
 45
0.0
1001
ACAD
1000
AcDbSavedByObjectVersion
1070
     0
  0
VISUALSTYLE
  5
2E
102
{ACAD_REACTORS
330
2A
102
}
102
{ACAD_XDICTIONARY
360
530
102
}
330
2A
100
AcDbVisualStyle
  2
GouraudWithEdges
 70
     3
 71
     2
 72
     2
 73
     1
 90
        2
 40
-0.6
 41
30.0
 62
     5
 63
     7
 74
     1
 91
        4
 64
     7
 65
   257
 75
     1
175
     1
 42
1.0
 92
        0
 66
   257
 43
1.0
 76
     1
 77
     6
 78
     2
 67
     7
 79
     5
170
     0
171
     0
290
     0
174
     0
 93
       13
 44
0.0
173
     0
291
     1
 45
0.0
1001
ACAD
1000
AcDbSavedByObjectVersion
1070
     0
  0
VISUALSTYLE
  5
38
102
{ACAD_REACTORS
330
2A
102
}
102
{ACAD_XDICTIONARY
360
544
102
}
330
2A
100
AcDbVisualStyle
  2
Linepattern
 70
    14
 71
     2
 72
     2
 73
     0
 90
        0
 40
-0.6
 41
-30.0
 62
     5
 63
     7
 74
     1
 91
        4
 64
     7
 65
   257
 75
     7
175
     7
 42
1.0
 92
        8
 66
     7
 43
1.0
 76
     1
 77
     6
 78
     2
 67
     7
 79
     5
170
     0
171
     0
290
     0
174
     0
 93
        1
 44
0.0
173
     0
291
     1
 45
0.0
1001
ACAD
1000
AcDbSavedByObjectVersion
1070
     0
  0
VISUALSTYLE
  5
33
102
{ACAD_REACTORS
330
2A
102
}
102
{ACAD_XDICTIONARY
360
53A
102
}
330
2A
100
AcDbVisualStyle
  2
Realistic
 70
     8
 71
     2
 72
     2
 73
     0
 90
        0
 40
-0.6
 41
-30.0
 62
     5
 63
     7
 74
     1
 91
        0
 64
     7
 65
   257
 75
     1
175
     1
 42
1.0
 92
        8
 66
     8
 43
1.0
 76
     1
 77
     6
 78
     2
 67
     7
 79
     5
170
     0
171
     0
290
     0
174
     0
 93
       13
 44
0.0
173
     0
291
     0
 45
0.0
1001
ACAD
1000
AcDbSavedByObjectVersion
1070
     0
  0
VISUALSTYLE
  5
37
102
{ACAD_REACTORS
330
2A
102
}
102
{ACAD_XDICTIONARY
360
542
102
}
330
2A
100
AcDbVisualStyle
  2
Thicken
 70
    13
 71
     2
 72
     2
 73
     0
 90
        0
 40
-0.6
 41
-30.0
 62
     5
 63
     7
 74
     1
 91
        4
 64
     7
 65
   257
 75
     1
175
     1
 42
1.0
 92
       12
 66
     7
 43
1.0
 76
     1
 77
     6
 78
     2
 67
     7
 79
     5
170
     0
171
     0
290
     0
174
     0
 93
        1
 44
0.0
173
     0
291
     1
 45
0.0
1001
ACAD
1000
AcDbSavedByObjectVersion
1070
     0
  0
DICTIONARYVAR
  5
528
102
{ACAD_REACTORS
330
525
102
}
330
525
100
DictionaryVariables
280
     0
  1
2
  0
DICTIONARYVAR
  5
529
102
{ACAD_REACTORS
330
525
102
}
330
525
100
DictionaryVariables
280
     0
  1
1
  0
DICTIONARY
  5
54C
330
3D
100
AcDbDictionary
280
     1
281
     1
  3
ACAD_XREC_ROUNDTRIP
360
54D
  0
DICTIONARY
  5
54A
330
3C
100
AcDbDictionary
280
     1
281
     1
  3
ACAD_XREC_ROUNDTRIP
360
54B
  0
DICTIONARY
  5
54E
330
3E
100
AcDbDictionary
280
     1
281
     1
  3
ACAD_XREC_ROUNDTRIP
360
54F
  0
DICTIONARY
  5
532
330
2F
100
AcDbDictionary
280
     1
281
     1
  3
ACAD_XREC_ROUNDTRIP
360
533
  0
DICTIONARY
  5
536
330
31
100
AcDbDictionary
280
     1
281
     1
  3
ACAD_XREC_ROUNDTRIP
360
537
  0
DICTIONARY
  5
534
330
30
100
AcDbDictionary
280
     1
281
     1
  3
ACAD_XREC_ROUNDTRIP
360
535
  0
DICTIONARY
  5
538
330
32
100
AcDbDictionary
280
     1
281
     1
  3
ACAD_XREC_ROUNDTRIP
360
539
  0
DICTIONARY
  5
540
330
36
100
AcDbDictionary
280
     1
281
     1
  3
ACAD_XREC_ROUNDTRIP
360
541
  0
DICTIONARY
  5
548
330
3A
100
AcDbDictionary
280
     1
281
     1
  3
ACAD_XREC_ROUNDTRIP
360
549
  0
DICTIONARY
  5
53C
330
34
100
AcDbDictionary
280
     1
281
     1
  3
ACAD_XREC_ROUNDTRIP
360
53D
  0
DICTIONARY
  5
53E
330
35
100
AcDbDictionary
280
     1
281
     1
  3
ACAD_XREC_ROUNDTRIP
360
53F
  0
DICTIONARY
  5
546
330
39
100
AcDbDictionary
280
     1
281
     1
  3
ACAD_XREC_ROUNDTRIP
360
547
  0
DICTIONARY
  5
52A
330
2B
100
AcDbDictionary
280
     1
281
     1
  3
ACAD_XREC_ROUNDTRIP
360
52B
  0
DICTIONARY
  5
52C
330
2C
100
AcDbDictionary
280
     1
281
     1
  3
ACAD_XREC_ROUNDTRIP
360
52D
  0
DICTIONARY
  5
52E
330
2D
100
AcDbDictionary
280
     1
281
     1
  3
ACAD_XREC_ROUNDTRIP
360
52F
  0
DICTIONARY
  5
530
330
2E
100
AcDbDictionary
280
     1
281
     1
  3
ACAD_XREC_ROUNDTRIP
360
531
  0
DICTIONARY
  5
544
330
38
100
AcDbDictionary
280
     1
281
     1
  3
ACAD_XREC_ROUNDTRIP
360
545
  0
DICTIONARY
  5
53A
330
33
100
AcDbDictionary
280
     1
281
     1
  3
ACAD_XREC_ROUNDTRIP
360
53B
  0
DICTIONARY
  5
542
330
37
100
AcDbDictionary
280
     1
281
     1
  3
ACAD_XREC_ROUNDTRIP
360
543
  0
XRECORD
  5
54D
102
{ACAD_REACTORS
330
54C
102
}
330
54C
100
AcDbXrecord
280
     1
102
MATERIAL
148
0.0
149
0.0
149
0.0
 93
        0
 94
      127
282
     0
 72
     1
 77
     1
171
     1
175
     1
179
     1
273
     0
  0
XRECORD
  5
54B
102
{ACAD_REACTORS
330
54A
102
}
330
54A
100
AcDbXrecord
280
     1
102
MATERIAL
148
0.0
149
0.0
149
0.0
 93
        0
 94
      127
282
     0
 72
     1
 77
     1
171
     1
175
     1
179
     1
273
     0
  0
XRECORD
  5
54F
102
{ACAD_REACTORS
330
54E
102
}
330
54E
100
AcDbXrecord
280
     1
102
MATERIAL
148
0.0
149
0.0
149
0.0
 93
        0
 94
      127
282
     0
 72
     1
 77
     1
171
     1
175
     1
179
     1
273
     0
  0
XRECORD
  5
533
102
{ACAD_REACTORS
330
532
102
}
330
532
100
AcDbXrecord
280
     1
102
RTVSPropertyOp0
 70
     1
102
RTVSPropertyOp1
 70
     1
102
RTVSPropertyOp2
 70
     1
102
RTVSPropertyOp3
 70
     1
102
RTVSPropertyOp4
 70
     1
102
RTVSPropertyOp5
 70
     1
102
RTVSPropertyOp6
 70
     1
102
RTVSPropertyOp7
 70
     1
102
RTVSPropertyOp8
 70
     1
102
RTVSPropertyOp9
 70
     1
102
RTVSPropertyOp10
 70
     1
102
RTVSPropertyOp11
 70
     1
102
RTVSPropertyOp12
 70
     1
102
RTVSPropertyOp13
 70
     1
102
RTVSPropertyOp14
 70
     1
102
RTVSPropertyOp15
 70
     1
102
RTVSPropertyOp16
 70
     1
102
RTVSPropertyOp17
 70
     1
102
RTVSPropertyOp18
 70
     1
102
RTVSPropertyOp19
 70
     1
102
RTVSPropertyOp20
 70
     1
102
RTVSPropertyOp21
 70
     1
102
RTVSPropertyOp22
 70
     1
102
RTVSPropertyOp23
 70
     1
102
RTVSPropertyOp24
 70
     1
102
RTVSPropertyOp25
 70
     1
102
RTVSPropertyOp26
 70
     1
102
RTVSPropertyOp27
 70
     1
102
RTVSPropertyOp28
 70
     1
102
RTVSPropertyOp29
 70
     1
102
RTVSPropertyOp30
 70
     1
102
RTVSPropertyOp31
 70
     1
102
RTVSPropertyOp32
 70
     1
  0
XRECORD
  5
537
102
{ACAD_REACTORS
330
536
102
}
330
536
100
AcDbXrecord
280
     1
102
RTVSPropertyOp0
 70
     1
102
RTVSPropertyOp1
 70
     1
102
RTVSPropertyOp2
 70
     1
102
RTVSPropertyOp3
 70
     1
102
RTVSPropertyOp4
 70
     1
102
RTVSPropertyOp5
 70
     1
102
RTVSPropertyOp6
 70
     1
102
RTVSPropertyOp7
 70
     1
102
RTVSPropertyOp8
 70
     1
102
RTVSPropertyOp9
 70
     1
102
RTVSPropertyOp10
 70
     1
102
RTVSPropertyOp11
 70
     1
102
RTVSPropertyOp12
 70
     1
102
RTVSPropertyOp13
 70
     1
102
RTVSPropertyOp14
 70
     1
102
RTVSPropertyOp15
 70
     1
102
RTVSPropertyOp16
 70
     1
102
RTVSPropertyOp17
 70
     1
102
RTVSPropertyOp18
 70
     1
102
RTVSPropertyOp19
 70
     1
102
RTVSPropertyOp20
 70
     1
102
RTVSPropertyOp21
 70
     1
102
RTVSPropertyOp22
 70
     1
102
RTVSPropertyOp23
 70
     1
102
RTVSPropertyOp24
 70
     1
102
RTVSPropertyOp25
 70
     1
102
RTVSPropertyOp26
 70
     1
102
RTVSPropertyOp27
 70
     1
102
RTVSPropertyOp28
 70
     1
102
RTVSPropertyOp29
 70
     1
102
RTVSPropertyOp30
 70
     1
102
RTVSPropertyOp31
 70
     1
102
RTVSPropertyOp32
 70
     1
  0
XRECORD
  5
535
102
{ACAD_REACTORS
330
534
102
}
330
534
100
AcDbXrecord
280
     1
102
RTVSPropertyOp0
 70
     1
102
RTVSPropertyOp1
 70
     1
102
RTVSPropertyOp2
 70
     1
102
RTVSPropertyOp3
 70
     1
102
RTVSPropertyOp4
 70
     1
102
RTVSPropertyOp5
 70
     1
102
RTVSPropertyOp6
 70
     1
102
RTVSPropertyOp7
 70
     1
102
RTVSPropertyOp8
 70
     1
102
RTVSPropertyOp9
 70
     1
102
RTVSPropertyOp10
 70
     1
102
RTVSPropertyOp11
 70
     1
102
RTVSPropertyOp12
 70
     1
102
RTVSPropertyOp13
 70
     1
102
RTVSPropertyOp14
 70
     1
102
RTVSPropertyOp15
 70
     1
102
RTVSPropertyOp16
 70
     1
102
RTVSPropertyOp17
 70
     1
102
RTVSPropertyOp18
 70
     1
102
RTVSPropertyOp19
 70
     1
102
RTVSPropertyOp20
 70
     1
102
RTVSPropertyOp21
 70
     1
102
RTVSPropertyOp22
 70
     1
102
RTVSPropertyOp23
 70
     1
102
RTVSPropertyOp24
 70
     1
102
RTVSPropertyOp25
 70
     1
102
RTVSPropertyOp26
 70
     1
102
RTVSPropertyOp27
 70
     1
102
RTVSPropertyOp28
 70
     1
102
RTVSPropertyOp29
 70
     1
102
RTVSPropertyOp30
 70
     1
102
RTVSPropertyOp31
 70
     1
102
RTVSPropertyOp32
 70
     1
  0
XRECORD
  5
539
102
{ACAD_REACTORS
330
538
102
}
330
538
100
AcDbXrecord
280
     1
102
RTVSPropertyOp0
 70
     1
102
RTVSPropertyOp1
 70
     1
102
RTVSPropertyOp2
 70
     1
102
RTVSPropertyOp3
 70
     1
102
RTVSPropertyOp4
 70
     1
102
RTVSPropertyOp5
 70
     1
102
RTVSPropertyOp6
 70
     1
102
RTVSPropertyOp7
 70
     1
102
RTVSPropertyOp8
 70
     1
102
RTVSPropertyOp9
 70
     1
102
RTVSPropertyOp10
 70
     1
102
RTVSPropertyOp11
 70
     1
102
RTVSPropertyOp12
 70
     1
102
RTVSPropertyOp13
 70
     1
102
RTVSPropertyOp14
 70
     1
102
RTVSPropertyOp15
 70
     1
102
RTVSPropertyOp16
 70
     1
102
RTVSPropertyOp17
 70
     1
102
RTVSPropertyOp18
 70
     1
102
RTVSPropertyOp19
 70
     1
102
RTVSPropertyOp20
 70
     1
102
RTVSPropertyOp21
 70
     1
102
RTVSPropertyOp22
 70
     1
102
RTVSPropertyOp23
 70
     1
102
RTVSPropertyOp24
 70
     1
102
RTVSPropertyOp25
 70
     1
102
RTVSPropertyOp26
 70
     1
102
RTVSPropertyOp27
 70
     1
102
RTVSPropertyOp28
 70
     1
102
RTVSPropertyOp29
 70
     1
102
RTVSPropertyOp30
 70
     1
102
RTVSPropertyOp31
 70
     1
102
RTVSPropertyOp32
 70
     1
  0
XRECORD
  5
541
102
{ACAD_REACTORS
330
540
102
}
330
540
100
AcDbXrecord
280
     1
102
RTVSPropertyOp0
 70
     1
102
RTVSPropertyOp1
 70
     1
102
RTVSPropertyOp2
 70
     1
102
RTVSPropertyOp3
 70
     1
102
RTVSPropertyOp4
 70
     1
102
RTVSPropertyOp5
 70
     1
102
RTVSPropertyOp6
 70
     1
102
RTVSPropertyOp7
 70
     1
102
RTVSPropertyOp8
 70
     1
102
RTVSPropertyOp9
 70
     1
102
RTVSPropertyOp10
 70
     1
102
RTVSPropertyOp11
 70
     1
102
RTVSPropertyOp12
 70
     1
102
RTVSPropertyOp13
 70
     1
102
RTVSPropertyOp14
 70
     1
102
RTVSPropertyOp15
 70
     1
102
RTVSPropertyOp16
 70
     1
102
RTVSPropertyOp17
 70
     1
102
RTVSPropertyOp18
 70
     1
102
RTVSPropertyOp19
 70
     1
102
RTVSPropertyOp20
 70
     1
102
RTVSPropertyOp21
 70
     1
102
RTVSPropertyOp22
 70
     1
102
RTVSPropertyOp23
 70
     1
102
RTVSPropertyOp24
 70
     1
102
RTVSPropertyOp25
 70
     1
102
RTVSPropertyOp26
 70
     1
102
RTVSPropertyOp27
 70
     1
102
RTVSPropertyOp28
 70
     1
102
RTVSPropertyOp29
 70
     1
102
RTVSPropertyOp30
 70
     1
102
RTVSPropertyOp31
 70
     1
102
RTVSPropertyOp32
 70
     1
  0
XRECORD
  5
549
102
{ACAD_REACTORS
330
548
102
}
330
548
100
AcDbXrecord
280
     1
102
RTVSPropertyOp0
 70
     1
102
RTVSPropertyOp1
 70
     1
102
RTVSPropertyOp2
 70
     1
102
RTVSPropertyOp3
 70
     1
102
RTVSPropertyOp4
 70
     1
102
RTVSPropertyOp5
 70
     1
102
RTVSPropertyOp6
 70
     1
102
RTVSPropertyOp7
 70
     1
102
RTVSPropertyOp8
 70
     1
102
RTVSPropertyOp9
 70
     1
102
RTVSPropertyOp10
 70
     1
102
RTVSPropertyOp11
 70
     1
102
RTVSPropertyOp12
 70
     1
102
RTVSPropertyOp13
 70
     1
102
RTVSPropertyOp14
 70
     1
102
RTVSPropertyOp15
 70
     1
102
RTVSPropertyOp16
 70
     1
102
RTVSPropertyOp17
 70
     1
102
RTVSPropertyOp18
 70
     1
102
RTVSPropertyOp19
 70
     1
102
RTVSPropertyOp20
 70
     1
102
RTVSPropertyOp21
 70
     1
102
RTVSPropertyOp22
 70
     1
102
RTVSPropertyOp23
 70
     1
102
RTVSPropertyOp24
 70
     1
102
RTVSPropertyOp25
 70
     1
102
RTVSPropertyOp26
 70
     1
102
RTVSPropertyOp27
 70
     1
102
RTVSPropertyOp28
 70
     1
102
RTVSPropertyOp29
 70
     1
102
RTVSPropertyOp30
 70
     1
102
RTVSPropertyOp31
 70
     1
102
RTVSPropertyOp32
 70
     1
  0
XRECORD
  5
53D
102
{ACAD_REACTORS
330
53C
102
}
330
53C
100
AcDbXrecord
280
     1
102
RTVSPropertyOp0
 70
     1
102
RTVSPropertyOp1
 70
     1
102
RTVSPropertyOp2
 70
     1
102
RTVSPropertyOp3
 70
     1
102
RTVSPropertyOp4
 70
     1
102
RTVSPropertyOp5
 70
     1
102
RTVSPropertyOp6
 70
     1
102
RTVSPropertyOp7
 70
     1
102
RTVSPropertyOp8
 70
     1
102
RTVSPropertyOp9
 70
     1
102
RTVSPropertyOp10
 70
     1
102
RTVSPropertyOp11
 70
     1
102
RTVSPropertyOp12
 70
     1
102
RTVSPropertyOp13
 70
     1
102
RTVSPropertyOp14
 70
     1
102
RTVSPropertyOp15
 70
     1
102
RTVSPropertyOp16
 70
     1
102
RTVSPropertyOp17
 70
     1
102
RTVSPropertyOp18
 70
     1
102
RTVSPropertyOp19
 70
     1
102
RTVSPropertyOp20
 70
     1
102
RTVSPropertyOp21
 70
     1
102
RTVSPropertyOp22
 70
     1
102
RTVSPropertyOp23
 70
     1
102
RTVSPropertyOp24
 70
     1
102
RTVSPropertyOp25
 70
     1
102
RTVSPropertyOp26
 70
     1
102
RTVSPropertyOp27
 70
     1
102
RTVSPropertyOp28
 70
     1
102
RTVSPropertyOp29
 70
     1
102
RTVSPropertyOp30
 70
     1
102
RTVSPropertyOp31
 70
     1
102
RTVSPropertyOp32
 70
     1
  0
XRECORD
  5
53F
102
{ACAD_REACTORS
330
53E
102
}
330
53E
100
AcDbXrecord
280
     1
102
RTVSPropertyOp0
 70
     1
102
RTVSPropertyOp1
 70
     1
102
RTVSPropertyOp2
 70
     1
102
RTVSPropertyOp3
 70
     1
102
RTVSPropertyOp4
 70
     1
102
RTVSPropertyOp5
 70
     1
102
RTVSPropertyOp6
 70
     1
102
RTVSPropertyOp7
 70
     1
102
RTVSPropertyOp8
 70
     1
102
RTVSPropertyOp9
 70
     1
102
RTVSPropertyOp10
 70
     1
102
RTVSPropertyOp11
 70
     1
102
RTVSPropertyOp12
 70
     1
102
RTVSPropertyOp13
 70
     1
102
RTVSPropertyOp14
 70
     1
102
RTVSPropertyOp15
 70
     1
102
RTVSPropertyOp16
 70
     1
102
RTVSPropertyOp17
 70
     1
102
RTVSPropertyOp18
 70
     1
102
RTVSPropertyOp19
 70
     1
102
RTVSPropertyOp20
 70
     1
102
RTVSPropertyOp21
 70
     1
102
RTVSPropertyOp22
 70
     1
102
RTVSPropertyOp23
 70
     1
102
RTVSPropertyOp24
 70
     1
102
RTVSPropertyOp25
 70
     1
102
RTVSPropertyOp26
 70
     1
102
RTVSPropertyOp27
 70
     1
102
RTVSPropertyOp28
 70
     1
102
RTVSPropertyOp29
 70
     1
102
RTVSPropertyOp30
 70
     1
102
RTVSPropertyOp31
 70
     1
102
RTVSPropertyOp32
 70
     1
  0
XRECORD
  5
547
102
{ACAD_REACTORS
330
546
102
}
330
546
100
AcDbXrecord
280
     1
102
RTVSPropertyOp0
 70
     1
102
RTVSPropertyOp1
 70
     1
102
RTVSPropertyOp2
 70
     1
102
RTVSPropertyOp3
 70
     1
102
RTVSPropertyOp4
 70
     1
102
RTVSPropertyOp5
 70
     1
102
RTVSPropertyOp6
 70
     1
102
RTVSPropertyOp7
 70
     1
102
RTVSPropertyOp8
 70
     1
102
RTVSPropertyOp9
 70
     1
102
RTVSPropertyOp10
 70
     1
102
RTVSPropertyOp11
 70
     1
102
RTVSPropertyOp12
 70
     1
102
RTVSPropertyOp13
 70
     1
102
RTVSPropertyOp14
 70
     1
102
RTVSPropertyOp15
 70
     1
102
RTVSPropertyOp16
 70
     1
102
RTVSPropertyOp17
 70
     1
102
RTVSPropertyOp18
 70
     1
102
RTVSPropertyOp19
 70
     1
102
RTVSPropertyOp20
 70
     1
102
RTVSPropertyOp21
 70
     1
102
RTVSPropertyOp22
 70
     1
102
RTVSPropertyOp23
 70
     1
102
RTVSPropertyOp24
 70
     1
102
RTVSPropertyOp25
 70
     1
102
RTVSPropertyOp26
 70
     1
102
RTVSPropertyOp27
 70
     1
102
RTVSPropertyOp28
 70
     1
102
RTVSPropertyOp29
 70
     1
102
RTVSPropertyOp30
 70
     1
102
RTVSPropertyOp31
 70
     1
102
RTVSPropertyOp32
 70
     1
  0
XRECORD
  5
52B
102
{ACAD_REACTORS
330
52A
102
}
330
52A
100
AcDbXrecord
280
     1
102
RTVSPropertyOp0
 70
     1
102
RTVSPropertyOp1
 70
     1
102
RTVSPropertyOp2
 70
     1
102
RTVSPropertyOp3
 70
     1
102
RTVSPropertyOp4
 70
     1
102
RTVSPropertyOp5
 70
     1
102
RTVSPropertyOp6
 70
     1
102
RTVSPropertyOp7
 70
     1
102
RTVSPropertyOp8
 70
     1
102
RTVSPropertyOp9
 70
     1
102
RTVSPropertyOp10
 70
     1
102
RTVSPropertyOp11
 70
     1
102
RTVSPropertyOp12
 70
     1
102
RTVSPropertyOp13
 70
     1
102
RTVSPropertyOp14
 70
     1
102
RTVSPropertyOp15
 70
     1
102
RTVSPropertyOp16
 70
     1
102
RTVSPropertyOp17
 70
     1
102
RTVSPropertyOp18
 70
     1
102
RTVSPropertyOp19
 70
     1
102
RTVSPropertyOp20
 70
     1
102
RTVSPropertyOp21
 70
     1
102
RTVSPropertyOp22
 70
     1
102
RTVSPropertyOp23
 70
     1
102
RTVSPropertyOp24
 70
     1
102
RTVSPropertyOp25
 70
     1
102
RTVSPropertyOp26
 70
     1
102
RTVSPropertyOp27
 70
     1
102
RTVSPropertyOp28
 70
     1
102
RTVSPropertyOp29
 70
     1
102
RTVSPropertyOp30
 70
     1
102
RTVSPropertyOp31
 70
     1
102
RTVSPropertyOp32
 70
     1
  0
XRECORD
  5
52D
102
{ACAD_REACTORS
330
52C
102
}
330
52C
100
AcDbXrecord
280
     1
102
RTVSPropertyOp0
 70
     1
102
RTVSPropertyOp1
 70
     1
102
RTVSPropertyOp2
 70
     1
102
RTVSPropertyOp3
 70
     1
102
RTVSPropertyOp4
 70
     1
102
RTVSPropertyOp5
 70
     1
102
RTVSPropertyOp6
 70
     1
102
RTVSPropertyOp7
 70
     1
102
RTVSPropertyOp8
 70
     1
102
RTVSPropertyOp9
 70
     1
102
RTVSPropertyOp10
 70
     1
102
RTVSPropertyOp11
 70
     1
102
RTVSPropertyOp12
 70
     1
102
RTVSPropertyOp13
 70
     1
102
RTVSPropertyOp14
 70
     1
102
RTVSPropertyOp15
 70
     1
102
RTVSPropertyOp16
 70
     1
102
RTVSPropertyOp17
 70
     1
102
RTVSPropertyOp18
 70
     1
102
RTVSPropertyOp19
 70
     1
102
RTVSPropertyOp20
 70
     1
102
RTVSPropertyOp21
 70
     1
102
RTVSPropertyOp22
 70
     1
102
RTVSPropertyOp23
 70
     1
102
RTVSPropertyOp24
 70
     1
102
RTVSPropertyOp25
 70
     1
102
RTVSPropertyOp26
 70
     1
102
RTVSPropertyOp27
 70
     1
102
RTVSPropertyOp28
 70
     1
102
RTVSPropertyOp29
 70
     1
102
RTVSPropertyOp30
 70
     1
102
RTVSPropertyOp31
 70
     1
102
RTVSPropertyOp32
 70
     1
  0
XRECORD
  5
52F
102
{ACAD_REACTORS
330
52E
102
}
330
52E
100
AcDbXrecord
280
     1
102
RTVSPropertyOp0
 70
     1
102
RTVSPropertyOp1
 70
     1
102
RTVSPropertyOp2
 70
     1
102
RTVSPropertyOp3
 70
     1
102
RTVSPropertyOp4
 70
     1
102
RTVSPropertyOp5
 70
     1
102
RTVSPropertyOp6
 70
     1
102
RTVSPropertyOp7
 70
     1
102
RTVSPropertyOp8
 70
     1
102
RTVSPropertyOp9
 70
     1
102
RTVSPropertyOp10
 70
     1
102
RTVSPropertyOp11
 70
     1
102
RTVSPropertyOp12
 70
     1
102
RTVSPropertyOp13
 70
     1
102
RTVSPropertyOp14
 70
     1
102
RTVSPropertyOp15
 70
     1
102
RTVSPropertyOp16
 70
     1
102
RTVSPropertyOp17
 70
     1
102
RTVSPropertyOp18
 70
     1
102
RTVSPropertyOp19
 70
     1
102
RTVSPropertyOp20
 70
     1
102
RTVSPropertyOp21
 70
     1
102
RTVSPropertyOp22
 70
     1
102
RTVSPropertyOp23
 70
     1
102
RTVSPropertyOp24
 70
     1
102
RTVSPropertyOp25
 70
     1
102
RTVSPropertyOp26
 70
     1
102
RTVSPropertyOp27
 70
     1
102
RTVSPropertyOp28
 70
     1
102
RTVSPropertyOp29
 70
     1
102
RTVSPropertyOp30
 70
     1
102
RTVSPropertyOp31
 70
     1
102
RTVSPropertyOp32
 70
     1
  0
XRECORD
  5
531
102
{ACAD_REACTORS
330
530
102
}
330
530
100
AcDbXrecord
280
     1
102
RTVSPropertyOp0
 70
     1
102
RTVSPropertyOp1
 70
     1
102
RTVSPropertyOp2
 70
     1
102
RTVSPropertyOp3
 70
     1
102
RTVSPropertyOp4
 70
     1
102
RTVSPropertyOp5
 70
     1
102
RTVSPropertyOp6
 70
     1
102
RTVSPropertyOp7
 70
     1
102
RTVSPropertyOp8
 70
     1
102
RTVSPropertyOp9
 70
     1
102
RTVSPropertyOp10
 70
     1
102
RTVSPropertyOp11
 70
     1
102
RTVSPropertyOp12
 70
     1
102
RTVSPropertyOp13
 70
     1
102
RTVSPropertyOp14
 70
     1
102
RTVSPropertyOp15
 70
     1
102
RTVSPropertyOp16
 70
     1
102
RTVSPropertyOp17
 70
     1
102
RTVSPropertyOp18
 70
     1
102
RTVSPropertyOp19
 70
     1
102
RTVSPropertyOp20
 70
     1
102
RTVSPropertyOp21
 70
     1
102
RTVSPropertyOp22
 70
     1
102
RTVSPropertyOp23
 70
     1
102
RTVSPropertyOp24
 70
     1
102
RTVSPropertyOp25
 70
     1
102
RTVSPropertyOp26
 70
     1
102
RTVSPropertyOp27
 70
     1
102
RTVSPropertyOp28
 70
     1
102
RTVSPropertyOp29
 70
     1
102
RTVSPropertyOp30
 70
     1
102
RTVSPropertyOp31
 70
     1
102
RTVSPropertyOp32
 70
     1
  0
XRECORD
  5
545
102
{ACAD_REACTORS
330
544
102
}
330
544
100
AcDbXrecord
280
     1
102
RTVSPropertyOp0
 70
     1
102
RTVSPropertyOp1
 70
     1
102
RTVSPropertyOp2
 70
     1
102
RTVSPropertyOp3
 70
     1
102
RTVSPropertyOp4
 70
     1
102
RTVSPropertyOp5
 70
     1
102
RTVSPropertyOp6
 70
     1
102
RTVSPropertyOp7
 70
     1
102
RTVSPropertyOp8
 70
     1
102
RTVSPropertyOp9
 70
     1
102
RTVSPropertyOp10
 70
     1
102
RTVSPropertyOp11
 70
     1
102
RTVSPropertyOp12
 70
     1
102
RTVSPropertyOp13
 70
     1
102
RTVSPropertyOp14
 70
     1
102
RTVSPropertyOp15
 70
     1
102
RTVSPropertyOp16
 70
     1
102
RTVSPropertyOp17
 70
     1
102
RTVSPropertyOp18
 70
     1
102
RTVSPropertyOp19
 70
     1
102
RTVSPropertyOp20
 70
     1
102
RTVSPropertyOp21
 70
     1
102
RTVSPropertyOp22
 70
     1
102
RTVSPropertyOp23
 70
     1
102
RTVSPropertyOp24
 70
     1
102
RTVSPropertyOp25
 70
     1
102
RTVSPropertyOp26
 70
     1
102
RTVSPropertyOp27
 70
     1
102
RTVSPropertyOp28
 70
     1
102
RTVSPropertyOp29
 70
     1
102
RTVSPropertyOp30
 70
     1
102
RTVSPropertyOp31
 70
     1
102
RTVSPropertyOp32
 70
     1
  0
XRECORD
  5
53B
102
{ACAD_REACTORS
330
53A
102
}
330
53A
100
AcDbXrecord
280
     1
102
RTVSPropertyOp0
 70
     1
102
RTVSPropertyOp1
 70
     1
102
RTVSPropertyOp2
 70
     1
102
RTVSPropertyOp3
 70
     1
102
RTVSPropertyOp4
 70
     1
102
RTVSPropertyOp5
 70
     1
102
RTVSPropertyOp6
 70
     1
102
RTVSPropertyOp7
 70
     1
102
RTVSPropertyOp8
 70
     1
102
RTVSPropertyOp9
 70
     1
102
RTVSPropertyOp10
 70
     1
102
RTVSPropertyOp11
 70
     1
102
RTVSPropertyOp12
 70
     1
102
RTVSPropertyOp13
 70
     1
102
RTVSPropertyOp14
 70
     1
102
RTVSPropertyOp15
 70
     1
102
RTVSPropertyOp16
 70
     1
102
RTVSPropertyOp17
 70
     1
102
RTVSPropertyOp18
 70
     1
102
RTVSPropertyOp19
 70
     1
102
RTVSPropertyOp20
 70
     1
102
RTVSPropertyOp21
 70
     1
102
RTVSPropertyOp22
 70
     1
102
RTVSPropertyOp23
 70
     1
102
RTVSPropertyOp24
 70
     1
102
RTVSPropertyOp25
 70
     1
102
RTVSPropertyOp26
 70
     1
102
RTVSPropertyOp27
 70
     1
102
RTVSPropertyOp28
 70
     1
102
RTVSPropertyOp29
 70
     1
102
RTVSPropertyOp30
 70
     1
102
RTVSPropertyOp31
 70
     1
102
RTVSPropertyOp32
 70
     1
  0
XRECORD
  5
543
102
{ACAD_REACTORS
330
542
102
}
330
542
100
AcDbXrecord
280
     1
102
RTVSPropertyOp0
 70
     1
102
RTVSPropertyOp1
 70
     1
102
RTVSPropertyOp2
 70
     1
102
RTVSPropertyOp3
 70
     1
102
RTVSPropertyOp4
 70
     1
102
RTVSPropertyOp5
 70
     1
102
RTVSPropertyOp6
 70
     1
102
RTVSPropertyOp7
 70
     1
102
RTVSPropertyOp8
 70
     1
102
RTVSPropertyOp9
 70
     1
102
RTVSPropertyOp10
 70
     1
102
RTVSPropertyOp11
 70
     1
102
RTVSPropertyOp12
 70
     1
102
RTVSPropertyOp13
 70
     1
102
RTVSPropertyOp14
 70
     1
102
RTVSPropertyOp15
 70
     1
102
RTVSPropertyOp16
 70
     1
102
RTVSPropertyOp17
 70
     1
102
RTVSPropertyOp18
 70
     1
102
RTVSPropertyOp19
 70
     1
102
RTVSPropertyOp20
 70
     1
102
RTVSPropertyOp21
 70
     1
102
RTVSPropertyOp22
 70
     1
102
RTVSPropertyOp23
 70
     1
102
RTVSPropertyOp24
 70
     1
102
RTVSPropertyOp25
 70
     1
102
RTVSPropertyOp26
 70
     1
102
RTVSPropertyOp27
 70
     1
102
RTVSPropertyOp28
 70
     1
102
RTVSPropertyOp29
 70
     1
102
RTVSPropertyOp30
 70
     1
102
RTVSPropertyOp31
 70
     1
102
RTVSPropertyOp32
 70
     1
  0
ENDSEC
  0
EOF
