  0
SECTION
  2
HEADER
  9
$ACADVER
  1
AC1014
  9
$ACADMAINTVER
 70
             0
  9
$DWGCODEPAGE
  3
ANSI_1252
  9
$INSBASE
 10
0.0
 20
0.0
 30
0.0
  9
$EXTMIN
 10
1.00000000000000E+20
 20
1.00000000000000E+20
 30
1.00000000000000E+20
  9
$EXTMAX
 10
-1.00000000000000E+20
 20
-1.00000000000000E+20
 30
-1.00000000000000E+20
  9
$LIMMIN
 10
0.0
 20
0.0
  9
$LIMMAX
 10
0.0
 20
0.0
  9
$ORTHOMODE
 70
             0
  9
$REGENMODE
 70
             1
  9
$FILLMODE
 70
             1
  9
$QTEXTMODE
 70
             0
  9
$MIRRTEXT
 70
             1
  9
$DRAGMODE
 70
             2
  9
$LTSCALE
 40
1.0
  9
$OSMODE
 70
             0
  9
$ATTMODE
 70
             1
  9
$TEXTSIZE
 40
0.2
  9
$TRACEWID
 40
0.05
  9
$TEXTSTYLE
  7
STANDARD
  9
$CLAYER
  8
0
  9
$CELTYPE
  6
CONTINUOUS
  9
$CECOLOR
 62
           256
  9
$CELTSCALE
 40
1.0
  9
$DELOBJ
 70
             1
  9
$DISPSILH
 70
             0
  9
$DIMSCALE
 40
1.0
  9
$DIMASZ
 40
0.18
  9
$DIMEXO
 40
0.0625
  9
$DIMDLI
 40
0.38
  9
$DIMRND
 40
0.0
  9
$DIMDLE
 40
0.0
  9
$DIMEXE
 40
0.18
  9
$DIMTP
 40
0.0
  9
$DIMTM
 40
0.0
  9
$DIMTXT
 40
0.18
  9
$DIMCEN
 40
0.09
  9
$DIMTSZ
 40
0.0
  9
$DIMTOL
 70
             0
  9
$DIMLIM
 70
             0
  9
$DIMTIH
 70
             1
  9
$DIMTOH
 70
             1
  9
$DIMSE1
 70
             0
  9
$DIMSE2
 70
             0
  9
$DIMTAD
 70
             0
  9
$DIMZIN
 70
             0
  9
$DIMBLK
  1

  9
$DIMASO
 70
             1
  9
$DIMSHO
 70
             1
  9
$DIMPOST
  1

  9
$DIMAPOST
  1

  9
$DIMALT
 70
             0
  9
$DIMALTD
 70
             2
  9
$DIMALTF
 40
25.4
  9
$DIMLFAC
 40
1.0
  9
$DIMTOFL
 70
             0
  9
$DIMTVP
 40
0.0
  9
$DIMTIX
 70
             0
  9
$DIMSOXD
 70
             0
  9
$DIMSAH
 70
             0
  9
$DIMBLK1
  1

  9
$DIMBLK2
  1

  9
$DIMSTYLE
  2
STANDARD
  9
$DIMCLRD
 70
             0
  9
$DIMCLRE
 70
             0
  9
$DIMCLRT
 70
             0
  9
$DIMTFAC
 40
1.0
  9
$DIMGAP
 40
0.09
  9
$DIMJUST
 70
             0
  9
$DIMSD1
 70
             0
  9
$DIMSD2
 70
             0
  9
$DIMTOLJ
 70
             1
  9
$DIMTZIN
 70
             0
  9
$DIMALTZ
 70
             0
  9
$DIMALTTZ
 70
             0
  9
$DIMFIT
 70
             3
  9
$DIMUPT
 70
             0
  9
$DIMUNIT
 70
             2
  9
$DIMDEC
 70
             4
  9
$DIMTDEC
 70
             4
  9
$DIMALTU
 70
             2
  9
$DIMALTTD
 70
             2
  9
$DIMTXSTY
  7
STANDARD
  9
$DIMAUNIT
 70
             0
  9
$LUNITS
 70
             2
  9
$LUPREC
 70
             4
  9
$SKETCHINC
 40
0.1
  9
$FILLETRAD
 40
0.0
  9
$AUNITS
 70
             0
  9
$AUPREC
 70
             0
  9
$MENU
  1
acad
  9
$ELEVATION
 40
0.0
  9
$PELEVATION
 40
0.0
  9
$THICKNESS
 40
0.0
  9
$LIMCHECK
 70
             0
  9
$BLIPMODE
 70
             1
  9
$CHAMFERA
 40
0.0
  9
$CHAMFERB
 40
0.0
  9
$CHAMFERC
 40
0.0
  9
$CHAMFERD
 40
0.0
  9
$SKPOLY
 70
             0
  9
$TDCREATE
 40
0.000000000
  9
$TDUPDATE
 40
0.000000000
  9
$TDINDWG
 40
0.0000000000
  9
$TDUSRTIMER
 40
0.0000000000
  9
$USRTIMER
 70
             1
  9
$ANGBASE
 50
0.0
  9
$ANGDIR
 70
             0
  9
$PDMODE
 70
             0
  9
$PDSIZE
 40
0.0
  9
$PLINEWID
 40
0.0
  9
$COORDS
 70
             0
  9
$SPLFRAME
 70
             0
  9
$SPLINETYPE
 70
             6
  9
$SPLINESEGS
 70
             8
  9
$ATTDIA
 70
             0
  9
$ATTREQ
 70
             1
  9
$HANDLING
 70
             1
  9
$HANDSEED
  5
472
  9
$SURFTAB1
 70
             6
  9
$SURFTAB2
 70
             6
  9
$SURFTYPE
 70
             6
  9
$SURFU
 70
             6
  9
$SURFV
 70
             6
  9
$UCSNAME
  2

  9
$UCSORG
 10
0.0
 20
0.0
 30
0.0
  9
$UCSXDIR
 10
1.0
 20
0.0
 30
0.0
  9
$UCSYDIR
 10
0.0
 20
1.0
 30
0.0
  9
$PUCSNAME
  2

  9
$PUCSORG
 10
0.0
 20
0.0
 30
0.0
  9
$PUCSXDIR
 10
1.0
 20
0.0
 30
0.0
  9
$PUCSYDIR
 10
0.0
 20
1.0
 30
0.0
  9
$USERI1
 70
             0
  9
$USERI2
 70
             0
  9
$USERI3
 70
             0
  9
$USERI4
 70
             0
  9
$USERI5
 70
             0
  9
$USERR1
 40
11.6
  9
$USERR2
 40
0.0
  9
$USERR3
 40
0.0
  9
$USERR4
 40
0.0
  9
$USERR5
 40
0.0
  9
$WORLDVIEW
 70
             1
  9
$SHADEDGE
 70
             3
  9
$SHADEDIF
 70
            70
  9
$TILEMODE
 70
             1
  9
$MAXACTVP
 70
            16
  9
$PINSBASE
 10
0.0
 20
0.0
 30
0.0
  9
$PLIMCHECK
 70
             0
  9
$PEXTMIN
 10
1.00000000000000E+20
 20
1.00000000000000E+20
 30
1.00000000000000E+20
  9
$PEXTMAX
 10
-1.00000000000000E+20
 20
-1.00000000000000E+20
 30
-1.00000000000000E+20
  9
$PLIMMIN
 10
0.0
 20
0.0
  9
$PLIMMAX
 10
12.0
 20
9.0
  9
$UNITMODE
 70
             0
  9
$VISRETAIN
 70
             0
  9
$PLINEGEN
 70
             1
  9
$PSLTSCALE
 70
             0
  9
$TREEDEPTH
 70
          3020
  9
$PICKSTYLE
 70
             1
  9
$CMLSTYLE
  2
STANDARD
  9
$CMLJUST
 70
             0
  9
$CMLSCALE
 40
1.0
  9
$PROXYGRAPHICS
 70
             0
  9
$MEASUREMENT
 70
             1
  0
ENDSEC
  0
SECTION
  2
CLASSES
  0
CLASS
  1
LWPOLYLINE
  2
AcDbPolyline
  3
"AutoCAD"
 90
        0
280
             0
281
             1
  0
CLASS
  1
IMAGE
  2
AcDbRasterImage
  3
ISM
 90
      127
280
             0
281
             1
  0
CLASS
  1
OLE2FRAME
  2
AcDbOle2Frame
  3
""
 90
        0
280
             0
281
             1
  0
CLASS
  1
HATCH
  2
AcDbHatch
  3
"ACAD_SEDONA"
 90
        0
280
             0
281
             1
  0
CLASS
  1
DICTIONARYVAR
  2
AcDbDictionaryVar
  3
"AutoCAD"
 90
        0
280
             0
281
             0
  0
CLASS
  1
RASTERVARIABLES
  2
AcDbRasterVariables
  3
ISM
 90
        0
280
             0
281
             0
  0
CLASS
  1
IMAGEDEF
  2
AcDbRasterImageDef
  3
ISM
 90
        0
280
             0
281
             0
  0
CLASS
  1
IMAGEDEF_REACTOR
  2
AcDbRasterImageDefReactor
  3
ISM
 90
        1
280
             0
281
             0
  0
CLASS
  1
IDBUFFER
  2
AcDbIdBuffer
  3
"Acad"
 90
        0
280
             0
281
             0
  0
CLASS
  1
SPATIAL_FILTER
  2
AcDbSpatialFilter
  3
"Acad"
 90
        0
280
             0
281
             0
  0
CLASS
  1
XRECORD
  2
AcDbXrecord
  3
"<Built In>"
 90
        0
280
             0
281
             0
  0
CLASS
  1
SORTENTSTABLE
  2
AcDbSortentsTable
  3
"AutoCAD"
 90
        0
280
             0
281
             0
  0
CLASS
  1
LAYER_INDEX
  2
AcDbLayerIndex
  3
"Acad"
 90
        0
280
             0
281
             0
  0
CLASS
  1
SPATIAL_INDEX
  2
AcDbSpatialIndex
  3
"Acad"
 90
        0
280
             0
281
             0
  0
CLASS
  1
OBJECT_PTR
  2
CAseDLPNTableRecord
  3
"ASE-LPNTableRecord"
 90
        1
280
             0
281
             0
  0
CLASS
  1
LAYOUT
  2
AcDbLayout
  3
"AutoCAD 2000"
 90
        1
280
             0
281
             0
  0
CLASS
  1
PLOTSETTINGS
  2
AcDbPlotSettings
  3
"AutoCAD 2000"
 90
        1
280
             0
281
             0
  0
CLASS
  1
ACDBDICTIONARYWDFLT
  2
AcDbDictionaryWithDefault
  3
"AutoCAD 2000"
 90
        1
280
             0
281
             0
  0
CLASS
  1
ACDBPLACEHOLDER
  2
AcDbPlaceHolder
  3
"AutoCAD 2000"
 90
        1
280
             0
281
             0
  0
ENDSEC
  0
SECTION
  2
TABLES
  0
TABLE
  2
VPORT
  5
7
100
AcDbSymbolTable
 70
             1
  0
VPORT
  5
15
100
AcDbSymbolTableRecord
100
AcDbViewportTableRecord
  2
*ACTIVE
 70
             0
 10
0.0
 20
0.0
 11
1.0
 21
1.0
 12
4110.3733629999988
 22
3481.1789156000004
 13
0.0
 23
0.0
 14
1.0
 24
1.0
 15
0.0
 25
0.0
 16
0.0
 26
0.0
 36
1.0
 17
0.0
 27
0.0
 37
0.0
 40
115.6501392757667
 41
1.60267857142857
 42
50.0
 43
0.0
 44
0.0
 50
0.0
 51
0.0
 71
             0
 72
           100
 73
             1
 74
             1
 75
             0
 76
             0
 77
             0
 78
             0
  0
ENDTAB
  0
TABLE
  2
LTYPE
  5
4
100
AcDbSymbolTable
 70
            11
  0
LTYPE
  5
11
100
AcDbSymbolTableRecord
100
AcDbLinetypeTableRecord
  2
BYBLOCK
 70
            64
  3

 72
            65
 73
             0
 40
0.0
  0
LTYPE
  5
12
100
AcDbSymbolTableRecord
100
AcDbLinetypeTableRecord
  2
BYLAYER
 70
            64
  3

 72
            65
 73
             0
 40
0.0
  0
LTYPE
  5
13
100
AcDbSymbolTableRecord
100
AcDbLinetypeTableRecord
  2
CONTINUOUS
 70
            64
  3
Solid line
 72
            65
 73
             0
 40
0.0
  0
LTYPE
  5
1D
100
AcDbSymbolTableRecord
100
AcDbLinetypeTableRecord
  2
DASHED
 70
            64
  3
Dashed
 72
            65
 73
             2
 40
15.0
 49
12.0
 74
             0
 49
-3.0
 74
             0
  0
LTYPE
  5
1E
100
AcDbSymbolTableRecord
100
AcDbLinetypeTableRecord
  2
DOTTED
 70
            64
  3
Dotted
 72
            65
 73
             2
 40
3.5
 49
0.5
 74
             0
 49
-3.0
 74
             0
  0
LTYPE
  5
1F
100
AcDbSymbolTableRecord
100
AcDbLinetypeTableRecord
  2
DOT_CENTER
 70
            64
  3
Dot_Center
 72
            65
 73
             4
 40
2.0
 49
1.25
 74
             0
 49
-0.25
 74
             0
 49
0.25
 74
             0
 49
-0.25
 74
             0
  0
LTYPE
  5
20
100
AcDbSymbolTableRecord
100
AcDbLinetypeTableRecord
  2
LONG_DASHED
 70
            64
  3
Long_Dashed
 72
            65
 73
             2
 40
2.0
 49
1.5
 74
             0
 49
-0.5
 74
             0
  0
LTYPE
  5
21
100
AcDbSymbolTableRecord
100
AcDbLinetypeTableRecord
  2
DASH_CENTER
 70
            64
  3
Dash_Center
 72
            65
 73
             4
 40
36.0
 49
24.0
 74
             0
 49
-3.0
 74
             0
 49
6.0
 74
             0
 49
-3.0
 74
             0
  0
LTYPE
  5
22
100
AcDbSymbolTableRecord
100
AcDbLinetypeTableRecord
  2
PHANTOM
 70
            64
  3
Phantom
 72
            65
 73
             6
 40
2.5
 49
1.25
 74
             0
 49
-0.25
 74
             0
 49
0.25
 74
             0
 49
-0.25
 74
             0
 49
0.25
 74
             0
 49
-0.25
 74
             0
  0
LTYPE
  5
23
100
AcDbSymbolTableRecord
100
AcDbLinetypeTableRecord
  2
CENTER_DASH_DASH
 70
            64
  3
Center_Dash_Dash
 72
            65
 73
             6
 40
22.0
 49
12.0
 74
             0
 49
-3.0
 74
             0
 49
0.5
 74
             0
 49
-3.0
 74
             0
 49
0.5
 74
             0
 49
-3.0
 74
             0
  0
LTYPE
  5
24
100
AcDbSymbolTableRecord
100
AcDbLinetypeTableRecord
  2
CENTER
 70
            64
  3
CENTER
 72
            65
 73
             4
 40
5.0
 49
2.0
 74
             0
 49
-1.0
 74
             0
 49
1.0
 74
             0
 49
-1.0
 74
             0
  0
ENDTAB
  0
TABLE
  2
LAYER
  5
2
100
AcDbSymbolTable
 70
             4
  0
LAYER
  5
14
100
AcDbSymbolTableRecord
100
AcDbLayerTableRecord
  2
0
 70
             0
 62
             7
  6
CONTINUOUS
  0
LAYER
  5
25
100
AcDbSymbolTableRecord
100
AcDbLayerTableRecord
  2
1
 70
             0
 62
             7
  6
CONTINUOUS
  0
LAYER
  5
26
100
AcDbSymbolTableRecord
100
AcDbLayerTableRecord
  2
_O____
 70
             0
 62
             7
  6
CONTINUOUS
  0
LAYER
  5
27
100
AcDbSymbolTableRecord
100
AcDbLayerTableRecord
  2
___S__
 70
             0
 62
             7
  6
CONTINUOUS
  0
ENDTAB
  0
TABLE
  2
STYLE
  5
3
100
AcDbSymbolTable
 70
             1
  0
STYLE
  5
17
100
AcDbSymbolTableRecord
100
AcDbTextStyleTableRecord
  2
STANDARD
 70
             0
 40
0.0
 41
1.0
 50
0.0
 71
             0
 42
0.0
  3
txt
  4

  0
ENDTAB
  0
TABLE
  2
VIEW
  5
5
100
AcDbSymbolTable
 70
             0
  0
ENDTAB
  0
TABLE
  2
UCS
  5
6
100
AcDbSymbolTable
 70
             0
  0
ENDTAB
  0
TABLE
  2
APPID
  5
8
100
AcDbSymbolTable
 70
             1
  0
APPID
  5
16
100
AcDbSymbolTableRecord
100
AcDbRegAppTableRecord
  2
ACAD
 70
             0
  0
ENDTAB
  0
TABLE
  2
DIMSTYLE
  5
9
100
AcDbSymbolTable
 70
             1
  0
DIMSTYLE
105
18
100
AcDbSymbolTableRecord
100
AcDbDimStyleTableRecord
  2
STANDARD
 70
             0
  3

  4

  5

  6

  7

 40
1.0
 41
0.18
 42
0.0625
 43
0.38
 44
0.18
 45
0.0
 46
0.0
 47
0.0
 48
0.0
 71
             0
 72
             0
 73
             1
 74
             1
 75
             0
 76
             0
 77
             0
 78
             0
140
0.18
141
0.09
142
0.0
143
25.4
144
1.0
145
0.0
146
1.0
147
0.09
170
             0
171
             2
172
             0
173
             0
174
             0
175
             0
176
             0
177
             0
178
             0
270
             2
271
             4
272
             4
273
             2
274
             2
275
             0
280
             0
281
             0
282
             0
283
             1
284
             0
285
             0
286
             0
287
             0
288
             0
340
17
  0
ENDTAB
  0
TABLE
  2
BLOCK_RECORD
  5
1
100
AcDbSymbolTable
 70
             1
  0
BLOCK_RECORD
  5
A
100
AcDbSymbolTableRecord
100
AcDbBlockTableRecord
  2
*MODEL_SPACE
  0
BLOCK_RECORD
  5
B
100
AcDbSymbolTableRecord
100
AcDbBlockTableRecord
  2
*PAPER_SPACE
  0
BLOCK_RECORD
  5
28
100
AcDbSymbolTableRecord
100
AcDbBlockTableRecord
  2
DIN
  0
ENDTAB
  0
ENDSEC
  0
SECTION
  2
BLOCKS
  0
BLOCK
  5
D
100
AcDbEntity
  8
0
100
AcDbBlockBegin
  2
*MODEL_SPACE
 70
             0
 10
0.0
 20
0.0
 30
0.0
  3
*MODEL_SPACE
  1

  0
ENDBLK
  5
E
100
AcDbEntity
  8
0
100
AcDbBlockEnd
  0
BLOCK
  5
F
100
AcDbEntity
 67
             1
  8
0
100
AcDbBlockBegin
  2
*PAPER_SPACE
 70
             0
 10
0.0
 20
0.0
 30
0.0
  3
*PAPER_SPACE
  1

  0
ENDBLK
  5
10
100
AcDbEntity
 67
             1
  8
0
100
AcDbBlockEnd
  0
BLOCK
  5
29
100
AcDbEntity
  8
0
100
AcDbBlockBegin
  2
DIN
 70
             0
 10
4187.1233629999997
 20
3463.6786866000002
 30
0.0
  3
DIN
  1

  0
ENDBLK
  5
2D
100
AcDbEntity
  8
0
100
AcDbBlockEnd
  0
ENDSEC
  0
SECTION
  2
ENTITIES
  0
LWPOLYLINE
  5
470
100
AcDbEntity
  8
_O____
  6
CONTINUOUS
 62
             7
100
AcDbPolyline
 90
        3
 70
             0
 10
4047.1233630000002
 20
3439.1791446000002
 10
4047.1233630000002
 20
3441.1791446000002
 10
4047.1233630000002
 20
3441.1791446000002
  0
LWPOLYLINE
  5
46E
100
AcDbEntity
  8
_O____
  6
CONTINUOUS
 62
             7
100
AcDbPolyline
 90
        3
 70
             0
 10
4044.3733630000002
 20
3441.1791446000002
 10
4043.414651
 20
3441.1791446000002
 10
4043.414651
 20
3441.1791446000002
  0
LWPOLYLINE
  5
46C
100
AcDbEntity
  8
_O____
  6
CONTINUOUS
 62
             7
100
AcDbPolyline
 90
        3
 70
             0
 10
4047.1233630000002
 20
3441.1791446000002
 10
4045.8733630000002
 20
3441.1791446000002
 10
4045.8733630000002
 20
3441.1791446000002
  0
LWPOLYLINE
  5
46A
100
AcDbEntity
  8
_O____
  6
CONTINUOUS
 62
             7
100
AcDbPolyline
 90
        3
 70
             0
 10
4035.1233630000002
 20
3439.1791446000002
 10
4035.1233630000002
 20
3441.1791446000002
 10
4035.1233630000002
 20
3441.1791446000002
  0
LWPOLYLINE
  5
468
100
AcDbEntity
  8
_O____
  6
CONTINUOUS
 62
             7
100
AcDbPolyline
 90
        3
 70
             0
 10
4036.3733630000002
 20
3441.1791446000002
 10
4035.1233630000002
 20
3441.1791446000002
 10
4035.1233630000002
 20
3441.1791446000002
  0
LWPOLYLINE
  5
466
100
AcDbEntity
  8
_O____
  6
CONTINUOUS
 62
             7
100
AcDbPolyline
 90
        3
 70
             0
 10
4038.8320749999998
 20
3441.1791446000002
 10
4037.8733630000002
 20
3441.1791446000002
 10
4037.8733630000002
 20
3441.1791446000002
  0
LWPOLYLINE
  5
464
100
AcDbEntity
  8
_O____
  6
CONTINUOUS
 62
             7
100
AcDbPolyline
 90
        3
 70
             0
 10
4053.923362999999
 20
3436.1791446000002
 10
4049.323363
 20
3436.1791446000002
 10
4049.323363
 20
3436.1791446000002
  0
LWPOLYLINE
  5
462
100
AcDbEntity
  8
_O____
  6
CONTINUOUS
 62
             7
100
AcDbPolyline
 90
        3
 70
             0
 10
4032.923362999999
 20
3436.1791446000002
 10
4028.323363
 20
3436.1791446000002
 10
4028.323363
 20
3436.1791446000002
  0
LWPOLYLINE
  5
460
100
AcDbEntity
  8
_O____
  6
CONTINUOUS
 62
             7
100
AcDbPolyline
 90
        3
 70
             0
 10
4043.8733619999989
 20
3439.1791446000002
 10
4046.8733619999998
 20
3439.1791446000002
 10
4046.8733619999998
 20
3439.1791446000002
  0
LWPOLYLINE
  5
45E
100
AcDbEntity
  8
_O____
  6
CONTINUOUS
 62
             7
100
AcDbPolyline
 90
        3
 70
             0
 10
4035.3733619999998
 20
3439.1791446000002
 10
4038.3733619999989
 20
3439.1791446000002
 10
4038.3733619999989
 20
3439.1791446000002
  0
LWPOLYLINE
  5
45C
100
AcDbEntity
  8
0
  6
CONTINUOUS
 62
             7
100
AcDbPolyline
 90
        3
 70
             0
 10
4045.8733619999989
 20
3440.1791446000002
 42
0.41421399999995
 10
4046.8733619999998
 20
3439.1791445999988
 10
4046.8733619999998
 20
3439.1791445999988
  0
LWPOLYLINE
  5
45A
100
AcDbEntity
  8
0
  6
CONTINUOUS
 62
             7
100
AcDbPolyline
 90
        3
 70
             0
 10
4035.3733619999998
 20
3439.1791446000002
 42
0.41421400000008
 10
4036.3733619999998
 20
3440.1791446000002
 10
4036.3733619999998
 20
3440.1791446000002
  0
LWPOLYLINE
  5
458
100
AcDbEntity
  8
0
  6
CONTINUOUS
 62
             7
100
AcDbPolyline
 90
        3
 70
             0
 10
4043.8733619999989
 20
3439.1791446000002
 42
0.41421400000061
 10
4044.3733620000007
 20
3439.6791446000002
 10
4044.3733620000007
 20
3439.6791446000002
  0
LWPOLYLINE
  5
456
100
AcDbEntity
  8
0
  6
CONTINUOUS
 62
             7
100
AcDbPolyline
 90
        3
 70
             0
 10
4043.8733619999989
 20
3439.1791446000002
 10
4041.6233619999998
 20
3439.1791446000002
 10
4041.6233619999998
 20
3439.1791446000002
  0
LWPOLYLINE
  5
454
100
AcDbEntity
  8
0
  6
CONTINUOUS
 62
             7
100
AcDbPolyline
 90
        3
 70
             0
 10
4040.6233619999989
 20
3439.1791446000002
 10
4038.3733619999989
 20
3439.1791446000002
 10
4038.3733619999989
 20
3439.1791446000002
  0
LWPOLYLINE
  5
452
100
AcDbEntity
  8
0
  6
CONTINUOUS
 62
             7
100
AcDbPolyline
 90
        3
 70
             0
 10
4037.8733619999998
 20
3439.6791446000002
 42
0.41421399999928
 10
4038.3733619999989
 20
3439.1791446000007
 10
4038.3733619999989
 20
3439.1791446000007
  0
LWPOLYLINE
  5
450
100
AcDbEntity
  8
_O____
  6
CONTINUOUS
 62
             7
100
AcDbPolyline
 90
        3
 70
             0
 10
4041.6233630000002
 20
3439.1791446000002
 10
4041.6233630000002
 20
3438.3728815999998
 10
4041.6233630000002
 20
3438.3728815999998
  0
LWPOLYLINE
  5
44E
100
AcDbEntity
  8
_O____
  6
CONTINUOUS
 62
             7
100
AcDbPolyline
 90
        3
 70
             0
 10
4040.6233630000002
 20
3439.1791446000002
 10
4040.6233630000002
 20
3438.3728805999999
 10
4040.6233630000002
 20
3438.3728805999999
  0
LWPOLYLINE
  5
44C
100
AcDbEntity
  8
_O____
  6
CONTINUOUS
 62
             7
100
AcDbPolyline
 90
        3
 70
             0
 10
4043.1389290000002
 20
3437.1791395999999
 10
4045.1233630000002
 20
3437.1791395999999
 10
4045.1233630000002
 20
3437.1791395999999
  0
LWPOLYLINE
  5
44A
100
AcDbEntity
  8
_O____
  6
CONTINUOUS
 62
             7
100
AcDbPolyline
 90
        3
 70
             0
 10
4037.123364
 20
3437.1791395999999
 10
4039.1078000000002
 20
3437.1791395999999
 10
4039.1078000000002
 20
3437.1791395999999
  0
LWPOLYLINE
  5
448
100
AcDbEntity
  8
_O____
  6
CONTINUOUS
 62
             7
100
AcDbPolyline
 90
        3
 70
             0
 10
4043.1389290000002
 20
3435.1791395999999
 10
4045.1233630000002
 20
3435.1791395999999
 10
4045.1233630000002
 20
3435.1791395999999
  0
LWPOLYLINE
  5
446
100
AcDbEntity
  8
_O____
  6
CONTINUOUS
 62
             7
100
AcDbPolyline
 90
        3
 70
             0
 10
4037.1233630000002
 20
3435.1791395999999
 10
4039.1078000000002
 20
3435.1791395999999
 10
4039.1078000000002
 20
3435.1791395999999
  0
LWPOLYLINE
  5
444
100
AcDbEntity
  8
_O____
  6
CONTINUOUS
 62
             7
100
AcDbPolyline
 90
        3
 70
             0
 10
4045.1233630000002
 20
3437.1791395999999
 10
4045.1233630000002
 20
3435.1791395999999
 10
4045.1233630000002
 20
3435.1791395999999
  0
LWPOLYLINE
  5
442
100
AcDbEntity
  8
_O____
  6
CONTINUOUS
 62
             7
100
AcDbPolyline
 90
        3
 70
             0
 10
4037.123364
 20
3437.1791395999999
 10
4037.1233630000002
 20
3435.1791395999999
 10
4037.1233630000002
 20
3435.1791395999999
  0
LWPOLYLINE
  5
440
100
AcDbEntity
  8
_O____
  6
CONTINUOUS
 62
             7
100
AcDbPolyline
 90
        3
 70
             0
 10
4039.1078000000002
 20
3435.1791395999999
 42
0.62017400000005
 10
4043.1389290000002
 20
3435.1791395999999
 10
4043.1389290000002
 20
3435.1791395999999
  0
LWPOLYLINE
  5
43E
100
AcDbEntity
  8
_O____
  6
CONTINUOUS
 62
             7
100
AcDbPolyline
 90
        3
 70
             0
 10
4043.1389290000002
 20
3437.1791395999999
 42
0.22523400000003
 10
4041.6233630000002
 20
3438.3728815999998
 10
4041.6233630000002
 20
3438.3728815999998
  0
LWPOLYLINE
  5
43C
100
AcDbEntity
  8
_O____
  6
CONTINUOUS
 62
             7
100
AcDbPolyline
 90
        3
 70
             0
 10
4040.6233630000002
 20
3438.3728805999999
 42
0.22523400000004
 10
4039.1078000000002
 20
3437.1791395999999
 10
4039.1078000000002
 20
3437.1791395999999
  0
LWPOLYLINE
  5
43A
100
AcDbEntity
  8
0
  6
CONTINUOUS
 62
             7
100
AcDbPolyline
 90
        3
 70
             0
 10
4045.1233630000002
 20
3431.1791446000002
 10
4037.1233630000002
 20
3431.1791446000002
 10
4037.1233630000002
 20
3431.1791446000002
  0
LWPOLYLINE
  5
438
100
AcDbEntity
  8
0
  6
CONTINUOUS
 62
             7
100
AcDbPolyline
 90
        3
 70
             0
 10
4035.1233630000002
 20
3433.1791446000002
 10
4037.1233630000002
 20
3431.1791446000002
 10
4037.1233630000002
 20
3431.1791446000002
  0
LWPOLYLINE
  5
436
100
AcDbEntity
  8
0
  6
CONTINUOUS
 62
             7
100
AcDbPolyline
 90
        3
 70
             0
 10
4035.1233630000002
 20
3433.1791446000002
 10
4035.1233630000002
 20
3436.1791446000002
 10
4035.1233630000002
 20
3436.1791446000002
  0
LWPOLYLINE
  5
434
100
AcDbEntity
  8
0
  6
CONTINUOUS
 62
             7
100
AcDbPolyline
 90
        3
 70
             0
 10
4047.1233630000002
 20
3433.1791446000002
 10
4045.1233630000002
 20
3431.1791446000002
 10
4045.1233630000002
 20
3431.1791446000002
  0
LWPOLYLINE
  5
432
100
AcDbEntity
  8
0
  6
CONTINUOUS
 62
             7
100
AcDbPolyline
 90
        3
 70
             0
 10
4047.1233630000002
 20
3436.1791446000002
 10
4047.1233630000002
 20
3433.1791446000002
 10
4047.1233630000002
 20
3433.1791446000002
  0
LWPOLYLINE
  5
430
100
AcDbEntity
  8
0
  6
CONTINUOUS
 62
             7
100
AcDbPolyline
 90
        3
 70
             0
 10
4029.173362999999
 20
3436.1791446000002
 10
4035.1233630000002
 20
3436.1791446000002
 10
4035.1233630000002
 20
3436.1791446000002
  0
LWPOLYLINE
  5
42E
100
AcDbEntity
  8
0
  6
CONTINUOUS
 62
             7
100
AcDbPolyline
 90
        3
 70
             0
 10
4047.1233630000002
 20
3436.1791446000002
 10
4053.073363
 20
3436.1791446000002
 10
4053.073363
 20
3436.1791446000002
  0
LWPOLYLINE
  5
42C
100
AcDbEntity
  8
0
  6
CONTINUOUS
 62
             7
100
AcDbPolyline
 90
        3
 70
             0
 10
4045.8733630000002
 20
3440.1791446000002
 10
4045.8733630000002
 20
3441.1786866000002
 10
4045.8733630000002
 20
3441.1786866000002
  0
LWPOLYLINE
  5
42A
100
AcDbEntity
  8
0
  6
CONTINUOUS
 62
             7
100
AcDbPolyline
 90
        3
 70
             0
 10
4036.3733630000002
 20
3441.1791446000002
 10
4036.3733630000002
 20
3440.1791446000002
 10
4036.3733630000002
 20
3440.1791446000002
  0
LWPOLYLINE
  5
428
100
AcDbEntity
  8
_O____
  6
CONTINUOUS
 62
             7
100
AcDbPolyline
 90
        9
 70
             0
 10
4041.107042715686
 20
3523.9210915701378
 10
4041.107042715686
 20
3523.9210915701378
 10
4041.107042715686
 20
3523.9210915701378
 42
-2.41421400000024
 10
4043.357042715686
 20
3526.1710915701392
 10
4043.357042715686
 20
3526.1710915701392
 42
-0.41421400000014
 10
4041.107042715686
 20
3523.9210915701378
 10
4041.107042715686
 20
3523.9210915701378
 10
4041.107042715686
 20
3523.9210915701378
 10
4041.107042715686
 20
3523.9210915701378
  0
LWPOLYLINE
  5
426
100
AcDbEntity
  8
_O____
  6
CONTINUOUS
 62
             7
100
AcDbPolyline
 90
        3
 70
             0
 10
4026.1233630000002
 20
3528.9786865999999
 10
4026.1233630000002
 20
3438.3786866
 10
4026.1233630000002
 20
3438.3786866
  0
LWPOLYLINE
  5
424
100
AcDbEntity
  8
_O____
  6
CONTINUOUS
 62
             7
100
AcDbPolyline
 90
        3
 70
             0
 10
4028.323363
 20
3531.1786866000002
 42
0.41421399999993
 10
4026.1233629999997
 20
3528.9786865999999
 10
4026.1233629999997
 20
3528.9786865999999
  0
LWPOLYLINE
  5
422
100
AcDbEntity
  8
_O____
  6
CONTINUOUS
 62
             7
100
AcDbPolyline
 90
        3
 70
             0
 10
4053.923362999999
 20
3531.1786866000002
 10
4028.323363
 20
3531.1786866000002
 10
4028.323363
 20
3531.1786866000002
  0
LWPOLYLINE
  5
420
100
AcDbEntity
  8
_O____
  6
CONTINUOUS
 62
             7
100
AcDbPolyline
 90
        3
 70
             0
 10
4056.1233630000002
 20
3528.9786865999999
 42
0.41421400000006
 10
4053.923362999999
 20
3531.1786866000002
 10
4053.923362999999
 20
3531.1786866000002
  0
LWPOLYLINE
  5
41E
100
AcDbEntity
  8
_O____
  6
CONTINUOUS
 62
             7
100
AcDbPolyline
 90
        3
 70
             0
 10
4056.1233630000002
 20
3438.3786866
 10
4056.1233630000002
 20
3528.9786865999999
 10
4056.1233630000002
 20
3528.9786865999999
  0
LWPOLYLINE
  5
41C
100
AcDbEntity
  8
_O____
  6
CONTINUOUS
 62
             7
100
AcDbPolyline
 90
        3
 70
             0
 10
4035.1233630000002
 20
3438.3786866
 10
4035.1233630000002
 20
3441.1786866000002
 10
4035.1233630000002
 20
3441.1786866000002
  0
LWPOLYLINE
  5
41A
100
AcDbEntity
  8
_O____
  6
CONTINUOUS
 62
             7
100
AcDbPolyline
 90
        3
 70
             0
 10
4035.1233630000002
 20
3438.3786866
 10
4032.923362999999
 20
3436.1786866000002
 10
4032.923362999999
 20
3436.1786866000002
  0
LWPOLYLINE
  5
418
100
AcDbEntity
  8
_O____
  6
CONTINUOUS
 62
             7
100
AcDbPolyline
 90
        3
 70
             0
 10
4047.1233630000002
 20
3438.3786866
 10
4047.1233630000002
 20
3441.1786866000002
 10
4047.1233630000002
 20
3441.1786866000002
  0
LWPOLYLINE
  5
416
100
AcDbEntity
  8
_O____
  6
CONTINUOUS
 62
             7
100
AcDbPolyline
 90
        3
 70
             0
 10
4047.1233630000002
 20
3438.3786866
 10
4049.323363
 20
3436.1786866000002
 10
4049.323363
 20
3436.1786866000002
  0
LWPOLYLINE
  5
414
100
AcDbEntity
  8
_O____
  6
CONTINUOUS
 62
             7
100
AcDbPolyline
 90
        3
 70
             0
 10
4028.323363
 20
3436.1786866000002
 10
4032.923362999999
 20
3436.1786866000002
 10
4032.923362999999
 20
3436.1786866000002
  0
LWPOLYLINE
  5
412
100
AcDbEntity
  8
_O____
  6
CONTINUOUS
 62
             7
100
AcDbPolyline
 90
        3
 70
             0
 10
4026.1233630000002
 20
3438.3786866
 42
0.41421400000006
 10
4028.323363
 20
3436.1786866000011
 10
4028.323363
 20
3436.1786866000011
  0
LWPOLYLINE
  5
410
100
AcDbEntity
  8
_O____
  6
CONTINUOUS
 62
             7
100
AcDbPolyline
 90
        3
 70
             0
 10
4053.923362999999
 20
3436.1786866000002
 42
0.41421400000006
 10
4056.1233629999997
 20
3438.3786866
 10
4056.1233629999997
 20
3438.3786866
  0
LWPOLYLINE
  5
40E
100
AcDbEntity
  8
_O____
  6
CONTINUOUS
 62
             7
100
AcDbPolyline
 90
        3
 70
             0
 10
4049.323363
 20
3436.1786866000002
 10
4053.923362999999
 20
3436.1786866000002
 10
4053.923362999999
 20
3436.1786866000002
  0
LWPOLYLINE
  5
40C
100
AcDbEntity
  8
_O____
  6
CONTINUOUS
 62
             7
100
AcDbPolyline
 90
        3
 70
             0
 10
4035.1233630000002
 20
3441.1786866000002
 10
4038.8320749999998
 20
3441.1786866000002
 10
4038.8320749999998
 20
3441.1786866000002
  0
LWPOLYLINE
  5
40A
100
AcDbEntity
  8
_O____
  6
CONTINUOUS
 62
             7
100
AcDbPolyline
 90
        3
 70
             0
 10
4043.414651
 20
3441.1786866000002
 10
4047.1233630000002
 20
3441.1786866000002
 10
4047.1233630000002
 20
3441.1786866000002
  0
LWPOLYLINE
  5
408
100
AcDbEntity
  8
0
  6
CONTINUOUS
 62
             7
100
AcDbPolyline
 90
        3
 70
             0
 10
4035.3733619999998
 20
3439.1791446000002
 10
4035.1233630000002
 20
3439.1791446000002
 10
4035.1233630000002
 20
3439.1791446000002
  0
LWPOLYLINE
  5
406
100
AcDbEntity
  8
0
  6
CONTINUOUS
 62
             7
100
AcDbPolyline
 90
        3
 70
             0
 10
4037.8733630000002
 20
3439.6791446000002
 10
4037.8733630000002
 20
3441.1786866000002
 10
4037.8733630000002
 20
3441.1786866000002
  0
LWPOLYLINE
  5
404
100
AcDbEntity
  8
0
  6
CONTINUOUS
 62
             7
100
AcDbPolyline
 90
        3
 70
             0
 10
4044.3733630000002
 20
3441.1786866000002
 10
4044.3733630000002
 20
3439.8600975999998
 10
4044.3733630000002
 20
3439.8600975999998
  0
LWPOLYLINE
  5
402
100
AcDbEntity
  8
0
  6
CONTINUOUS
 62
             7
100
AcDbPolyline
 90
        3
 70
             0
 10
4047.1233630000002
 20
3439.1791446000002
 10
4046.8733619999998
 20
3439.1791446000002
 10
4046.8733619999998
 20
3439.1791446000002
  0
LWPOLYLINE
  5
400
100
AcDbEntity
  8
_O____
  6
CONTINUOUS
 62
             7
100
AcDbPolyline
 90
        3
 70
             0
 10
4056.1233630000002
 20
3493.1286866
 10
4056.1233630000002
 20
3469.2286865999999
 10
4056.1233630000002
 20
3469.2286865999999
  0
LWPOLYLINE
  5
3FE
100
AcDbEntity
  8
_O____
  6
CONTINUOUS
 62
             7
100
AcDbPolyline
 90
        3
 70
             0
 10
4026.1233630000002
 20
3469.2286865999999
 10
4026.1233630000002
 20
3493.1286866
 10
4026.1233630000002
 20
3493.1286866
  0
LWPOLYLINE
  5
3FC
100
AcDbEntity
  8
_O____
  6
CONTINUOUS
 62
             7
100
AcDbPolyline
 90
        3
 70
             0
 10
4028.2233630000001
 20
3498.1786866000002
 10
4054.0233629999998
 20
3498.1786866000002
 10
4054.0233629999998
 20
3498.1786866000002
  0
LWPOLYLINE
  5
3FA
100
AcDbEntity
  8
_O____
  6
CONTINUOUS
 62
             7
100
AcDbPolyline
 90
        3
 70
             0
 10
4054.0233629999998
 20
3464.1786866000002
 10
4028.2233630000001
 20
3464.1786866000002
 10
4028.2233630000001
 20
3464.1786866000002
  0
LWPOLYLINE
  5
3F8
100
AcDbEntity
  8
_O____
  6
CONTINUOUS
 62
             7
100
AcDbPolyline
 90
        3
 70
             0
 10
4027.1233630000002
 20
3471.1786866000002
 10
4027.1233630000002
 20
3491.1786866000002
 10
4027.1233630000002
 20
3491.1786866000002
  0
LWPOLYLINE
  5
3F6
100
AcDbEntity
  8
_O____
  6
CONTINUOUS
 62
             7
100
AcDbPolyline
 90
        3
 70
             0
 10
4055.1233630000002
 20
3491.1786866000002
 10
4055.1233630000002
 20
3471.1786866000002
 10
4055.1233630000002
 20
3471.1786866000002
  0
LWPOLYLINE
  5
3F4
100
AcDbEntity
  8
_O____
  6
CONTINUOUS
 62
             7
100
AcDbPolyline
 90
        3
 70
             0
 10
4026.1233630000002
 20
3491.1786866000002
 10
4028.1233630000002
 20
3491.1786866000002
 10
4028.1233630000002
 20
3491.1786866000002
  0
LWPOLYLINE
  5
3F2
100
AcDbEntity
  8
_O____
  6
CONTINUOUS
 62
             7
100
AcDbPolyline
 90
        3
 70
             0
 10
4056.1233630000002
 20
3471.1786866000002
 10
4054.0233629999998
 20
3471.1786866000002
 10
4054.0233629999998
 20
3471.1786866000002
  0
LWPOLYLINE
  5
3F0
100
AcDbEntity
  8
___S__
  6
CONTINUOUS
 62
             7
100
AcDbPolyline
 90
        3
 70
             0
 10
4028.2233630000001
 20
3498.1786866000002
 10
4028.2233630000001
 20
3491.1786866000002
 10
4028.2233630000001
 20
3491.1786866000002
  0
LWPOLYLINE
  5
3EE
100
AcDbEntity
  8
___S__
  6
CONTINUOUS
 62
             7
100
AcDbPolyline
 90
        3
 70
             0
 10
4054.0233629999998
 20
3498.1786866000002
 10
4054.0233629999998
 20
3491.1786866000002
 10
4054.0233629999998
 20
3491.1786866000002
  0
LWPOLYLINE
  5
3EC
100
AcDbEntity
  8
___S__
  6
CONTINUOUS
 62
             7
100
AcDbPolyline
 90
        3
 70
             0
 10
4054.0233629999998
 20
3471.1786866000002
 10
4054.0233629999998
 20
3464.1786866000002
 10
4054.0233629999998
 20
3464.1786866000002
  0
LWPOLYLINE
  5
3EA
100
AcDbEntity
  8
_O____
  6
CONTINUOUS
 62
             7
100
AcDbPolyline
 90
        3
 70
             0
 10
4028.1233630000002
 20
3491.1786866000002
 10
4028.2233630000001
 20
3491.1786866000002
 10
4028.2233630000001
 20
3491.1786866000002
  0
LWPOLYLINE
  5
3E8
100
AcDbEntity
  8
_O____
  6
CONTINUOUS
 62
             7
100
AcDbPolyline
 90
        3
 70
             0
 10
4054.0233629999998
 20
3491.1786866000002
 10
4056.1233630000002
 20
3491.1786866000002
 10
4056.1233630000002
 20
3491.1786866000002
  0
LWPOLYLINE
  5
3E6
100
AcDbEntity
  8
_O____
  6
CONTINUOUS
 62
             7
100
AcDbPolyline
 90
        3
 70
             0
 10
4026.1233630000002
 20
3493.1286866
 10
4028.2233630000001
 20
3493.1286866
 10
4028.2233630000001
 20
3493.1286866
  0
LWPOLYLINE
  5
3E4
100
AcDbEntity
  8
_O____
  6
CONTINUOUS
 62
             7
100
AcDbPolyline
 90
        3
 70
             0
 10
4054.0233629999998
 20
3493.1286866
 10
4056.1233630000002
 20
3493.1286866
 10
4056.1233630000002
 20
3493.1286866
  0
LWPOLYLINE
  5
3E2
100
AcDbEntity
  8
_O____
  6
CONTINUOUS
 62
             7
100
AcDbPolyline
 90
        3
 70
             0
 10
4056.1233630000002
 20
3469.2286865999999
 10
4054.0233629999998
 20
3469.2286865999999
 10
4054.0233629999998
 20
3469.2286865999999
  0
LWPOLYLINE
  5
3E0
100
AcDbEntity
  8
_O____
  6
CONTINUOUS
 62
             7
100
AcDbPolyline
 90
       15
 70
             0
 10
4056.1233630000002
 20
3469.1786866000002
 10
4056.1233630000002
 20
3443.1786866000002
 10
4056.1233629999988
 20
3443.1786866000002
 42
-0.41421399999975
 10
4054.1233630000002
 20
3441.1786866000002
 10
4054.1233630000002
 20
3441.1786866000002
 10
4028.1233630000002
 20
3441.1786866000002
 10
4028.1233630000002
 20
3441.1786866000002
 42
-0.41421399999995
 10
4026.1233630000002
 20
3443.1786866000002
 10
4026.1233630000002
 20
3443.1786866000002
 10
4026.1233630000002
 20
3469.1786866000002
 10
4026.1233630000002
 20
3469.1786866000002
 10
4026.1233630000002
 20
3469.1786866000002
 10
4026.1233630000002
 20
3469.1786866000002
 10
4026.1233630000002
 20
3469.1786866000002
 10
4026.1233630000002
 20
3469.1786866000002
  0
LWPOLYLINE
  5
3DE
100
AcDbEntity
  8
_O____
  6
CONTINUOUS
 62
             7
100
AcDbPolyline
 90
        3
 70
             0
 10
4028.0233629999998
 20
3469.1786866000002
 10
4026.1233630000002
 20
3469.1786866000002
 10
4026.1233630000002
 20
3469.1786866000002
  0
LWPOLYLINE
  5
3DC
100
AcDbEntity
  8
_O____
  6
CONTINUOUS
 62
             7
100
AcDbPolyline
 90
        3
 70
             0
 10
4026.1233630000002
 20
3471.1786866000002
 10
4028.2233630000001
 20
3471.1786866000002
 10
4028.2233630000001
 20
3471.1786866000002
  0
LWPOLYLINE
  5
3DA
100
AcDbEntity
  8
___S__
  6
CONTINUOUS
 62
             7
100
AcDbPolyline
 90
        3
 70
             0
 10
4028.2233630000001
 20
3471.1786866000002
 10
4028.2233630000001
 20
3464.1786866000002
 10
4028.2233630000001
 20
3464.1786866000002
  0
LWPOLYLINE
  5
3D8
100
AcDbEntity
  8
0
  6
DOTTED
 62
             7
100
AcDbPolyline
 90
       24
 70
             1
 10
4029.0233640000001
 20
3519.2786836000009
 42
0.41421400000008
 10
4028.5233639999992
 20
3518.7786836000009
 10
4028.5233640000001
 20
3518.7786836000009
 10
4028.5233640000001
 20
3510.5786836000002
 10
4028.5233640000001
 20
3510.5786836000002
 42
0.41421400000061
 10
4029.0233640000001
 20
3510.0786836000002
 10
4029.0233640000001
 20
3510.0786836000002
 10
4037.2233639999999
 20
3510.0786836000002
 10
4037.2233639999999
 20
3510.0786836000002
 42
0.41421400000061
 10
4037.7233639999999
 20
3510.5786836000002
 10
4037.7233639999999
 20
3510.5786836000002
 10
4037.7233639999999
 20
3518.7786836000009
 10
4037.7233639999999
 20
3518.7786836000009
 42
0.41421400000008
 10
4037.2233639999999
 20
3519.2786836
 10
4037.2233639999999
 20
3519.2786836000009
 10
4029.0233640000001
 20
3519.2786836000009
 10
4029.0233640000001
 20
3519.2786836000009
 10
4029.0233640000001
 20
3519.2786836000009
 10
4029.0233640000001
 20
3519.2786836000009
 10
4029.0233640000001
 20
3519.2786836000009
 10
4029.0233640000001
 20
3519.2786836000009
 10
4029.0233640000001
 20
3519.2786836000009
 10
4029.0233640000001
 20
3519.2786836000009
 10
4029.0233640000001
 20
3519.2786836000009
  0
LWPOLYLINE
  5
3D6
100
AcDbEntity
  8
0
  6
DOTTED
 62
             7
100
AcDbPolyline
 90
        9
 70
             0
 10
4036.498364
 20
3514.6786836000001
 10
4036.498364
 20
3514.6786836000001
 10
4036.4983639999991
 20
3514.6786836000001
 42
-2.41421400000104
 10
4033.123364
 20
3518.0536836000001
 10
4033.123364
 20
3518.0536836000001
 42
-0.41421400000004
 10
4036.498364
 20
3514.6786836000001
 10
4036.498364
 20
3514.6786836000001
 10
4036.498364
 20
3514.6786836000001
 10
4036.498364
 20
3514.6786836000001
  0
LWPOLYLINE
  5
3D4
100
AcDbEntity
  8
0
  6
DOTTED
 62
             7
100
AcDbPolyline
 90
        9
 70
             0
 10
4036.424974
 20
3513.9786835999998
 10
4037.7233639999999
 20
3513.9786835999998
 10
4037.7233639999999
 20
3513.9786835999998
 10
4037.7233639999999
 20
3515.3786835999999
 10
4037.7233639999999
 20
3515.3786835999999
 10
4036.424974
 20
3515.3786835999999
 10
4036.424974
 20
3515.3786835999999
 10
4036.424974
 20
3515.3786835999999
 10
4036.424974
 20
3515.3786835999999
  0
LWPOLYLINE
  5
3D2
100
AcDbEntity
  8
0
  6
DOTTED
 62
             7
100
AcDbPolyline
 90
        9
 70
             0
 10
4029.8217549999999
 20
3515.3786835999999
 10
4028.5233640000001
 20
3515.3786835999999
 10
4028.5233640000001
 20
3515.3786835999999
 10
4028.5233640000001
 20
3513.9786835999998
 10
4028.5233640000001
 20
3513.9786835999998
 10
4029.8217549999999
 20
3513.9786835999998
 10
4029.8217549999999
 20
3513.9786835999998
 10
4029.8217549999999
 20
3513.9786835999998
 10
4029.8217549999999
 20
3513.9786835999998
  0
LWPOLYLINE
  5
3D0
100
AcDbEntity
  8
0
  6
DOTTED
 62
             7
100
AcDbPolyline
 90
        9
 70
             0
 10
4033.8233639999999
 20
3517.9802926000002
 10
4033.8233639999999
 20
3519.2786836000009
 10
4033.8233639999999
 20
3519.2786836000009
 10
4032.4233640000002
 20
3519.2786836000009
 10
4032.4233640000002
 20
3519.2786836000009
 10
4032.4233640000002
 20
3517.9802926000002
 10
4032.4233640000002
 20
3517.9802926000002
 10
4032.4233640000002
 20
3517.9802926000002
 10
4032.4233640000002
 20
3517.9802926000002
  0
LWPOLYLINE
  5
3CE
100
AcDbEntity
  8
0
  6
DOTTED
 62
             7
100
AcDbPolyline
 90
        9
 70
             0
 10
4032.4233640000002
 20
3511.3770736000001
 10
4032.4233640000002
 20
3510.0786836000002
 10
4032.4233640000002
 20
3510.0786836000002
 10
4033.8233639999999
 20
3510.0786836000002
 10
4033.8233639999999
 20
3510.0786836000002
 10
4033.8233639999999
 20
3511.3770736000001
 10
4033.8233639999999
 20
3511.3770736000001
 10
4033.8233639999999
 20
3511.3770736000001
 10
4033.8233639999999
 20
3511.3770736000001
  0
LWPOLYLINE
  5
3CC
100
AcDbEntity
  8
0
  6
DOTTED
 62
             7
100
AcDbPolyline
 90
        3
 70
             0
 10
4032.5733639999999
 20
3512.7786836000009
 10
4033.6733640000002
 20
3512.7786836000009
 10
4033.6733640000002
 20
3512.7786836000009
  0
LWPOLYLINE
  5
3CA
100
AcDbEntity
  8
0
  6
DOTTED
 62
             7
100
AcDbPolyline
 90
        3
 70
             0
 10
4032.5733639999999
 20
3516.5786836000002
 10
4033.6733640000002
 20
3516.5786836000002
 10
4033.6733640000002
 20
3516.5786836000002
  0
LWPOLYLINE
  5
3C8
100
AcDbEntity
  8
0
  6
DOTTED
 62
             7
100
AcDbPolyline
 90
        3
 70
             0
 10
4032.5733639999999
 20
3512.7786836000009
 10
4032.5733639999999
 20
3514.1286835999999
 10
4032.5733639999999
 20
3514.1286835999999
  0
LWPOLYLINE
  5
3C6
100
AcDbEntity
  8
0
  6
DOTTED
 62
             7
100
AcDbPolyline
 90
        3
 70
             0
 10
4032.5733639999999
 20
3515.2286835999998
 10
4032.5733639999999
 20
3516.5786836000002
 10
4032.5733639999999
 20
3516.5786836000002
  0
LWPOLYLINE
  5
3C4
100
AcDbEntity
  8
0
  6
DOTTED
 62
             7
100
AcDbPolyline
 90
        3
 70
             0
 10
4033.6733640000002
 20
3512.7786836000009
 10
4033.6733640000002
 20
3514.1286835999999
 10
4033.6733640000002
 20
3514.1286835999999
  0
LWPOLYLINE
  5
3C2
100
AcDbEntity
  8
0
  6
DOTTED
 62
             7
100
AcDbPolyline
 90
        3
 70
             0
 10
4033.6733640000002
 20
3515.2286835999998
 10
4033.6733640000002
 20
3516.5786836000002
 10
4033.6733640000002
 20
3516.5786836000002
  0
LWPOLYLINE
  5
3C0
100
AcDbEntity
  8
0
  6
DOTTED
 62
             7
100
AcDbPolyline
 90
        3
 70
             0
 10
4029.748364
 20
3514.1286835999999
 10
4032.5733639999999
 20
3514.1286835999999
 10
4032.5733639999999
 20
3514.1286835999999
  0
LWPOLYLINE
  5
3BE
100
AcDbEntity
  8
0
  6
DOTTED
 62
             7
100
AcDbPolyline
 90
        3
 70
             0
 10
4033.6733640000002
 20
3514.1286835999999
 10
4036.498364
 20
3514.1286835999999
 10
4036.498364
 20
3514.1286835999999
  0
LWPOLYLINE
  5
3BC
100
AcDbEntity
  8
0
  6
DOTTED
 62
             7
100
AcDbPolyline
 90
        3
 70
             0
 10
4029.748364
 20
3515.2286835999998
 10
4032.5733639999999
 20
3515.2286835999998
 10
4032.5733639999999
 20
3515.2286835999998
  0
LWPOLYLINE
  5
3BA
100
AcDbEntity
  8
0
  6
DOTTED
 62
             7
100
AcDbPolyline
 90
        3
 70
             0
 10
4033.6733640000002
 20
3515.2286835999998
 10
4036.498364
 20
3515.2286835999998
 10
4036.498364
 20
3515.2286835999998
  0
LWPOLYLINE
  5
3B8
100
AcDbEntity
  8
0
  6
DOTTED
 62
             7
100
AcDbPolyline
 90
       24
 70
             1
 10
4045.0233640000001
 20
3519.2786836000009
 42
0.41421400000008
 10
4044.5233639999992
 20
3518.7786836000009
 10
4044.5233640000001
 20
3518.7786836000009
 10
4044.5233640000001
 20
3510.5786836000002
 10
4044.5233640000001
 20
3510.5786836000002
 42
0.41421400000061
 10
4045.0233640000001
 20
3510.0786836000002
 10
4045.0233640000001
 20
3510.0786836000002
 10
4053.2233639999999
 20
3510.0786836000002
 10
4053.2233639999999
 20
3510.0786836000002
 42
0.41421400000061
 10
4053.7233639999999
 20
3510.5786836000002
 10
4053.7233639999999
 20
3510.5786836000002
 10
4053.7233639999999
 20
3518.7786836000009
 10
4053.7233639999999
 20
3518.7786836000009
 42
0.41421400000008
 10
4053.2233639999999
 20
3519.2786836
 10
4053.2233639999999
 20
3519.2786836000009
 10
4045.0233640000001
 20
3519.2786836000009
 10
4045.0233640000001
 20
3519.2786836000009
 10
4045.0233640000001
 20
3519.2786836000009
 10
4045.0233640000001
 20
3519.2786836000009
 10
4045.0233640000001
 20
3519.2786836000009
 10
4045.0233640000001
 20
3519.2786836000009
 10
4045.0233640000001
 20
3519.2786836000009
 10
4045.0233640000001
 20
3519.2786836000009
 10
4045.0233640000001
 20
3519.2786836000009
  0
LWPOLYLINE
  5
3B6
100
AcDbEntity
  8
0
  6
DOTTED
 62
             7
100
AcDbPolyline
 90
        9
 70
             0
 10
4052.498364
 20
3514.6786836000001
 10
4052.498364
 20
3514.6786836000001
 10
4052.4983639999991
 20
3514.6786836000001
 42
-2.41421400000104
 10
4049.123364
 20
3518.0536836000001
 10
4049.123364
 20
3518.0536836000001
 42
-0.41421400000004
 10
4052.498364
 20
3514.6786836000001
 10
4052.498364
 20
3514.6786836000001
 10
4052.498364
 20
3514.6786836000001
 10
4052.498364
 20
3514.6786836000001
  0
LWPOLYLINE
  5
3B4
100
AcDbEntity
  8
0
  6
DOTTED
 62
             7
100
AcDbPolyline
 90
        9
 70
             0
 10
4052.424974
 20
3513.9786835999998
 10
4053.7233639999999
 20
3513.9786835999998
 10
4053.7233639999999
 20
3513.9786835999998
 10
4053.7233639999999
 20
3515.3786835999999
 10
4053.7233639999999
 20
3515.3786835999999
 10
4052.424974
 20
3515.3786835999999
 10
4052.424974
 20
3515.3786835999999
 10
4052.424974
 20
3515.3786835999999
 10
4052.424974
 20
3515.3786835999999
  0
LWPOLYLINE
  5
3B2
100
AcDbEntity
  8
0
  6
DOTTED
 62
             7
100
AcDbPolyline
 90
        9
 70
             0
 10
4045.8217549999999
 20
3515.3786835999999
 10
4044.5233640000001
 20
3515.3786835999999
 10
4044.5233640000001
 20
3515.3786835999999
 10
4044.5233640000001
 20
3513.9786835999998
 10
4044.5233640000001
 20
3513.9786835999998
 10
4045.8217549999999
 20
3513.9786835999998
 10
4045.8217549999999
 20
3513.9786835999998
 10
4045.8217549999999
 20
3513.9786835999998
 10
4045.8217549999999
 20
3513.9786835999998
  0
LWPOLYLINE
  5
3B0
100
AcDbEntity
  8
0
  6
DOTTED
 62
             7
100
AcDbPolyline
 90
        9
 70
             0
 10
4049.8233639999989
 20
3517.9802926000002
 10
4049.8233639999989
 20
3519.2786836000009
 10
4049.8233639999989
 20
3519.2786836000009
 10
4048.4233640000002
 20
3519.2786836000009
 10
4048.4233640000002
 20
3519.2786836000009
 10
4048.4233640000002
 20
3517.9802926000002
 10
4048.4233640000002
 20
3517.9802926000002
 10
4048.4233640000002
 20
3517.9802926000002
 10
4048.4233640000002
 20
3517.9802926000002
  0
LWPOLYLINE
  5
3AE
100
AcDbEntity
  8
0
  6
DOTTED
 62
             7
100
AcDbPolyline
 90
        9
 70
             0
 10
4048.4233640000002
 20
3511.3770736000001
 10
4048.4233640000002
 20
3510.0786836000002
 10
4048.4233640000002
 20
3510.0786836000002
 10
4049.8233639999989
 20
3510.0786836000002
 10
4049.8233639999989
 20
3510.0786836000002
 10
4049.8233639999989
 20
3511.3770736000001
 10
4049.8233639999989
 20
3511.3770736000001
 10
4049.8233639999989
 20
3511.3770736000001
 10
4049.8233639999989
 20
3511.3770736000001
  0
LWPOLYLINE
  5
3AC
100
AcDbEntity
  8
0
  6
DOTTED
 62
             7
100
AcDbPolyline
 90
        3
 70
             0
 10
4048.5733639999989
 20
3512.7786836000009
 10
4049.6733640000002
 20
3512.7786836000009
 10
4049.6733640000002
 20
3512.7786836000009
  0
LWPOLYLINE
  5
3AA
100
AcDbEntity
  8
0
  6
DOTTED
 62
             7
100
AcDbPolyline
 90
        3
 70
             0
 10
4048.5733639999989
 20
3516.5786836000002
 10
4049.6733640000002
 20
3516.5786836000002
 10
4049.6733640000002
 20
3516.5786836000002
  0
LWPOLYLINE
  5
3A8
100
AcDbEntity
  8
0
  6
DOTTED
 62
             7
100
AcDbPolyline
 90
        3
 70
             0
 10
4048.5733639999989
 20
3512.7786836000009
 10
4048.5733639999989
 20
3514.1286835999999
 10
4048.5733639999989
 20
3514.1286835999999
  0
LWPOLYLINE
  5
3A6
100
AcDbEntity
  8
0
  6
DOTTED
 62
             7
100
AcDbPolyline
 90
        3
 70
             0
 10
4048.5733639999989
 20
3515.2286835999998
 10
4048.5733639999989
 20
3516.5786836000002
 10
4048.5733639999989
 20
3516.5786836000002
  0
LWPOLYLINE
  5
3A4
100
AcDbEntity
  8
0
  6
DOTTED
 62
             7
100
AcDbPolyline
 90
        3
 70
             0
 10
4049.6733640000002
 20
3512.7786836000009
 10
4049.6733640000002
 20
3514.1286835999999
 10
4049.6733640000002
 20
3514.1286835999999
  0
LWPOLYLINE
  5
3A2
100
AcDbEntity
  8
0
  6
DOTTED
 62
             7
100
AcDbPolyline
 90
        3
 70
             0
 10
4049.6733640000002
 20
3515.2286835999998
 10
4049.6733640000002
 20
3516.5786836000002
 10
4049.6733640000002
 20
3516.5786836000002
  0
LWPOLYLINE
  5
3A0
100
AcDbEntity
  8
0
  6
DOTTED
 62
             7
100
AcDbPolyline
 90
        3
 70
             0
 10
4045.748364
 20
3514.1286835999999
 10
4048.5733639999989
 20
3514.1286835999999
 10
4048.5733639999989
 20
3514.1286835999999
  0
LWPOLYLINE
  5
39E
100
AcDbEntity
  8
0
  6
DOTTED
 62
             7
100
AcDbPolyline
 90
        3
 70
             0
 10
4049.6733640000002
 20
3514.1286835999999
 10
4052.498364
 20
3514.1286835999999
 10
4052.498364
 20
3514.1286835999999
  0
LWPOLYLINE
  5
39C
100
AcDbEntity
  8
0
  6
DOTTED
 62
             7
100
AcDbPolyline
 90
        3
 70
             0
 10
4045.748364
 20
3515.2286835999998
 10
4048.5733639999989
 20
3515.2286835999998
 10
4048.5733639999989
 20
3515.2286835999998
  0
LWPOLYLINE
  5
39A
100
AcDbEntity
  8
0
  6
DOTTED
 62
             7
100
AcDbPolyline
 90
        3
 70
             0
 10
4049.6733640000002
 20
3515.2286835999998
 10
4052.498364
 20
3515.2286835999998
 10
4052.498364
 20
3515.2286835999998
  0
LWPOLYLINE
  5
398
100
AcDbEntity
  8
0
  6
DOTTED
 62
             7
100
AcDbPolyline
 90
        9
 70
             0
 10
4029.4844549999998
 20
3447.5411826
 10
4028.3483639999999
 20
3447.5411826
 10
4028.3483639999999
 20
3447.5411826
 10
4028.3483639999999
 20
3446.3161826
 10
4028.3483639999999
 20
3446.3161826
 10
4029.4844549999998
 20
3446.3161826
 10
4029.4844549999998
 20
3446.3161826
 10
4029.4844549999998
 20
3446.3161826
 10
4029.4844549999998
 20
3446.3161826
  0
LWPOLYLINE
  5
396
100
AcDbEntity
  8
0
  6
DOTTED
 62
             7
100
AcDbPolyline
 90
        9
 70
             0
 10
4032.9858640000002
 20
3449.8175916000009
 10
4032.9858640000002
 20
3450.9536825999999
 10
4032.9858640000002
 20
3450.9536825999999
 10
4031.7608639999989
 20
3450.9536825999999
 10
4031.7608639999989
 20
3450.9536825999999
 10
4031.7608639999989
 20
3449.8175916000009
 10
4031.7608639999989
 20
3449.8175916000009
 10
4031.7608639999989
 20
3449.8175916000009
 10
4031.7608639999989
 20
3449.8175916000009
  0
LWPOLYLINE
  5
394
100
AcDbEntity
  8
0
  6
DOTTED
 62
             7
100
AcDbPolyline
 90
        9
 70
             0
 10
4031.7608639999989
 20
3444.0397745999999
 10
4031.7608639999989
 20
3442.9036826000001
 10
4031.7608639999989
 20
3442.9036826000001
 10
4032.9858640000002
 20
3442.9036826000001
 10
4032.9858640000002
 20
3442.9036826000001
 10
4032.9858640000002
 20
3444.0397745999999
 10
4032.9858640000002
 20
3444.0397745999999
 10
4032.9858640000002
 20
3444.0397745999999
 10
4032.9858640000002
 20
3444.0397745999999
  0
LWPOLYLINE
  5
392
100
AcDbEntity
  8
0
  6
DOTTED
 62
             7
100
AcDbPolyline
 90
       24
 70
             1
 10
4046.2858649999998
 20
3450.9536825999999
 42
0.41421399999932
 10
4045.8483650000003
 20
3450.5161825999999
 10
4045.8483649999989
 20
3450.5161825999999
 10
4045.8483649999989
 20
3443.3411826000001
 10
4045.8483649999989
 20
3443.3411826000001
 42
0.41421399999932
 10
4046.2858649999998
 20
3442.9036825999988
 10
4046.2858649999998
 20
3442.9036826000001
 10
4053.460865
 20
3442.9036826000001
 10
4053.460865
 20
3442.9036826000001
 42
0.41421399999962
 10
4053.898365
 20
3443.3411826000001
 10
4053.898365
 20
3443.3411826000001
 10
4053.898365
 20
3450.5161825999999
 10
4053.898365
 20
3450.5161825999999
 42
0.41421399999962
 10
4053.460865
 20
3450.9536825999999
 10
4053.460865
 20
3450.9536825999999
 10
4046.2858649999998
 20
3450.9536825999999
 10
4046.2858649999998
 20
3450.9536825999999
 10
4046.2858649999998
 20
3450.9536825999999
 10
4046.2858649999998
 20
3450.9536825999999
 10
4046.2858649999998
 20
3450.9536825999999
 10
4046.2858649999998
 20
3450.9536825999999
 10
4046.2858649999998
 20
3450.9536825999999
 10
4046.2858649999998
 20
3450.9536825999999
 10
4046.2858649999998
 20
3450.9536825999999
  0
LWPOLYLINE
  5
390
100
AcDbEntity
  8
0
  6
DOTTED
 62
             7
100
AcDbPolyline
 90
        9
 70
             0
 10
4052.8264899999999
 20
3446.9286825999998
 10
4052.8264899999999
 20
3446.9286825999998
 10
4052.8264899999999
 20
3446.9286825999998
 42
-2.41421400000032
 10
4049.8733649999999
 20
3449.8818075999998
 10
4049.8733649999999
 20
3449.8818076000002
 42
-0.41421399999994
 10
4052.8264899999999
 20
3446.9286825999998
 10
4052.8264899999999
 20
3446.9286825999998
 10
4052.8264899999999
 20
3446.9286825999998
 10
4052.8264899999999
 20
3446.9286825999998
  0
LWPOLYLINE
  5
38E
100
AcDbEntity
  8
0
  6
DOTTED
 62
             7
100
AcDbPolyline
 90
        9
 70
             0
 10
4052.7622729999998
 20
3446.3161826
 10
4053.898365
 20
3446.3161826
 10
4053.898365
 20
3446.3161826
 10
4053.898365
 20
3447.5411826
 10
4053.898365
 20
3447.5411826
 10
4052.7622729999998
 20
3447.5411826
 10
4052.7622729999998
 20
3447.5411826
 10
4052.7622729999998
 20
3447.5411826
 10
4052.7622729999998
 20
3447.5411826
  0
LWPOLYLINE
  5
38C
100
AcDbEntity
  8
0
  6
DOTTED
 62
             7
100
AcDbPolyline
 90
        9
 70
             0
 10
4046.9844560000001
 20
3447.5411826
 10
4045.8483649999989
 20
3447.5411826
 10
4045.8483649999989
 20
3447.5411826
 10
4045.8483649999989
 20
3446.3161826
 10
4045.8483649999989
 20
3446.3161826
 10
4046.9844560000001
 20
3446.3161826
 10
4046.9844560000001
 20
3446.3161826
 10
4046.9844560000001
 20
3446.3161826
 10
4046.9844560000001
 20
3446.3161826
  0
LWPOLYLINE
  5
38A
100
AcDbEntity
  8
0
  6
DOTTED
 62
             7
100
AcDbPolyline
 90
        9
 70
             0
 10
4050.4858650000001
 20
3449.8175916000009
 10
4050.4858650000001
 20
3450.9536825999999
 10
4050.4858650000001
 20
3450.9536825999999
 10
4049.2608650000002
 20
3450.9536825999999
 10
4049.2608650000002
 20
3450.9536825999999
 10
4049.2608650000002
 20
3449.8175916000009
 10
4049.2608650000002
 20
3449.8175916000009
 10
4049.2608650000002
 20
3449.8175916000009
 10
4049.2608650000002
 20
3449.8175916000009
  0
LWPOLYLINE
  5
388
100
AcDbEntity
  8
0
  6
DOTTED
 62
             7
100
AcDbPolyline
 90
        9
 70
             0
 10
4049.2608650000002
 20
3444.0397745999999
 10
4049.2608650000002
 20
3442.9036826000001
 10
4049.2608650000002
 20
3442.9036826000001
 10
4050.4858650000001
 20
3442.9036826000001
 10
4050.4858650000001
 20
3442.9036826000001
 10
4050.4858650000001
 20
3444.0397745999999
 10
4050.4858650000001
 20
3444.0397745999999
 10
4050.4858650000001
 20
3444.0397745999999
 10
4050.4858650000001
 20
3444.0397745999999
  0
LWPOLYLINE
  5
386
100
AcDbEntity
  8
0
  6
DOTTED
 62
             7
100
AcDbPolyline
 90
        3
 70
             0
 10
4049.3921150000001
 20
3445.2661825999999
 10
4050.3546150000002
 20
3445.2661825999999
 10
4050.3546150000002
 20
3445.2661825999999
  0
LWPOLYLINE
  5
384
100
AcDbEntity
  8
0
  6
DOTTED
 62
             7
100
AcDbPolyline
 90
        3
 70
             0
 10
4049.3921150000001
 20
3448.5911826000001
 10
4050.3546150000002
 20
3448.5911826000001
 10
4050.3546150000002
 20
3448.5911826000001
  0
LWPOLYLINE
  5
382
100
AcDbEntity
  8
0
  6
DOTTED
 62
             7
100
AcDbPolyline
 90
        3
 70
             0
 10
4049.3921150000001
 20
3445.2661825999999
 10
4049.3921150000001
 20
3446.4474326
 10
4049.3921150000001
 20
3446.4474326
  0
LWPOLYLINE
  5
380
100
AcDbEntity
  8
0
  6
DOTTED
 62
             7
100
AcDbPolyline
 90
        3
 70
             0
 10
4049.3921150000001
 20
3447.4099326
 10
4049.3921150000001
 20
3448.5911826000001
 10
4049.3921150000001
 20
3448.5911826000001
  0
LWPOLYLINE
  5
37E
100
AcDbEntity
  8
0
  6
DOTTED
 62
             7
100
AcDbPolyline
 90
        3
 70
             0
 10
4050.3546150000002
 20
3445.2661825999999
 10
4050.3546150000002
 20
3446.4474326
 10
4050.3546150000002
 20
3446.4474326
  0
LWPOLYLINE
  5
37C
100
AcDbEntity
  8
0
  6
DOTTED
 62
             7
100
AcDbPolyline
 90
        3
 70
             0
 10
4050.3546150000002
 20
3447.4099326
 10
4050.3546150000002
 20
3448.5911826000001
 10
4050.3546150000002
 20
3448.5911826000001
  0
LWPOLYLINE
  5
37A
100
AcDbEntity
  8
0
  6
DOTTED
 62
             7
100
AcDbPolyline
 90
        3
 70
             0
 10
4046.9202399999999
 20
3446.4474326
 10
4049.3921150000001
 20
3446.4474326
 10
4049.3921150000001
 20
3446.4474326
  0
LWPOLYLINE
  5
378
100
AcDbEntity
  8
0
  6
DOTTED
 62
             7
100
AcDbPolyline
 90
        3
 70
             0
 10
4050.3546150000002
 20
3446.4474326
 10
4052.8264899999999
 20
3446.4474326
 10
4052.8264899999999
 20
3446.4474326
  0
LWPOLYLINE
  5
376
100
AcDbEntity
  8
0
  6
DOTTED
 62
             7
100
AcDbPolyline
 90
        3
 70
             0
 10
4046.9202399999999
 20
3447.4099326
 10
4049.3921150000001
 20
3447.4099326
 10
4049.3921150000001
 20
3447.4099326
  0
LWPOLYLINE
  5
374
100
AcDbEntity
  8
0
  6
DOTTED
 62
             7
100
AcDbPolyline
 90
        3
 70
             0
 10
4050.3546150000002
 20
3447.4099326
 10
4052.8264899999999
 20
3447.4099326
 10
4052.8264899999999
 20
3447.4099326
  0
LWPOLYLINE
  5
372
100
AcDbEntity
  8
_O____
  6
CONTINUOUS
 62
             7
100
AcDbPolyline
 90
        3
 70
             0
 10
4026.1233630000002
 20
3519.1786866000002
 10
4026.1233630000002
 20
3493.1786866000002
 10
4026.1233630000002
 20
3493.1786866000002
  0
LWPOLYLINE
  5
370
100
AcDbEntity
  8
_O____
  6
CONTINUOUS
 62
             7
100
AcDbPolyline
 90
        3
 70
             0
 10
4028.1233630000002
 20
3521.1786866000002
 42
0.41421399999988
 10
4026.1233629999997
 20
3519.1786866000002
 10
4026.1233629999997
 20
3519.1786866000002
  0
LWPOLYLINE
  5
36E
100
AcDbEntity
  8
_O____
  6
CONTINUOUS
 62
             7
100
AcDbPolyline
 90
        3
 70
             0
 10
4054.1233630000002
 20
3521.1786866000002
 10
4028.1233630000002
 20
3521.1786866000002
 10
4028.1233630000002
 20
3521.1786866000002
  0
LWPOLYLINE
  5
36C
100
AcDbEntity
  8
_O____
  6
CONTINUOUS
 62
             7
100
AcDbPolyline
 90
        3
 70
             0
 10
4056.1233630000002
 20
3519.1786866000002
 42
0.41421399999968
 10
4054.1233630000002
 20
3521.1786866000011
 10
4054.1233630000002
 20
3521.1786866000011
  0
LWPOLYLINE
  5
36A
100
AcDbEntity
  8
_O____
  6
CONTINUOUS
 62
             7
100
AcDbPolyline
 90
        3
 70
             0
 10
4056.1233630000002
 20
3493.1786866000002
 10
4056.1233630000002
 20
3519.1786866000002
 10
4056.1233630000002
 20
3519.1786866000002
  0
LWPOLYLINE
  5
368
100
AcDbEntity
  8
_O____
  6
CONTINUOUS
 62
             7
100
AcDbPolyline
 90
        3
 70
             0
 10
4026.1233630000002
 20
3493.1786866000002
 10
4028.0233629999998
 20
3493.1786866000002
 10
4028.0233629999998
 20
3493.1786866000002
  0
LWPOLYLINE
  5
366
100
AcDbEntity
  8
_O____
  6
CONTINUOUS
 62
             7
100
AcDbPolyline
 90
        3
 70
             0
 10
4054.2233630000001
 20
3493.1786866000002
 10
4056.1233630000002
 20
3493.1786866000002
 10
4056.1233630000002
 20
3493.1786866000002
  0
LWPOLYLINE
  5
364
100
AcDbEntity
  8
_O____
  6
CONTINUOUS
 62
             7
100
AcDbPolyline
 90
        3
 70
             0
 10
4029.0233640000001
 20
3498.1786866000002
 10
4053.2233620000002
 20
3498.1786866000002
 10
4053.2233620000002
 20
3498.1786866000002
  0
LWPOLYLINE
  5
362
100
AcDbEntity
  8
_O____
  6
CONTINUOUS
 62
             7
100
AcDbPolyline
 90
        3
 70
             0
 10
4055.1233630000002
 20
3493.1786866000002
 10
4055.1233630000002
 20
3520.9107376000002
 10
4055.1233630000002
 20
3520.9107376000002
  0
LWPOLYLINE
  5
360
100
AcDbEntity
  8
_O____
  6
CONTINUOUS
 62
             7
100
AcDbPolyline
 90
        3
 70
             0
 10
4027.1233630000002
 20
3520.9107376000002
 10
4027.1233630000002
 20
3493.1786866000002
 10
4027.1233630000002
 20
3493.1786866000002
  0
LWPOLYLINE
  5
35E
100
AcDbEntity
  8
_O____
  6
CONTINUOUS
 62
             7
100
AcDbPolyline
 90
        3
 70
             0
 10
4053.2228110000001
 20
3499.6786876000001
 10
4029.0228099999999
 20
3499.6786876000001
 10
4029.0228099999999
 20
3499.6786876000001
  0
LWPOLYLINE
  5
35C
100
AcDbEntity
  8
_O____
  6
CONTINUOUS
 62
             7
100
AcDbPolyline
 90
        9
 70
             0
 10
4045.3733630000002
 20
3514.6786866000002
 10
4045.3733630000002
 20
3514.6786866000002
 10
4045.3733630000006
 20
3514.6786866000002
 42
-2.41421399999955
 10
4049.1233630000002
 20
3510.9286866000002
 10
4049.1233630000002
 20
3510.9286865999998
 42
-0.41421400000004
 10
4045.3733630000002
 20
3514.6786866000002
 10
4045.3733630000002
 20
3514.6786866000002
 10
4045.3733630000002
 20
3514.6786866000002
 10
4045.3733630000002
 20
3514.6786866000002
  0
LWPOLYLINE
  5
35A
100
AcDbEntity
  8
_O____
  6
CONTINUOUS
 62
             7
100
AcDbPolyline
 90
        9
 70
             0
 10
4033.135572749803
 20
3518.4435624595021
 10
4033.135572749803
 20
3518.4435624595021
 10
4033.135572749803
 20
3518.4435624595012
 42
-2.41421400000017
 10
4029.385572749803
 20
3514.6935624595021
 10
4029.3855727498021
 20
3514.6935624595021
 42
-0.41421399999994
 10
4033.135572749803
 20
3518.4435624595021
 10
4033.135572749803
 20
3518.4435624595021
 10
4033.135572749803
 20
3518.4435624595021
 10
4033.135572749803
 20
3518.4435624595021
  0
LWPOLYLINE
  5
358
100
AcDbEntity
  8
_O____
  6
CONTINUOUS
 62
             7
100
AcDbPolyline
 90
        3
 70
             0
 10
4033.6233649999999
 20
3469.6786916000001
 10
4033.6233649999999
 20
3471.6786916000001
 10
4033.6233649999999
 20
3471.6786916000001
  0
LWPOLYLINE
  5
356
100
AcDbEntity
  8
_O____
  6
CONTINUOUS
 62
             7
100
AcDbPolyline
 90
        3
 70
             0
 10
4048.6233649999999
 20
3471.6786916000001
 10
4048.6233649999999
 20
3469.6786916000001
 10
4048.6233649999999
 20
3469.6786916000001
  0
LWPOLYLINE
  5
354
100
AcDbEntity
  8
_O____
  6
CONTINUOUS
 62
             7
100
AcDbPolyline
 90
        3
 70
             0
 10
4032.1233649999999
 20
3469.1786916000001
 10
4032.1233649999999
 20
3472.1786916000001
 10
4032.1233649999999
 20
3472.1786916000001
  0
LWPOLYLINE
  5
352
100
AcDbEntity
  8
_O____
  6
CONTINUOUS
 62
             7
100
AcDbPolyline
 90
        3
 70
             0
 10
4050.1233649999999
 20
3472.1786916000001
 10
4050.1233649999999
 20
3469.1786916000001
 10
4050.1233649999999
 20
3469.1786916000001
  0
LWPOLYLINE
  5
350
100
AcDbEntity
  8
_O____
  6
CONTINUOUS
 62
             7
100
AcDbPolyline
 90
        3
 70
             0
 10
4032.1233649999999
 20
3472.1786916000001
 10
4050.1233649999999
 20
3472.1786916000001
 10
4050.1233649999999
 20
3472.1786916000001
  0
LWPOLYLINE
  5
34E
100
AcDbEntity
  8
_O____
  6
CONTINUOUS
 62
             7
100
AcDbPolyline
 90
        3
 70
             0
 10
4050.1233649999999
 20
3469.1786916000001
 10
4032.1233649999999
 20
3469.1786916000001
 10
4032.1233649999999
 20
3469.1786916000001
  0
LWPOLYLINE
  5
34C
100
AcDbEntity
  8
_O____
  6
CONTINUOUS
 62
             7
100
AcDbPolyline
 90
        3
 70
             0
 10
4033.6233649999999
 20
3469.6786916000001
 10
4048.6233649999999
 20
3469.6786916000001
 10
4048.6233649999999
 20
3469.6786916000001
  0
LWPOLYLINE
  5
34A
100
AcDbEntity
  8
_O____
  6
CONTINUOUS
 62
             7
100
AcDbPolyline
 90
        3
 70
             0
 10
4033.6233649999999
 20
3471.6786916000001
 10
4048.6233649999999
 20
3471.6786916000001
 10
4048.6233649999999
 20
3471.6786916000001
  0
LWPOLYLINE
  5
348
100
AcDbEntity
  8
_O____
  6
CONTINUOUS
 62
             7
100
AcDbPolyline
 90
        3
 70
             0
 10
4032.1233649999999
 20
3493.1786815999999
 10
4032.1233649999999
 20
3490.1786815999999
 10
4032.1233649999999
 20
3490.1786815999999
  0
LWPOLYLINE
  5
346
100
AcDbEntity
  8
_O____
  6
CONTINUOUS
 62
             7
100
AcDbPolyline
 90
        3
 70
             0
 10
4050.1233649999999
 20
3490.1786815999999
 10
4050.1233649999999
 20
3493.1786815999999
 10
4050.1233649999999
 20
3493.1786815999999
  0
LWPOLYLINE
  5
344
100
AcDbEntity
  8
_O____
  6
CONTINUOUS
 62
             7
100
AcDbPolyline
 90
        3
 70
             0
 10
4032.1233649999999
 20
3490.1786815999999
 10
4050.1233649999999
 20
3490.1786815999999
 10
4050.1233649999999
 20
3490.1786815999999
  0
LWPOLYLINE
  5
342
100
AcDbEntity
  8
_O____
  6
CONTINUOUS
 62
             7
100
AcDbPolyline
 90
        3
 70
             0
 10
4050.1233649999999
 20
3493.1786815999999
 10
4032.1233649999999
 20
3493.1786815999999
 10
4032.1233649999999
 20
3493.1786815999999
  0
LWPOLYLINE
  5
340
100
AcDbEntity
  8
___S__
  6
CENTER
 62
             7
100
AcDbPolyline
 90
        3
 70
             0
 10
4043.9643120000001
 20
3494.9786865999999
 10
4044.032944
 20
3494.9786865999999
 10
4044.032944
 20
3494.9786865999999
  0
LWPOLYLINE
  5
33E
100
AcDbEntity
  8
___S__
  6
CENTER
 62
             7
100
AcDbPolyline
 90
        3
 70
             0
 10
4043.9643120000001
 20
3467.3786866
 10
4044.032944
 20
3467.3786866
 10
4044.032944
 20
3467.3786866
  0
LWPOLYLINE
  5
33C
100
AcDbEntity
  8
_O____
  6
CONTINUOUS
 62
             7
100
AcDbPolyline
 90
        3
 70
             0
 10
4056.1233630000002
 20
3443.1786866000002
 10
4056.1233630000002
 20
3469.1786866000002
 10
4056.1233630000002
 20
3469.1786866000002
  0
LWPOLYLINE
  5
33A
100
AcDbEntity
  8
_O____
  6
CONTINUOUS
 62
             7
100
AcDbPolyline
 90
        3
 70
             0
 10
4054.1233630000002
 20
3441.1786866000002
 42
0.41421399999975
 10
4056.1233629999988
 20
3443.1786866000002
 10
4056.1233629999988
 20
3443.1786866000002
  0
LWPOLYLINE
  5
338
100
AcDbEntity
  8
_O____
  6
CONTINUOUS
 62
             7
100
AcDbPolyline
 90
        3
 70
             0
 10
4028.1233630000002
 20
3441.1786866000002
 10
4054.1233630000002
 20
3441.1786866000002
 10
4054.1233630000002
 20
3441.1786866000002
  0
LWPOLYLINE
  5
336
100
AcDbEntity
  8
_O____
  6
CONTINUOUS
 62
             7
100
AcDbPolyline
 90
        3
 70
             0
 10
4026.1233630000002
 20
3443.1786866000002
 42
0.41421399999995
 10
4028.1233630000002
 20
3441.1786866000002
 10
4028.1233630000002
 20
3441.1786866000002
  0
LWPOLYLINE
  5
334
100
AcDbEntity
  8
_O____
  6
CONTINUOUS
 62
             7
100
AcDbPolyline
 90
        3
 70
             0
 10
4026.1233630000002
 20
3469.1786866000002
 10
4026.1233630000002
 20
3443.1786866000002
 10
4026.1233630000002
 20
3443.1786866000002
  0
LWPOLYLINE
  5
332
100
AcDbEntity
  8
_O____
  6
CONTINUOUS
 62
             7
100
AcDbPolyline
 90
        3
 70
             0
 10
4056.1233630000002
 20
3469.1786866000002
 10
4054.2233630000001
 20
3469.1786866000002
 10
4054.2233630000001
 20
3469.1786866000002
  0
LWPOLYLINE
  5
330
100
AcDbEntity
  8
_O____
  6
CONTINUOUS
 62
             7
100
AcDbPolyline
 90
        3
 70
             0
 10
4028.0233629999998
 20
3469.1786866000002
 10
4026.1233630000002
 20
3469.1786866000002
 10
4026.1233630000002
 20
3469.1786866000002
  0
LWPOLYLINE
  5
32E
100
AcDbEntity
  8
_O____
  6
CONTINUOUS
 62
             7
100
AcDbPolyline
 90
        3
 70
             0
 10
4053.2233620000002
 20
3464.1786866000002
 10
4029.0233640000001
 20
3464.1786866000002
 10
4029.0233640000001
 20
3464.1786866000002
  0
LWPOLYLINE
  5
32C
100
AcDbEntity
  8
_O____
  6
CONTINUOUS
 62
             7
100
AcDbPolyline
 90
        3
 70
             0
 10
4027.1233630000002
 20
3469.1786866000002
 10
4027.1233630000002
 20
3441.4466355999998
 10
4027.1233630000002
 20
3441.4466355999998
  0
LWPOLYLINE
  5
32A
100
AcDbEntity
  8
_O____
  6
CONTINUOUS
 62
             7
100
AcDbPolyline
 90
        3
 70
             0
 10
4055.1233630000002
 20
3441.4466355999998
 10
4055.1233630000002
 20
3469.1786866000002
 10
4055.1233630000002
 20
3469.1786866000002
  0
LWPOLYLINE
  5
328
100
AcDbEntity
  8
_O____
  6
CONTINUOUS
 62
             7
100
AcDbPolyline
 90
        3
 70
             0
 10
4029.0239150000002
 20
3462.6786866000002
 10
4053.2239159999999
 20
3462.6786866000002
 10
4053.2239159999999
 20
3462.6786866000002
  0
LWPOLYLINE
  5
326
100
AcDbEntity
  8
_O____
  6
CONTINUOUS
 62
             7
100
AcDbPolyline
 90
        9
 70
             0
 10
4035.6233630000002
 20
3446.9286866000002
 10
4035.6233630000002
 20
3446.9286866000002
 10
4035.6233630000002
 20
3446.9286866000002
 42
-2.41421399999978
 10
4032.3733630000002
 20
3450.1786866000002
 10
4032.3733630000002
 20
3450.1786866000002
 42
-0.41421399999992
 10
4035.6233630000002
 20
3446.9286866000002
 10
4035.6233630000002
 20
3446.9286866000002
 10
4035.6233630000002
 20
3446.9286866000002
 10
4035.6233630000002
 20
3446.9286866000002
  0
LWPOLYLINE
  5
324
100
AcDbEntity
  8
_O____
  6
CONTINUOUS
 62
             7
100
AcDbPolyline
 90
        9
 70
             0
 10
4053.1233630000002
 20
3446.9286866000002
 10
4053.1233630000002
 20
3446.9286866000002
 10
4053.1233630000002
 20
3446.9286866000002
 42
-2.41421399999978
 10
4049.8733630000002
 20
3450.1786866000002
 10
4049.8733630000002
 20
3450.1786866000002
 42
-0.41421399999992
 10
4053.1233630000002
 20
3446.9286866000002
 10
4053.1233630000002
 20
3446.9286866000002
 10
4053.1233630000002
 20
3446.9286866000002
 10
4053.1233630000002
 20
3446.9286866000002
  0
LWPOLYLINE
  5
322
100
AcDbEntity
  8
0
  6
CONTINUOUS
 62
             7
100
AcDbPolyline
 90
        3
 70
             0
 10
4091.1233630000002
 20
3468.6812616000002
 10
4091.1233630000002
 20
3493.6761115999998
 10
4091.1233630000002
 20
3493.6761115999998
  0
LWPOLYLINE
  5
320
100
AcDbEntity
  8
0
  6
CONTINUOUS
 62
             7
100
AcDbPolyline
 90
        3
 70
             0
 10
4091.1233630000002
 20
3494.1789856000009
 10
4091.1233630000002
 20
3494.1786866000002
 10
4091.1233630000002
 20
3494.1786866000002
  0
LWPOLYLINE
  5
31E
100
AcDbEntity
  8
_O____
  6
CONTINUOUS
 62
             7
100
AcDbPolyline
 90
        3
 70
             0
 10
4095.9247650000002
 20
3467.6786866000002
 10
4097.0183899999993
 20
3467.6786866000002
 10
4097.0183899999993
 20
3467.6786866000002
  0
LWPOLYLINE
  5
31C
100
AcDbEntity
  8
_O____
  6
CONTINUOUS
 62
             7
100
AcDbPolyline
 90
        3
 70
             0
 10
4095.9247650000002
 20
3494.6786866000002
 10
4097.0183899999993
 20
3494.6786866000002
 10
4097.0183899999993
 20
3494.6786866000002
  0
LWPOLYLINE
  5
31A
100
AcDbEntity
  8
0
  6
CONTINUOUS
 62
             7
100
AcDbPolyline
 90
        3
 70
             0
 10
4098.1233629999997
 20
3469.2286865999999
 10
4098.1233629999997
 20
3493.1286866
 10
4098.1233629999997
 20
3493.1286866
  0
LWPOLYLINE
  5
318
100
AcDbEntity
  8
0
  6
CONTINUOUS
 62
             7
100
AcDbPolyline
 90
        3
 70
             0
 10
4098.1233629999997
 20
3493.1286866
 10
4096.1233629999997
 20
3493.1286866
 10
4096.1233629999997
 20
3493.1286866
  0
LWPOLYLINE
  5
316
100
AcDbEntity
  8
_O____
  6
CONTINUOUS
 62
             7
100
AcDbPolyline
 90
        3
 70
             0
 10
4096.1233629999997
 20
3493.1286866
 10
4091.1233630000002
 20
3491.1786866000002
 10
4091.1233630000002
 20
3491.1786866000002
  0
LWPOLYLINE
  5
314
100
AcDbEntity
  8
_O____
  6
CONTINUOUS
 62
             7
100
AcDbPolyline
 90
        3
 70
             0
 10
4096.1233629999997
 20
3469.2286865999999
 10
4091.1233630000002
 20
3471.1786866000002
 10
4091.1233630000002
 20
3471.1786866000002
  0
LWPOLYLINE
  5
312
100
AcDbEntity
  8
0
  6
CONTINUOUS
 62
             7
100
AcDbPolyline
 90
        3
 70
             0
 10
4098.1183899999996
 20
3521.1786866000002
 10
4119.6233629999997
 20
3521.1786866000002
 10
4119.6233629999997
 20
3521.1786866000002
  0
LWPOLYLINE
  5
310
100
AcDbEntity
  8
0
  6
CONTINUOUS
 62
             7
100
AcDbPolyline
 90
        3
 70
             0
 10
4119.6233629999997
 20
3441.1786866000002
 10
4098.1183899999996
 20
3441.1786866000002
 10
4098.1183899999996
 20
3441.1786866000002
  0
LWPOLYLINE
  5
30E
100
AcDbEntity
  8
0
  6
CONTINUOUS
 62
             7
100
AcDbPolyline
 90
        3
 70
             0
 10
4098.1132340000004
 20
3493.1783196000001
 10
4098.1183899999996
 20
3521.1786866000002
 10
4098.1183899999996
 20
3521.1786866000002
  0
LWPOLYLINE
  5
30C
100
AcDbEntity
  8
0
  6
CONTINUOUS
 62
             7
100
AcDbPolyline
 90
        3
 70
             0
 10
4098.1132340000004
 20
3469.1786866000002
 10
4096.1183899999996
 20
3469.1786866000002
 10
4096.1183899999996
 20
3469.1786866000002
  0
LWPOLYLINE
  5
30A
100
AcDbEntity
  8
0
  6
CONTINUOUS
 62
             7
100
AcDbPolyline
 90
        3
 70
             0
 10
4098.1132340000004
 20
3469.1790535999999
 10
4098.1183899999996
 20
3441.1786866000002
 10
4098.1183899999996
 20
3441.1786866000002
  0
LWPOLYLINE
  5
308
100
AcDbEntity
  8
_O____
  6
CONTINUOUS
 62
             7
100
AcDbPolyline
 90
        3
 70
             0
 10
4098.1180219999997
 20
3519.1786866000002
 10
4119.6233629999997
 20
3519.1786866000002
 10
4119.6233629999997
 20
3519.1786866000002
  0
LWPOLYLINE
  5
306
100
AcDbEntity
  8
_O____
  6
CONTINUOUS
 62
             7
100
AcDbPolyline
 90
        3
 70
             0
 10
4098.1180219999997
 20
3443.1786866000002
 10
4119.6233629999997
 20
3443.1786866000002
 10
4119.6233629999997
 20
3443.1786866000002
  0
LWPOLYLINE
  5
304
100
AcDbEntity
  8
0
  6
CONTINUOUS
 62
             7
100
AcDbPolyline
 90
        3
 70
             0
 10
4096.1183899999996
 20
3464.1786866000002
 10
4096.1183899999996
 20
3465.6786866000002
 10
4096.1183899999996
 20
3465.6786866000002
  0
LWPOLYLINE
  5
302
100
AcDbEntity
  8
0
  6
CONTINUOUS
 62
             7
100
AcDbPolyline
 90
        3
 70
             0
 10
4096.1183899999996
 20
3498.1786866000002
 10
4096.1183899999996
 20
3496.6786866000002
 10
4096.1183899999996
 20
3496.6786866000002
  0
LWPOLYLINE
  5
300
100
AcDbEntity
  8
0
  6
CONTINUOUS
 62
             7
100
AcDbPolyline
 90
        3
 70
             0
 10
4097.0183899999993
 20
3467.3786866
 10
4096.1183899999996
 20
3465.6786866000002
 10
4096.1183899999996
 20
3465.6786866000002
  0
LWPOLYLINE
  5
2FE
100
AcDbEntity
  8
0
  6
CONTINUOUS
 62
             7
100
AcDbPolyline
 90
        3
 70
             0
 10
4097.0183899999993
 20
3467.3786866
 10
4097.0183899999993
 20
3467.6786866000002
 10
4097.0183899999993
 20
3467.6786866000002
  0
LWPOLYLINE
  5
2FC
100
AcDbEntity
  8
0
  6
CONTINUOUS
 62
             7
100
AcDbPolyline
 90
        3
 70
             0
 10
4097.0183899999993
 20
3494.9786865999999
 10
4096.1183899999996
 20
3496.6786866000002
 10
4096.1183899999996
 20
3496.6786866000002
  0
LWPOLYLINE
  5
2FA
100
AcDbEntity
  8
0
  6
CONTINUOUS
 62
             7
100
AcDbPolyline
 90
        3
 70
             0
 10
4097.0183899999993
 20
3494.9786865999999
 10
4097.0183899999993
 20
3494.6786866000002
 10
4097.0183899999993
 20
3494.6786866000002
  0
LWPOLYLINE
  5
2F8
100
AcDbEntity
  8
_O____
  6
CONTINUOUS
 62
             7
100
AcDbPolyline
 90
        9
 70
             0
 10
4096.1183899999996
 20
3469.1786866000002
 10
4096.1183899999996
 20
3468.5462785999998
 10
4096.1183899999996
 20
3468.5462785999998
 42
0.2507649999997
 10
4096.3410399999993
 20
3468.1302536000003
 10
4096.3410399999993
 20
3468.1302535999998
 10
4097.0183899999993
 20
3467.6786866000002
 10
4097.0183899999993
 20
3467.6786866000002
 10
4097.0183899999993
 20
3467.6786866000002
 10
4097.0183899999993
 20
3467.6786866000002
  0
LWPOLYLINE
  5
2F6
100
AcDbEntity
  8
_O____
  6
CONTINUOUS
 62
             7
100
AcDbPolyline
 90
        9
 70
             0
 10
4096.1183899999996
 20
3493.1786866000002
 10
4096.1183899999996
 20
3493.8110946000002
 10
4096.1183899999996
 20
3493.8110946000002
 42
-0.25076499999984
 10
4096.3410399999993
 20
3494.2271196000002
 10
4096.3410399999993
 20
3494.2271196000002
 10
4097.0183899999993
 20
3494.6786866000002
 10
4097.0183899999993
 20
3494.6786866000002
 10
4097.0183899999993
 20
3494.6786866000002
 10
4097.0183899999993
 20
3494.6786866000002
  0
LWPOLYLINE
  5
2F4
100
AcDbEntity
  8
0
  6
CONTINUOUS
 62
             7
100
AcDbPolyline
 90
        3
 70
             0
 10
4096.1318349999992
 20
3464.1794196000001
 10
4098.1226259999994
 20
3464.1786855999999
 10
4098.1226259999994
 20
3464.1786855999999
  0
LWPOLYLINE
  5
2F2
100
AcDbEntity
  8
0
  6
CONTINUOUS
 62
             7
100
AcDbPolyline
 90
        3
 70
             0
 10
4098.1226259999994
 20
3498.1786876000001
 10
4098.1183899999996
 20
3521.1786866000002
 10
4098.1183899999996
 20
3521.1786866000002
  0
LWPOLYLINE
  5
2F0
100
AcDbEntity
  8
0
  6
CONTINUOUS
 62
             7
100
AcDbPolyline
 90
        3
 70
             0
 10
4096.1318349999992
 20
3498.1779535999999
 10
4098.1226259999994
 20
3498.1786876000001
 10
4098.1226259999994
 20
3498.1786876000001
  0
LWPOLYLINE
  5
2EE
100
AcDbEntity
  8
0
  6
CONTINUOUS
 62
             7
100
AcDbPolyline
 90
        3
 70
             0
 10
4119.6233629999997
 20
3520.0786865999999
 10
4120.1233629999997
 20
3520.0786865999999
 10
4120.1233629999997
 20
3520.0786865999999
  0
LWPOLYLINE
  5
2EC
100
AcDbEntity
  8
0
  6
CONTINUOUS
 62
             7
100
AcDbPolyline
 90
        3
 70
             0
 10
4120.1233629999997
 20
3520.0786865999999
 10
4120.1233629999997
 20
3442.2786866000001
 10
4120.1233629999997
 20
3442.2786866000001
  0
LWPOLYLINE
  5
2EA
100
AcDbEntity
  8
0
  6
CONTINUOUS
 62
             7
100
AcDbPolyline
 90
        3
 70
             0
 10
4120.1233629999997
 20
3442.2786866000001
 10
4119.6233629999997
 20
3442.2786866000001
 10
4119.6233629999997
 20
3442.2786866000001
  0
LWPOLYLINE
  5
2E8
100
AcDbEntity
  8
0
  6
CONTINUOUS
 62
             7
100
AcDbPolyline
 90
        3
 70
             0
 10
4119.1233629999997
 20
3517.1786866000002
 10
4119.1233629999997
 20
3445.1786866000002
 10
4119.1233629999997
 20
3445.1786866000002
  0
LWPOLYLINE
  5
2E6
100
AcDbEntity
  8
0
  6
CONTINUOUS
 62
             7
100
AcDbPolyline
 90
        3
 70
             0
 10
4119.1233629999997
 20
3517.1786866000002
 10
4119.6233629999997
 20
3517.1786866000002
 10
4119.6233629999997
 20
3517.1786866000002
  0
LWPOLYLINE
  5
2E4
100
AcDbEntity
  8
0
  6
CONTINUOUS
 62
             7
100
AcDbPolyline
 90
        3
 70
             0
 10
4119.6233629999997
 20
3445.1786866000002
 10
4119.1233629999997
 20
3445.1786866000002
 10
4119.1233629999997
 20
3445.1786866000002
  0
LWPOLYLINE
  5
2E2
100
AcDbEntity
  8
0
  6
CONTINUOUS
 62
             7
100
AcDbPolyline
 90
        3
 70
             0
 10
4119.6233629999997
 20
3521.1786866000002
 10
4119.6233629999997
 20
3517.1786866000002
 10
4119.6233629999997
 20
3517.1786866000002
  0
LWPOLYLINE
  5
2E0
100
AcDbEntity
  8
0
  6
CONTINUOUS
 62
             7
100
AcDbPolyline
 90
        3
 70
             0
 10
4119.6233629999997
 20
3445.1786866000002
 10
4119.6233629999997
 20
3441.1786866000002
 10
4119.6233629999997
 20
3441.1786866000002
  0
LWPOLYLINE
  5
2DE
100
AcDbEntity
  8
0
  6
CONTINUOUS
 62
             7
100
AcDbPolyline
 90
        3
 70
             0
 10
4102.7346340000004
 20
3471.1602256000001
 10
4102.7121129999996
 20
3491.1602125999998
 10
4102.7121129999996
 20
3491.1602125999998
  0
LWPOLYLINE
  5
2DC
100
AcDbEntity
  8
0
  6
CONTINUOUS
 62
             7
100
AcDbPolyline
 90
        3
 70
             0
 10
4102.7121129999996
 20
3491.1602125999998
 10
4098.1145969999998
 20
3491.1550355999998
 10
4098.1145969999998
 20
3491.1550355999998
  0
LWPOLYLINE
  5
2DA
100
AcDbEntity
  8
0
  6
CONTINUOUS
 62
             7
100
AcDbPolyline
 90
        3
 70
             0
 10
4102.7346340000004
 20
3471.1602256000001
 10
4098.125857
 20
3471.1550355999998
 10
4098.125857
 20
3471.1550355999998
  0
LWPOLYLINE
  5
2D8
100
AcDbEntity
  8
0
  6
CONTINUOUS
 62
             7
100
AcDbPolyline
 90
        3
 70
             0
 10
4098.1141549999993
 20
3498.1786876000001
 10
4098.1183899999996
 20
3521.1786866000002
 10
4098.1183899999996
 20
3521.1786866000002
  0
LWPOLYLINE
  5
2D6
100
AcDbEntity
  8
0
  6
CONTINUOUS
 62
             7
100
AcDbPolyline
 90
        3
 70
             0
 10
4096.1233629999997
 20
3498.1786876000001
 10
4098.1141549999993
 20
3498.1786876000001
 10
4098.1141549999993
 20
3498.1786876000001
  0
LWPOLYLINE
  5
2D4
100
AcDbEntity
  8
_O____
  6
CONTINUOUS
 62
             7
100
AcDbPolyline
 90
        3
 70
             0
 10
4096.1233629999997
 20
3495.6786866000002
 10
4096.1233629999997
 20
3498.1786866000002
 10
4096.1233629999997
 20
3498.1786866000002
  0
LWPOLYLINE
  5
2D2
100
AcDbEntity
  8
_O____
  6
CONTINUOUS
 62
             7
100
AcDbPolyline
 90
        3
 70
             0
 10
4093.6233630000002
 20
3493.1786866000002
 42
0.41421400000003
 10
4096.1233629999997
 20
3495.6786866000002
 10
4096.1233629999997
 20
3495.6786866000002
  0
LWPOLYLINE
  5
2D0
100
AcDbEntity
  8
_O____
  6
CONTINUOUS
 62
             7
100
AcDbPolyline
 90
        3
 70
             0
 10
4091.1233630000002
 20
3497.9197605999998
 10
4091.1233630000002
 20
3495.6786866000002
 10
4091.1233630000002
 20
3495.6786866000002
  0
LWPOLYLINE
  5
2CE
100
AcDbEntity
  8
_O____
  6
CONTINUOUS
 62
             7
100
AcDbPolyline
 90
        3
 70
             0
 10
4091.167727999999
 20
3498.4337836
 42
0.04307400000001
 10
4091.1233629999988
 20
3497.9197605999998
 10
4091.1233629999988
 20
3497.9197605999998
  0
LWPOLYLINE
  5
2CC
100
AcDbEntity
  8
_O____
  6
CONTINUOUS
 62
             7
100
AcDbPolyline
 90
        3
 70
             0
 10
4098.1183899999996
 20
3521.1786866000002
 10
4097.6466539999992
 20
3521.1786866000002
 10
4097.6466539999992
 20
3521.1786866000002
  0
LWPOLYLINE
  5
2CA
100
AcDbEntity
  8
_O____
  6
CONTINUOUS
 62
             7
100
AcDbPolyline
 90
        3
 70
             0
 10
4097.6466539999992
 20
3521.1786866000002
 42
0.36463299999991
 10
4094.6910189999999
 20
3518.6927105999998
 10
4094.6910189999999
 20
3518.6927105999998
  0
LWPOLYLINE
  5
2C8
100
AcDbEntity
  8
_O____
  6
CONTINUOUS
 62
             7
100
AcDbPolyline
 90
        3
 70
             0
 10
4091.167727999999
 20
3498.4337836
 10
4094.6910189999999
 20
3518.6927105999998
 10
4094.6910189999999
 20
3518.6927105999998
  0
LWPOLYLINE
  5
2C6
100
AcDbEntity
  8
_O____
  6
CONTINUOUS
 62
             7
100
AcDbPolyline
 90
        9
 70
             0
 10
4093.6233630000002
 20
3493.1786866000002
 10
4091.4233629999999
 20
3493.1786866000002
 10
4091.4233629999999
 20
3493.1786865999998
 42
-0.4142140000007
 10
4091.1233630000002
 20
3493.4786865999999
 10
4091.1233630000002
 20
3493.4786865999999
 10
4091.1233630000002
 20
3495.6786866000002
 10
4091.1233630000002
 20
3495.6786866000002
 10
4091.1233630000002
 20
3495.6786866000002
 10
4091.1233630000002
 20
3495.6786866000002
  0
LWPOLYLINE
  5
2C4
100
AcDbEntity
  8
_O____
  6
CONTINUOUS
 62
             7
100
AcDbPolyline
 90
        3
 70
             0
 10
4093.9494499999992
 20
3514.4286866000002
 10
4093.6538860000001
 20
3514.4800885999998
 10
4093.6538860000001
 20
3514.4800885999998
  0
LWPOLYLINE
  5
2C2
100
AcDbEntity
  8
_O____
  6
CONTINUOUS
 62
             7
100
AcDbPolyline
 90
        3
 70
             0
 10
4094.3009159999988
 20
3516.4496175999998
 10
4094.005353
 20
3516.5010195999998
 10
4094.005353
 20
3516.5010195999998
  0
LWPOLYLINE
  5
2C0
100
AcDbEntity
  8
0
  6
CONTINUOUS
 62
             7
100
AcDbPolyline
 90
        3
 70
             0
 10
4098.1141549999993
 20
3464.1786855999999
 10
4098.1183899999996
 20
3441.1786866000002
 10
4098.1183899999996
 20
3441.1786866000002
  0
LWPOLYLINE
  5
2BE
100
AcDbEntity
  8
0
  6
CONTINUOUS
 62
             7
100
AcDbPolyline
 90
        3
 70
             0
 10
4096.1233629999997
 20
3464.1786866000002
 10
4098.1141549999993
 20
3464.1786855999999
 10
4098.1141549999993
 20
3464.1786855999999
  0
LWPOLYLINE
  5
2BC
100
AcDbEntity
  8
_O____
  6
CONTINUOUS
 62
             7
100
AcDbPolyline
 90
        3
 70
             0
 10
4096.1233629999997
 20
3466.6786866000002
 10
4096.1233629999997
 20
3464.1786866000002
 10
4096.1233629999997
 20
3464.1786866000002
  0
LWPOLYLINE
  5
2BA
100
AcDbEntity
  8
_O____
  6
CONTINUOUS
 62
             7
100
AcDbPolyline
 90
        3
 70
             0
 10
4096.1233629999997
 20
3466.6786866000002
 42
0.41421399999997
 10
4093.6233630000002
 20
3469.1786865999998
 10
4093.6233630000002
 20
3469.1786865999998
  0
LWPOLYLINE
  5
2B8
100
AcDbEntity
  8
_O____
  6
CONTINUOUS
 62
             7
100
AcDbPolyline
 90
        3
 70
             0
 10
4091.1233630000002
 20
3464.4376126000002
 10
4091.1233630000002
 20
3466.6786866000002
 10
4091.1233630000002
 20
3466.6786866000002
  0
LWPOLYLINE
  5
2B6
100
AcDbEntity
  8
_O____
  6
CONTINUOUS
 62
             7
100
AcDbPolyline
 90
        3
 70
             0
 10
4091.1233630000002
 20
3464.4376126000002
 42
0.04307399999994
 10
4091.1677279999999
 20
3463.9235896000009
 10
4091.1677279999999
 20
3463.9235896000009
  0
LWPOLYLINE
  5
2B4
100
AcDbEntity
  8
_O____
  6
CONTINUOUS
 62
             7
100
AcDbPolyline
 90
        3
 70
             0
 10
4098.1183899999996
 20
3441.1786866000002
 10
4097.6466539999992
 20
3441.1786866000002
 10
4097.6466539999992
 20
3441.1786866000002
  0
LWPOLYLINE
  5
2B2
100
AcDbEntity
  8
_O____
  6
CONTINUOUS
 62
             7
100
AcDbPolyline
 90
        3
 70
             0
 10
4094.6910189999999
 20
3443.6646636000009
 42
0.36463299999993
 10
4097.6466539999992
 20
3441.1786866000016
 10
4097.6466539999992
 20
3441.1786866000016
  0
LWPOLYLINE
  5
2B0
100
AcDbEntity
  8
_O____
  6
CONTINUOUS
 62
             7
100
AcDbPolyline
 90
        3
 70
             0
 10
4091.167727999999
 20
3463.9235896000009
 10
4094.6910189999999
 20
3443.6646636000009
 10
4094.6910189999999
 20
3443.6646636000009
  0
LWPOLYLINE
  5
2AE
100
AcDbEntity
  8
_O____
  6
CONTINUOUS
 62
             7
100
AcDbPolyline
 90
        9
 70
             0
 10
4093.6233630000002
 20
3469.1786866000002
 10
4091.4233629999999
 20
3469.1786866000002
 10
4091.4233629999999
 20
3469.1786866000002
 42
0.4142140000007
 10
4091.1233630000002
 20
3468.8786866
 10
4091.1233630000002
 20
3468.8786866
 10
4091.1233630000002
 20
3466.6786866000002
 10
4091.1233630000002
 20
3466.6786866000002
 10
4091.1233630000002
 20
3466.6786866000002
 10
4091.1233630000002
 20
3466.6786866000002
  0
LWPOLYLINE
  5
2AC
100
AcDbEntity
  8
_O____
  6
CONTINUOUS
 62
             7
100
AcDbPolyline
 90
        3
 70
             0
 10
4093.9494499999992
 20
3447.9286866000002
 10
4093.6538860000001
 20
3447.8772846000002
 10
4093.6538860000001
 20
3447.8772846000002
  0
LWPOLYLINE
  5
2AA
100
AcDbEntity
  8
_O____
  6
CONTINUOUS
 62
             7
100
AcDbPolyline
 90
        3
 70
             0
 10
4094.3009159999988
 20
3445.9077566000001
 10
4094.005353
 20
3445.8563536000001
 10
4094.005353
 20
3445.8563536000001
  0
LWPOLYLINE
  5
2A8
100
AcDbEntity
  8
_O____
  6
CONTINUOUS
 62
             7
100
AcDbPolyline
 90
       15
 70
             0
 10
4119.123372
 20
3461.6602186000009
 10
4105.1233729999994
 20
3461.6602186000009
 10
4105.1233729999994
 20
3461.6602185999996
 42
-0.41421399999995
 10
4104.1233729999994
 20
3462.6602186000009
 10
4104.1233729999994
 20
3462.6602186000009
 10
4104.1233729999994
 20
3499.6602186000009
 10
4104.1233729999994
 20
3499.6602186000009
 42
-0.41421399999941
 10
4105.1233729999994
 20
3500.6602186000009
 10
4105.1233729999994
 20
3500.6602186000009
 10
4119.1233739999998
 20
3500.6602186000009
 10
4119.1233739999998
 20
3500.6602186000009
 10
4119.1233739999998
 20
3500.6602186000009
 10
4119.1233739999998
 20
3500.6602186000009
 10
4119.1233739999998
 20
3500.6602186000009
 10
4119.1233739999998
 20
3500.6602186000009
  0
LWPOLYLINE
  5
2A6
100
AcDbEntity
  8
0
  6
CONTINUOUS
 62
             7
100
AcDbPolyline
 90
       24
 70
             1
 10
4106.6233729999994
 20
3500.1786866000002
 42
0.41421399999981
 10
4104.6233729999994
 20
3498.1786866000002
 10
4104.6233729999994
 20
3498.1786866000002
 10
4104.6233729999994
 20
3464.1786866000002
 10
4104.6233729999994
 20
3464.1786866000002
 42
0.41421399999988
 10
4106.6233729999994
 20
3462.1786865999998
 10
4106.6233729999994
 20
3462.1786866000002
 10
4115.6233729999994
 20
3462.1786866000002
 10
4115.6233729999994
 20
3462.1786866000002
 42
0.41421399999988
 10
4117.6233729999985
 20
3464.1786866000002
 10
4117.6233729999994
 20
3464.1786866000002
 10
4117.6233729999994
 20
3498.1786866000002
 10
4117.6233729999994
 20
3498.1786866000002
 42
0.41421399999981
 10
4115.6233729999994
 20
3500.1786866000002
 10
4115.6233729999994
 20
3500.1786866000002
 10
4106.6233729999994
 20
3500.1786866000002
 10
4106.6233729999994
 20
3500.1786866000002
 10
4106.6233729999994
 20
3500.1786866000002
 10
4106.6233729999994
 20
3500.1786866000002
 10
4106.6233729999994
 20
3500.1786866000002
 10
4106.6233729999994
 20
3500.1786866000002
 10
4106.6233729999994
 20
3500.1786866000002
 10
4106.6233729999994
 20
3500.1786866000002
 10
4106.6233729999994
 20
3500.1786866000002
  0
LWPOLYLINE
  5
2A4
100
AcDbEntity
  8
0
  6
CONTINUOUS
 62
             7
100
AcDbPolyline
 90
        3
 70
             0
 10
4093.6538860000001
 20
3447.8772846000002
 10
4094.005353
 20
3445.8563536000001
 10
4094.005353
 20
3445.8563536000001
  0
LWPOLYLINE
  5
2A2
100
AcDbEntity
  8
0
  6
CONTINUOUS
 62
             7
100
AcDbPolyline
 90
        3
 70
             0
 10
4093.6538860000001
 20
3514.4800885999998
 10
4094.005353
 20
3516.5010195999998
 10
4094.005353
 20
3516.5010195999998
  0
LWPOLYLINE
  5
2A0
100
AcDbEntity
  8
_O____
  6
CONTINUOUS
 62
             7
100
AcDbPolyline
 90
        3
 70
             0
 10
4029.0250209999999
 20
3502.6831425999999
 10
4029.0233640000001
 20
3498.1831436000002
 10
4029.0233640000001
 20
3498.1831436000002
  0
LWPOLYLINE
  5
29E
100
AcDbEntity
  8
_O____
  6
CONTINUOUS
 62
             7
100
AcDbPolyline
 90
        3
 70
             0
 10
4028.0233629999998
 20
3493.1786866000002
 10
4028.0233629999998
 20
3502.6833276000002
 10
4028.0233629999998
 20
3502.6833276000002
  0
LWPOLYLINE
  5
29C
100
AcDbEntity
  8
_O____
  6
CONTINUOUS
 62
             7
100
AcDbPolyline
 90
        3
 70
             0
 10
4029.025036999999
 20
3459.6313556000009
 10
4029.0233640000001
 20
3464.1742296000002
 10
4029.0233640000001
 20
3464.1742296000002
  0
LWPOLYLINE
  5
29A
100
AcDbEntity
  8
_O____
  6
CONTINUOUS
 62
             7
100
AcDbPolyline
 90
        3
 70
             0
 10
4028.0233629999998
 20
3469.1786866000002
 10
4028.0233629999998
 20
3459.6740456000002
 10
4028.0233629999998
 20
3459.6740456000002
  0
LWPOLYLINE
  5
298
100
AcDbEntity
  8
_O____
  6
CONTINUOUS
 62
             7
100
AcDbPolyline
 90
        3
 70
             0
 10
4029.026863
 20
3502.6831425999999
 42
0.41421400000008
 10
4028.527047
 20
3503.1833266000003
 10
4028.527047
 20
3503.1833266000003
  0
LWPOLYLINE
  5
296
100
AcDbEntity
  8
_O____
  6
CONTINUOUS
 62
             7
100
AcDbPolyline
 90
        3
 70
             0
 10
4028.5235469999998
 20
3503.1833276000002
 42
0.4143210000001
 10
4028.0233629999989
 20
3502.6833276000002
 10
4028.0233629999989
 20
3502.6833276000002
  0
LWPOLYLINE
  5
294
100
AcDbEntity
  8
_O____
  6
CONTINUOUS
 62
             7
100
AcDbPolyline
 90
        3
 70
             0
 10
4053.2217049999999
 20
3502.6831425999999
 10
4053.2233620000002
 20
3498.1831436000002
 10
4053.2233620000002
 20
3498.1831436000002
  0
LWPOLYLINE
  5
292
100
AcDbEntity
  8
_O____
  6
CONTINUOUS
 62
             7
100
AcDbPolyline
 90
        3
 70
             0
 10
4054.2233630000001
 20
3493.1786866000002
 10
4054.2233630000001
 20
3502.6833276000002
 10
4054.2233630000001
 20
3502.6833276000002
  0
LWPOLYLINE
  5
290
100
AcDbEntity
  8
_O____
  6
CONTINUOUS
 62
             7
100
AcDbPolyline
 90
        3
 70
             0
 10
4053.7196789999998
 20
3503.1833265999999
 42
0.41421400000008
 10
4053.2198630000003
 20
3502.6831425999999
 10
4053.2198630000003
 20
3502.6831425999999
  0
LWPOLYLINE
  5
28E
100
AcDbEntity
  8
_O____
  6
CONTINUOUS
 62
             7
100
AcDbPolyline
 90
        3
 70
             0
 10
4054.2233630000001
 20
3502.6833276000002
 42
0.41432099999957
 10
4053.7231790000001
 20
3503.1833276000002
 10
4053.7231790000001
 20
3503.1833276000002
  0
LWPOLYLINE
  5
28C
100
AcDbEntity
  8
_O____
  6
CONTINUOUS
 62
             7
100
AcDbPolyline
 90
        3
 70
             0
 10
4028.527047
 20
3459.1740466000001
 42
0.41421399999991
 10
4029.026863
 20
3459.6742316
 10
4029.026863
 20
3459.6742316
  0
LWPOLYLINE
  5
28A
100
AcDbEntity
  8
_O____
  6
CONTINUOUS
 62
             7
100
AcDbPolyline
 90
        3
 70
             0
 10
4028.0233629999998
 20
3459.6740456000002
 42
0.41432099999957
 10
4028.5235469999998
 20
3459.1740455999993
 10
4028.5235469999998
 20
3459.1740455999993
  0
LWPOLYLINE
  5
288
100
AcDbEntity
  8
_O____
  6
CONTINUOUS
 62
             7
100
AcDbPolyline
 90
        3
 70
             0
 10
4053.2211080000002
 20
3459.6246716000001
 10
4053.2252920000001
 20
3464.167543600001
 10
4053.2252920000001
 20
3464.167543600001
  0
LWPOLYLINE
  5
286
100
AcDbEntity
  8
_O____
  6
CONTINUOUS
 62
             7
100
AcDbPolyline
 90
        3
 70
             0
 10
4054.2280569999998
 20
3469.1714476000002
 10
4054.2228060000002
 20
3459.6668086
 10
4054.2228060000002
 20
3459.6668086
  0
LWPOLYLINE
  5
284
100
AcDbEntity
  8
_O____
  6
CONTINUOUS
 62
             7
100
AcDbPolyline
 90
        3
 70
             0
 10
4053.219306
 20
3459.6675476
 42
0.41421400000008
 10
4053.7188460000002
 20
3459.1670875999998
 10
4053.7188460000002
 20
3459.1670875999998
  0
LWPOLYLINE
  5
282
100
AcDbEntity
  8
_O____
  6
CONTINUOUS
 62
             7
100
AcDbPolyline
 90
        3
 70
             0
 10
4053.722346
 20
3459.1670846000002
 42
0.41432099999983
 10
4054.2228059999998
 20
3459.6668086
 10
4054.2228059999998
 20
3459.6668086
  0
LWPOLYLINE
  5
280
100
AcDbEntity
  8
_O____
  6
CONTINUOUS
 62
             7
100
AcDbPolyline
 90
        3
 70
             0
 10
4187.1233629999997
 20
3463.3786866
 10
4191.1233629999997
 20
3463.3786866
 10
4191.1233629999997
 20
3463.3786866
  0
LWPOLYLINE
  5
27E
100
AcDbEntity
  8
_O____
  6
CONTINUOUS
 62
             7
100
AcDbPolyline
 90
        3
 70
             0
 10
4191.1233629999997
 20
3463.3786866
 10
4191.1233629999997
 20
3441.3786866
 10
4191.1233629999997
 20
3441.3786866
  0
LWPOLYLINE
  5
27C
100
AcDbEntity
  8
_O____
  6
CONTINUOUS
 62
             7
100
AcDbPolyline
 90
        3
 70
             0
 10
4191.1233629999997
 20
3441.3786866
 10
4187.1233629999997
 20
3441.3786866
 10
4187.1233629999997
 20
3441.3786866
  0
LWPOLYLINE
  5
27A
100
AcDbEntity
  8
_O____
  6
CONTINUOUS
 62
             7
100
AcDbPolyline
 90
        3
 70
             0
 10
4187.1233629999997
 20
3498.6786866000002
 10
4191.1233629999997
 20
3498.6786866000002
 10
4191.1233629999997
 20
3498.6786866000002
  0
LWPOLYLINE
  5
278
100
AcDbEntity
  8
_O____
  6
CONTINUOUS
 62
             7
100
AcDbPolyline
 90
        3
 70
             0
 10
4188.1233629999997
 20
3498.6786866000002
 10
4188.6233629999997
 20
3496.6786866000002
 10
4188.6233629999997
 20
3496.6786866000002
  0
LWPOLYLINE
  5
276
100
AcDbEntity
  8
_O____
  6
CONTINUOUS
 62
             7
100
AcDbPolyline
 90
        3
 70
             0
 10
4188.6233629999997
 20
3496.6786866000002
 10
4191.1233629999997
 20
3496.6786866000002
 10
4191.1233629999997
 20
3496.6786866000002
  0
LWPOLYLINE
  5
274
100
AcDbEntity
  8
_O____
  6
CONTINUOUS
 62
             7
100
AcDbPolyline
 90
        3
 70
             0
 10
4191.1233629999997
 20
3496.6786866000002
 10
4191.1233629999997
 20
3500.6786866000002
 10
4191.1233629999997
 20
3500.6786866000002
  0
LWPOLYLINE
  5
272
100
AcDbEntity
  8
_O____
  6
CONTINUOUS
 62
             7
100
AcDbPolyline
 90
        3
 70
             0
 10
4191.1233629999997
 20
3531.1786866000002
 10
4187.1233629999997
 20
3531.1786866000002
 10
4187.1233629999997
 20
3531.1786866000002
  0
LWPOLYLINE
  5
270
100
AcDbEntity
  8
_O____
  6
CONTINUOUS
 62
             7
100
AcDbPolyline
 90
        3
 70
             0
 10
4191.1233629999997
 20
3441.3786866
 10
4191.1233629999997
 20
3463.3786866
 10
4191.1233629999997
 20
3463.3786866
  0
LWPOLYLINE
  5
26E
100
AcDbEntity
  8
_O____
  6
CONTINUOUS
 62
             7
100
AcDbPolyline
 90
        3
 70
             0
 10
4191.1233629999997
 20
3496.6786866000002
 10
4191.1233629999997
 20
3531.1786866000002
 10
4191.1233629999997
 20
3531.1786866000002
  0
LWPOLYLINE
  5
26C
100
AcDbEntity
  8
_O____
  6
CONTINUOUS
 62
             7
100
AcDbPolyline
 90
        3
 70
             0
 10
4187.1233629999997
 20
3498.6786866000002
 10
4187.1233629999997
 20
3463.3786866
 10
4187.1233629999997
 20
3463.3786866
  0
LWPOLYLINE
  5
26A
100
AcDbEntity
  8
_O____
  6
CONTINUOUS
 62
             7
100
AcDbPolyline
 90
        3
 70
             0
 10
4187.1233629999997
 20
3441.3786866
 10
4187.1233629999997
 20
3436.1786866000002
 10
4187.1233629999997
 20
3436.1786866000002
  0
LWPOLYLINE
  5
268
100
AcDbEntity
  8
_O____
  6
CONTINUOUS
 62
             7
100
AcDbPolyline
 90
        3
 70
             0
 10
4183.1233629999997
 20
3521.1786866000002
 10
4183.1233629999997
 20
3436.1786866000002
 10
4183.1233629999997
 20
3436.1786866000002
  0
LWPOLYLINE
  5
266
100
AcDbEntity
  8
_O____
  6
CONTINUOUS
 62
             7
100
AcDbPolyline
 90
        3
 70
             0
 10
4191.1233629999997
 20
3528.9786865999999
 10
4187.1233629999997
 20
3528.9786865999999
 10
4187.1233629999997
 20
3528.9786865999999
  0
LWPOLYLINE
  5
264
100
AcDbEntity
  8
_O____
  6
CONTINUOUS
 62
             7
100
AcDbPolyline
 90
        3
 70
             0
 10
4187.1233629999997
 20
3531.1786866000002
 10
4187.1233629999997
 20
3521.1786866000002
 10
4187.1233629999997
 20
3521.1786866000002
  0
LWPOLYLINE
  5
262
100
AcDbEntity
  8
_O____
  6
CONTINUOUS
 62
             7
100
AcDbPolyline
 90
        3
 70
             0
 10
4187.1233629999997
 20
3521.1786866000002
 10
4183.1233629999997
 20
3521.1786866000002
 10
4183.1233629999997
 20
3521.1786866000002
  0
LWPOLYLINE
  5
260
100
AcDbEntity
  8
_O____
  6
CONTINUOUS
 62
             7
100
AcDbPolyline
 90
        3
 70
             0
 10
4183.1233629999997
 20
3436.1786866000002
 10
4187.1233629999997
 20
3436.1786866000002
 10
4187.1233629999997
 20
3436.1786866000002
  0
LWPOLYLINE
  5
25E
100
AcDbEntity
  8
_O____
  6
CONTINUOUS
 62
             7
100
AcDbPolyline
 90
        3
 70
             0
 10
4187.1233629999997
 20
3438.3786866
 10
4183.1233629999997
 20
3438.3786866
 10
4183.1233629999997
 20
3438.3786866
  0
LWPOLYLINE
  5
25C
100
AcDbEntity
  8
_O____
  6
CONTINUOUS
 62
             7
100
AcDbPolyline
 90
        3
 70
             0
 10
4188.1233629999997
 20
3465.3786866
 10
4189.1233629999997
 20
3465.3786866
 10
4189.1233629999997
 20
3465.3786866
  0
LWPOLYLINE
  5
25A
100
AcDbEntity
  8
_O____
  6
CONTINUOUS
 62
             7
100
AcDbPolyline
 90
        3
 70
             0
 10
4191.1233629999997
 20
3462.3786866
 10
4191.1233629999997
 20
3431.3786866
 10
4191.1233629999997
 20
3431.3786866
  0
LWPOLYLINE
  5
258
100
AcDbEntity
  8
_O____
  6
CONTINUOUS
 62
             7
100
AcDbPolyline
 90
        3
 70
             0
 10
4191.1233629999997
 20
3431.3786866
 10
4187.1233629999997
 20
3431.3786866
 10
4187.1233629999997
 20
3431.3786866
  0
LWPOLYLINE
  5
256
100
AcDbEntity
  8
_O____
  6
CONTINUOUS
 62
             7
100
AcDbPolyline
 90
        3
 70
             0
 10
4187.1233629999997
 20
3431.3786866
 10
4187.1233629999997
 20
3463.3786866
 10
4187.1233629999997
 20
3463.3786866
  0
LWPOLYLINE
  5
254
100
AcDbEntity
  8
_O____
  6
CONTINUOUS
 62
             7
100
AcDbPolyline
 90
        3
 70
             0
 10
4191.1233629999997
 20
3433.3786866
 10
4187.1233629999997
 20
3433.3786866
 10
4187.1233629999997
 20
3433.3786866
  0
LWPOLYLINE
  5
252
100
AcDbEntity
  8
_O____
  6
CONTINUOUS
 62
             7
100
AcDbPolyline
 90
        3
 70
             0
 10
4191.1233629999997
 20
3436.3786866
 10
4187.1233629999997
 20
3436.3786866
 10
4187.1233629999997
 20
3436.3786866
  0
LWPOLYLINE
  5
250
100
AcDbEntity
  8
_O____
  6
CONTINUOUS
 62
             7
100
AcDbPolyline
 90
        3
 70
             0
 10
4191.1233629999997
 20
3441.3786866
 10
4188.9233629999999
 20
3441.3786866
 10
4188.9233629999999
 20
3441.3786866
  0
LWPOLYLINE
  5
24E
100
AcDbEntity
  8
_O____
  6
CONTINUOUS
 62
             7
100
AcDbPolyline
 90
        3
 70
             0
 10
4188.9233629999999
 20
3463.3786866
 10
4187.1233629999997
 20
3463.3786866
 10
4187.1233629999997
 20
3463.3786866
  0
LWPOLYLINE
  5
24C
100
AcDbEntity
  8
_O____
  6
CONTINUOUS
 62
             7
100
AcDbPolyline
 90
        3
 70
             0
 10
4188.1233629999997
 20
3463.3786866
 10
4188.1233629999997
 20
3465.3786866
 10
4188.1233629999997
 20
3465.3786866
  0
LWPOLYLINE
  5
24A
100
AcDbEntity
  8
_O____
  6
CONTINUOUS
 62
             7
100
AcDbPolyline
 90
        3
 70
             0
 10
4189.1233629999997
 20
3465.3786866
 10
4190.4566959999993
 20
3463.3786866
 10
4190.4566959999993
 20
3463.3786866
  0
LWPOLYLINE
  5
248
100
AcDbEntity
  8
0
  6
CONTINUOUS
 62
             7
100
AcDbPolyline
 90
       12
 70
             1
 10
4183.1233629999997
 20
3521.1786866000002
 10
4183.1233629999997
 20
3441.1786866000002
 10
4183.1233629999997
 20
3441.1786866000002
 10
4120.1233629999997
 20
3441.1786866000002
 10
4120.1233629999997
 20
3441.1786866000002
 10
4120.1233629999997
 20
3521.1786866000002
 10
4120.1233629999997
 20
3521.1786866000002
 10
4183.1233629999997
 20
3521.1786866000002
 10
4183.1233629999997
 20
3521.1786866000002
 10
4183.1233629999997
 20
3521.1786866000002
 10
4183.1233629999997
 20
3521.1786866000002
 10
4183.1233629999997
 20
3521.1786866000002
  0
LWPOLYLINE
  5
246
100
AcDbEntity
  8
0
  6
CONTINUOUS
 62
             7
100
AcDbPolyline
 90
        3
 70
             0
 10
4121.6233629999997
 20
3521.1786866000002
 10
4121.6233629999997
 20
3441.1786866000002
 10
4121.6233629999997
 20
3441.1786866000002
  0
LWPOLYLINE
  5
244
100
AcDbEntity
  8
0
  6
CONTINUOUS
 62
             7
100
AcDbPolyline
 90
        3
 70
             0
 10
4124.1233629999997
 20
3521.1786866000002
 10
4124.1233629999997
 20
3441.1786866000002
 10
4124.1233629999997
 20
3441.1786866000002
  0
LWPOLYLINE
  5
242
100
AcDbEntity
  8
0
  6
CONTINUOUS
 62
             7
100
AcDbPolyline
 90
        3
 70
             0
 10
4181.6233629999997
 20
3521.1786866000002
 10
4181.6233629999997
 20
3441.1786866000002
 10
4181.6233629999997
 20
3441.1786866000002
  0
LWPOLYLINE
  5
240
100
AcDbEntity
  8
0
  6
CONTINUOUS
 62
             7
100
AcDbPolyline
 90
        3
 70
             0
 10
4125.1233629999997
 20
3521.1786866000002
 10
4125.1233629999997
 20
3441.1786866000002
 10
4125.1233629999997
 20
3441.1786866000002
  0
LWPOLYLINE
  5
23E
100
AcDbEntity
  8
0
  6
CONTINUOUS
 62
             7
100
AcDbPolyline
 90
        3
 70
             0
 10
4125.6233629999997
 20
3521.1786866000002
 10
4125.6233629999997
 20
3441.1786866000002
 10
4125.6233629999997
 20
3441.1786866000002
  0
LWPOLYLINE
  5
23C
100
AcDbEntity
  8
0
  6
CONTINUOUS
 62
             7
100
AcDbPolyline
 90
        3
 70
             0
 10
4132.6233629999997
 20
3521.1786866000002
 10
4132.6233629999997
 20
3441.1786866000002
 10
4132.6233629999997
 20
3441.1786866000002
  0
LWPOLYLINE
  5
23A
100
AcDbEntity
  8
0
  6
CONTINUOUS
 62
             7
100
AcDbPolyline
 90
        3
 70
             0
 10
4133.1233629999997
 20
3521.1786866000002
 10
4133.1233629999997
 20
3441.1786866000002
 10
4133.1233629999997
 20
3441.1786866000002
  0
LWPOLYLINE
  5
238
100
AcDbEntity
  8
0
  6
CONTINUOUS
 62
             7
100
AcDbPolyline
 90
        3
 70
             0
 10
4135.1233629999997
 20
3521.1786866000002
 10
4135.1233629999997
 20
3441.1786866000002
 10
4135.1233629999997
 20
3441.1786866000002
  0
LWPOLYLINE
  5
236
100
AcDbEntity
  8
0
  6
CONTINUOUS
 62
             7
100
AcDbPolyline
 90
        3
 70
             0
 10
4135.6233629999997
 20
3521.1786866000002
 10
4135.6233629999997
 20
3441.1786866000002
 10
4135.6233629999997
 20
3441.1786866000002
  0
LWPOLYLINE
  5
234
100
AcDbEntity
  8
0
  6
CONTINUOUS
 62
             7
100
AcDbPolyline
 90
        3
 70
             0
 10
4142.6233650000004
 20
3521.1786866000002
 10
4142.6233650000004
 20
3441.1786866000002
 10
4142.6233650000004
 20
3441.1786866000002
  0
LWPOLYLINE
  5
232
100
AcDbEntity
  8
0
  6
CONTINUOUS
 62
             7
100
AcDbPolyline
 90
        3
 70
             0
 10
4143.1233650000004
 20
3521.1786866000002
 10
4143.1233650000004
 20
3441.1786866000002
 10
4143.1233650000004
 20
3441.1786866000002
  0
LWPOLYLINE
  5
230
100
AcDbEntity
  8
0
  6
CONTINUOUS
 62
             7
100
AcDbPolyline
 90
        3
 70
             0
 10
4145.1233650000004
 20
3521.1786866000002
 10
4145.1233650000004
 20
3441.1786866000002
 10
4145.1233650000004
 20
3441.1786866000002
  0
LWPOLYLINE
  5
22E
100
AcDbEntity
  8
0
  6
CONTINUOUS
 62
             7
100
AcDbPolyline
 90
        3
 70
             0
 10
4145.6233650000004
 20
3521.1786866000002
 10
4145.6233650000004
 20
3441.1786866000002
 10
4145.6233650000004
 20
3441.1786866000002
  0
LWPOLYLINE
  5
22C
100
AcDbEntity
  8
0
  6
CONTINUOUS
 62
             7
100
AcDbPolyline
 90
        3
 70
             0
 10
4152.6233629999997
 20
3521.1786866000002
 10
4152.6233629999997
 20
3441.1786866000002
 10
4152.6233629999997
 20
3441.1786866000002
  0
LWPOLYLINE
  5
22A
100
AcDbEntity
  8
0
  6
CONTINUOUS
 62
             7
100
AcDbPolyline
 90
        3
 70
             0
 10
4153.1233629999997
 20
3521.1786866000002
 10
4153.1233629999997
 20
3441.1786866000002
 10
4153.1233629999997
 20
3441.1786866000002
  0
LWPOLYLINE
  5
228
100
AcDbEntity
  8
0
  6
CONTINUOUS
 62
             7
100
AcDbPolyline
 90
        3
 70
             0
 10
4155.1233629999997
 20
3521.1786866000002
 10
4155.1233629999997
 20
3441.1786866000002
 10
4155.1233629999997
 20
3441.1786866000002
  0
LWPOLYLINE
  5
226
100
AcDbEntity
  8
0
  6
CONTINUOUS
 62
             7
100
AcDbPolyline
 90
        3
 70
             0
 10
4155.6233629999997
 20
3521.1786866000002
 10
4155.6233629999997
 20
3441.1786866000002
 10
4155.6233629999997
 20
3441.1786866000002
  0
LWPOLYLINE
  5
224
100
AcDbEntity
  8
0
  6
CONTINUOUS
 62
             7
100
AcDbPolyline
 90
        3
 70
             0
 10
4163.1233619999994
 20
3521.1786866000002
 10
4163.1233619999994
 20
3441.1786866000002
 10
4163.1233619999994
 20
3441.1786866000002
  0
LWPOLYLINE
  5
222
100
AcDbEntity
  8
0
  6
CONTINUOUS
 62
             7
100
AcDbPolyline
 90
        3
 70
             0
 10
4163.6233619999994
 20
3521.1786866000002
 10
4163.6233619999994
 20
3441.1786866000002
 10
4163.6233619999994
 20
3441.1786866000002
  0
LWPOLYLINE
  5
220
100
AcDbEntity
  8
0
  6
CONTINUOUS
 62
             7
100
AcDbPolyline
 90
        3
 70
             0
 10
4166.1233619999994
 20
3521.1786866000002
 10
4166.1233619999994
 20
3441.1786866000002
 10
4166.1233619999994
 20
3441.1786866000002
  0
LWPOLYLINE
  5
21E
100
AcDbEntity
  8
0
  6
CONTINUOUS
 62
             7
100
AcDbPolyline
 90
        3
 70
             0
 10
4165.6233619999994
 20
3521.1786866000002
 10
4165.6233619999994
 20
3441.1786866000002
 10
4165.6233619999994
 20
3441.1786866000002
  0
LWPOLYLINE
  5
21C
100
AcDbEntity
  8
0
  6
CONTINUOUS
 62
             7
100
AcDbPolyline
 90
        3
 70
             0
 10
4173.3733639999991
 20
3521.1786866000002
 10
4173.3733639999991
 20
3441.1786866000002
 10
4173.3733639999991
 20
3441.1786866000002
  0
LWPOLYLINE
  5
21A
100
AcDbEntity
  8
0
  6
CONTINUOUS
 62
             7
100
AcDbPolyline
 90
        3
 70
             0
 10
4173.873364
 20
3521.1786866000002
 10
4173.873364
 20
3441.1786866000002
 10
4173.873364
 20
3441.1786866000002
  0
LWPOLYLINE
  5
218
100
AcDbEntity
  8
0
  6
CONTINUOUS
 62
             7
100
AcDbPolyline
 90
        3
 70
             0
 10
4176.373364
 20
3521.1786866000002
 10
4176.373364
 20
3441.1786866000002
 10
4176.373364
 20
3441.1786866000002
  0
LWPOLYLINE
  5
216
100
AcDbEntity
  8
0
  6
CONTINUOUS
 62
             7
100
AcDbPolyline
 90
        3
 70
             0
 10
4175.8733639999991
 20
3521.1786866000002
 10
4175.8733639999991
 20
3441.1786866000002
 10
4175.8733639999991
 20
3441.1786866000002
  0
LWPOLYLINE
  5
214
100
AcDbEntity
  8
0
  6
CONTINUOUS
 62
             7
100
AcDbPolyline
 90
        3
 70
             0
 10
4179.6233629999997
 20
3521.1786866000002
 10
4179.6233629999997
 20
3441.1786866000002
 10
4179.6233629999997
 20
3441.1786866000002
  0
LWPOLYLINE
  5
212
100
AcDbEntity
  8
0
  6
CONTINUOUS
 62
             7
100
AcDbPolyline
 90
        3
 70
             0
 10
4180.6233629999997
 20
3521.1786866000002
 10
4180.6233629999997
 20
3441.1786866000002
 10
4180.6233629999997
 20
3441.1786866000002
  0
LWPOLYLINE
  5
210
100
AcDbEntity
  8
0
  6
DOTTED
 62
             7
100
AcDbPolyline
 90
       24
 70
             1
 10
4028.7858639999999
 20
3450.9536825999999
 42
0.41421400000023
 10
4028.348363999999
 20
3450.5161825999999
 10
4028.3483639999999
 20
3450.5161825999999
 10
4028.3483639999999
 20
3443.3411826000001
 10
4028.3483639999999
 20
3443.3411826000001
 42
0.41421400000023
 10
4028.7858639999999
 20
3442.903682600001
 10
4028.7858639999999
 20
3442.9036826000001
 10
4035.9608640000001
 20
3442.9036826000001
 10
4035.9608640000001
 20
3442.9036826000001
 42
0.41421399999932
 10
4036.3983639999997
 20
3443.3411826000001
 10
4036.3983640000001
 20
3443.3411826000001
 10
4036.3983640000001
 20
3450.5161825999999
 10
4036.3983640000001
 20
3450.5161825999999
 42
0.41421399999932
 10
4035.9608640000001
 20
3450.9536826000003
 10
4035.9608640000001
 20
3450.9536825999999
 10
4028.7858639999999
 20
3450.9536825999999
 10
4028.7858639999999
 20
3450.9536825999999
 10
4028.7858639999999
 20
3450.9536825999999
 10
4028.7858639999999
 20
3450.9536825999999
 10
4028.7858639999999
 20
3450.9536825999999
 10
4028.7858639999999
 20
3450.9536825999999
 10
4028.7858639999999
 20
3450.9536825999999
 10
4028.7858639999999
 20
3450.9536825999999
 10
4028.7858639999999
 20
3450.9536825999999
  0
LWPOLYLINE
  5
20E
100
AcDbEntity
  8
0
  6
DOTTED
 62
             7
100
AcDbPolyline
 90
        9
 70
             0
 10
4035.2622719999999
 20
3446.3161826
 10
4036.3983640000001
 20
3446.3161826
 10
4036.3983640000001
 20
3446.3161826
 10
4036.3983640000001
 20
3447.5411826
 10
4036.3983640000001
 20
3447.5411826
 10
4035.2622719999999
 20
3447.5411826
 10
4035.2622719999999
 20
3447.5411826
 10
4035.2622719999999
 20
3447.5411826
 10
4035.2622719999999
 20
3447.5411826
  0
LWPOLYLINE
  5
20C
100
AcDbEntity
  8
0
  6
DOTTED
 62
             7
100
AcDbPolyline
 90
        3
 70
             0
 10
4032.8546139999989
 20
3447.4099326
 10
4032.8546139999989
 20
3448.5911826000001
 10
4032.8546139999989
 20
3448.5911826000001
  0
LWPOLYLINE
  5
20A
100
AcDbEntity
  8
0
  6
DOTTED
 62
             7
100
AcDbPolyline
 90
        3
 70
             0
 10
4032.8546139999989
 20
3447.4099326
 10
4035.326489
 20
3447.4099326
 10
4035.326489
 20
3447.4099326
  0
LWPOLYLINE
  5
208
100
AcDbEntity
  8
0
  6
DOTTED
 62
             7
100
AcDbPolyline
 90
        3
 70
             0
 10
4032.8546139999989
 20
3446.4474326
 10
4035.326489
 20
3446.4474326
 10
4035.326489
 20
3446.4474326
  0
LWPOLYLINE
  5
206
100
AcDbEntity
  8
0
  6
DOTTED
 62
             7
100
AcDbPolyline
 90
        3
 70
             0
 10
4032.8546139999989
 20
3445.2661825999999
 10
4032.8546139999989
 20
3446.4474326
 10
4032.8546139999989
 20
3446.4474326
  0
LWPOLYLINE
  5
204
100
AcDbEntity
  8
0
  6
DOTTED
 62
             7
100
AcDbPolyline
 90
        3
 70
             0
 10
4031.8921140000002
 20
3445.2661825999999
 10
4032.8546139999989
 20
3445.2661825999999
 10
4032.8546139999989
 20
3445.2661825999999
  0
LWPOLYLINE
  5
202
100
AcDbEntity
  8
0
  6
DOTTED
 62
             7
100
AcDbPolyline
 90
        3
 70
             0
 10
4031.8921140000002
 20
3445.2661825999999
 10
4031.8921140000002
 20
3446.4474326
 10
4031.8921140000002
 20
3446.4474326
  0
LWPOLYLINE
  5
200
100
AcDbEntity
  8
0
  6
DOTTED
 62
             7
100
AcDbPolyline
 90
        3
 70
             0
 10
4029.420239
 20
3446.4474326
 10
4031.8921140000002
 20
3446.4474326
 10
4031.8921140000002
 20
3446.4474326
  0
LWPOLYLINE
  5
1FE
100
AcDbEntity
  8
0
  6
DOTTED
 62
             7
100
AcDbPolyline
 90
        3
 70
             0
 10
4029.420239
 20
3447.4099326
 10
4031.8921140000002
 20
3447.4099326
 10
4031.8921140000002
 20
3447.4099326
  0
LWPOLYLINE
  5
1FC
100
AcDbEntity
  8
0
  6
DOTTED
 62
             7
100
AcDbPolyline
 90
        3
 70
             0
 10
4031.8921140000002
 20
3448.5911826000001
 10
4032.8546139999989
 20
3448.5911826000001
 10
4032.8546139999989
 20
3448.5911826000001
  0
LWPOLYLINE
  5
1FA
100
AcDbEntity
  8
0
  6
DOTTED
 62
             7
100
AcDbPolyline
 90
        3
 70
             0
 10
4031.8921140000002
 20
3447.4099326
 10
4031.8921140000002
 20
3448.5911826000001
 10
4031.8921140000002
 20
3448.5911826000001
  0
LWPOLYLINE
  5
1F8
100
AcDbEntity
  8
0
  6
DOTTED
 62
             7
100
AcDbPolyline
 90
        9
 70
             0
 10
4035.326489
 20
3446.9286825999998
 10
4035.326489
 20
3446.9286825999998
 10
4035.326489
 20
3446.9286825999998
 42
-2.41421399999927
 10
4032.373364
 20
3449.8818075999998
 10
4032.373364
 20
3449.8818076000011
 42
-0.41421399999985
 10
4035.326489
 20
3446.9286825999998
 10
4035.326489
 20
3446.9286825999998
 10
4035.326489
 20
3446.9286825999998
 10
4035.326489
 20
3446.9286825999998
  0
ARC
  5
1F6
100
AcDbEntity
  8
1
  6
DOTTED
 62
             7
100
AcDbCircle
 10
4188.9233629999999
 20
3466.8786866
 40
0.80000000000018
100
AcDbArc
 50
90.0
 51
180.0
  0
ARC
  5
1F5
100
AcDbEntity
  8
1
  6
DOTTED
 62
             7
100
AcDbCircle
 10
4191.8233630000004
 20
3469.9786865999999
 40
0.79999999999973
100
AcDbArc
 50
-90.0
 51
0.0
  0
ARC
  5
1F4
100
AcDbEntity
  8
1
  6
DOTTED
 62
             7
100
AcDbCircle
 10
4191.8233630000004
 20
3492.3786866
 40
0.79999999999927
100
AcDbArc
 50
0.0
 51
90.0
  0
ARC
  5
1F3
100
AcDbEntity
  8
1
  6
DOTTED
 62
             7
100
AcDbCircle
 10
4188.9233629999999
 20
3495.4786865999999
 40
0.80000000000018
100
AcDbArc
 50
180.0
 51
-90.0
  0
ARC
  5
1F2
100
AcDbEntity
  8
1
  6
DOTTED
 62
             7
100
AcDbCircle
 10
4188.1233629999997
 20
3468.1786866000002
 40
1.0
100
AcDbArc
 50
90.0
 51
180.0
  0
ARC
  5
1F1
100
AcDbEntity
  8
1
  6
DOTTED
 62
             7
100
AcDbCircle
 10
4188.1233629999997
 20
3494.1786866000002
 40
1.0
100
AcDbArc
 50
180.0
 51
-90.0
  0
ARC
  5
1F0
100
AcDbEntity
  8
1
  6
DOTTED
 62
             7
100
AcDbCircle
 10
4193.6233629999997
 20
3493.6786866000002
 40
1.0
100
AcDbArc
 50
0.0
 51
90.0
  0
ARC
  5
1EF
100
AcDbEntity
  8
1
  6
DOTTED
 62
             7
100
AcDbCircle
 10
4193.6233629999997
 20
3468.6786866000002
 40
1.0
100
AcDbArc
 50
-90.0
 51
0.0
  0
LINE
  5
49
100
AcDbEntity
  8
1
  6
DOTTED
 62
             7
100
AcDbLine
 10
4187.1233629999997
 20
3463.6786866000002
 11
4187.1233629999997
 21
3468.1786866000002
  0
LINE
  5
48
100
AcDbEntity
  8
1
  6
DOTTED
 62
             7
100
AcDbLine
 10
4188.1233629999997
 20
3469.1786866000002
 11
4191.8233630000004
 21
3469.1786866000002
  0
LINE
  5
47
100
AcDbEntity
  8
1
  6
DOTTED
 62
             7
100
AcDbLine
 10
4192.6233629999997
 20
3469.9786865999999
 11
4192.6233629999997
 21
3492.3786866
  0
LINE
  5
46
100
AcDbEntity
  8
1
  6
DOTTED
 62
             7
100
AcDbLine
 10
4191.8233630000004
 20
3493.1786866000002
 11
4188.1233629999997
 21
3493.1786866000002
  0
LINE
  5
45
100
AcDbEntity
  8
1
  6
DOTTED
 62
             7
100
AcDbLine
 10
4187.1233629999997
 20
3494.1786866000002
 11
4187.1233629999997
 21
3498.6786866000002
  0
LINE
  5
44
100
AcDbEntity
  8
1
  6
DOTTED
 62
             7
100
AcDbLine
 10
4187.1233629999997
 20
3498.6786866000002
 11
4188.1233629999997
 21
3498.6786866000002
  0
LINE
  5
43
100
AcDbEntity
  8
1
  6
DOTTED
 62
             7
100
AcDbLine
 10
4188.1233629999997
 20
3498.6786866000002
 11
4188.1233629999997
 21
3495.4786865999999
  0
LINE
  5
42
100
AcDbEntity
  8
1
  6
DOTTED
 62
             7
100
AcDbLine
 10
4188.9233629999999
 20
3494.6786866000002
 11
4193.6233629999997
 21
3494.6786866000002
  0
LINE
  5
41
100
AcDbEntity
  8
1
  6
DOTTED
 62
             7
100
AcDbLine
 10
4194.6233629999997
 20
3493.6786866000002
 11
4194.6233629999997
 21
3468.6786866000002
  0
LINE
  5
40
100
AcDbEntity
  8
1
  6
DOTTED
 62
             7
100
AcDbLine
 10
4193.6233629999997
 20
3467.6786866000002
 11
4188.9233629999999
 21
3467.6786866000002
  0
LINE
  5
3F
100
AcDbEntity
  8
1
  6
DOTTED
 62
             7
100
AcDbLine
 10
4188.1233629999997
 20
3466.8786866
 11
4188.1233629999997
 21
3463.6786866000002
  0
POINT
  5
3E
100
AcDbEntity
  8
0
 62
             7
100
AcDbPoint
 10
4054.1233630000002
 20
3521.1786866000002
  0
POINT
  5
3D
100
AcDbEntity
  8
0
 62
             7
100
AcDbPoint
 10
4054.1233630000002
 20
3441.1786866000002
  0
POINT
  5
3C
100
AcDbEntity
  8
0
 62
             7
100
AcDbPoint
 10
4045.1233630000002
 20
3431.1791446000002
  0
POINT
  5
3B
100
AcDbEntity
  8
0
 62
             7
100
AcDbPoint
 10
4053.923362999999
 20
3531.1786866000002
  0
POINT
  5
3A
100
AcDbEntity
  8
0
 62
             7
100
AcDbPoint
 10
4026.1233630000002
 20
3528.9786865999999
  0
POINT
  5
39
100
AcDbEntity
  8
0
 62
             7
100
AcDbPoint
 10
4056.1233630000002
 20
3528.9786865999999
  0
POINT
  5
38
100
AcDbEntity
  8
0
 62
             7
100
AcDbPoint
 10
4191.1233629999997
 20
3531.1786866000002
  0
POINT
  5
37
100
AcDbEntity
  8
0
 62
             7
100
AcDbPoint
 10
4187.1233629999997
 20
3481.1786866000002
  0
POINT
  5
36
100
AcDbEntity
  8
0
 62
             7
100
AcDbPoint
 10
4091.1233630000002
 20
3493.6761115999998
  0
POINT
  5
35
100
AcDbEntity
  8
0
 62
             7
100
AcDbPoint
 10
4120.1233629999997
 20
3520.0786865999999
  0
POINT
  5
34
100
AcDbEntity
  8
0
 62
             7
100
AcDbPoint
 10
4120.1233629999997
 20
3521.1786866000002
  0
POINT
  5
33
100
AcDbEntity
  8
0
 62
             7
100
AcDbPoint
 10
4183.1233629999997
 20
3521.1786866000002
  0
POINT
  5
32
100
AcDbEntity
  8
0
 62
             7
100
AcDbPoint
 10
4183.1233629999997
 20
3521.1786866000002
  0
POINT
  5
31
100
AcDbEntity
  8
0
 62
             7
100
AcDbPoint
 10
4191.1233629999997
 20
3528.9786865999999
  0
POINT
  5
30
100
AcDbEntity
  8
0
 62
             7
100
AcDbPoint
 10
4091.1233630000002
 20
3481.6786866000002
  0
POINT
  5
2F
100
AcDbEntity
  8
0
 62
             7
100
AcDbPoint
 10
4191.1233629999997
 20
3531.1786866000002
  0
INSERT
  5
2C
100
AcDbEntity
  8
1
100
AcDbBlockReference
  2
DIN
 10
4187.1233629999997
 20
3463.6786866000002
  0
ENDSEC
  0
SECTION
  2
OBJECTS
  0
DICTIONARY
  5
19
100
AcDbDictionary
  3
ACAD_GROUP
350
1A
  3
ACAD_MLINESTYLE
350
1B
  0
DICTIONARY
  5
1A
102
{ACAD_REACTORS
330
19
102
}
100
AcDbDictionary
  0
DICTIONARY
  5
1B
102
{ACAD_REACTORS
330
19
102
}
100
AcDbDictionary
  3
STANDARD
350
1C
  0
MLINESTYLE
  5
1C
102
{ACAD_REACTORS
330
1B
102
}
100
AcDbMlineStyle
  2
STANDARD
 70
             0
  3

 62
             0
 51
90.0
 52
90.0
 71
             2
 49
0.5
 62
           256
  6
BYLAYER
 49
-0.5
 62
           256
  6
BYLAYER
  0
ENDSEC
  0
EOF
