  0
SECTION
  2
HEADER
  9
$ACADVER
  1
AC1014
  9
$ACADMAINTVER
 70
             0
  9
$DWGCODEPAGE
  3
ANSI_1252
  9
$INSBASE
 10
0.0
 20
0.0
 30
0.0
  9
$EXTMIN
 10
1.00000000000000E+20
 20
1.00000000000000E+20
 30
1.00000000000000E+20
  9
$EXTMAX
 10
-1.00000000000000E+20
 20
-1.00000000000000E+20
 30
-1.00000000000000E+20
  9
$LIMMIN
 10
0.0
 20
0.0
  9
$LIMMAX
 10
0.0
 20
0.0
  9
$ORTHOMODE
 70
             0
  9
$REGENMODE
 70
             1
  9
$FILLMODE
 70
             1
  9
$QTEXTMODE
 70
             0
  9
$MIRRTEXT
 70
             1
  9
$DRAGMODE
 70
             2
  9
$LTSCALE
 40
1.0
  9
$OSMODE
 70
             0
  9
$ATTMODE
 70
             1
  9
$TEXTSIZE
 40
0.2
  9
$TRACEWID
 40
0.05
  9
$TEXTSTYLE
  7
STANDARD
  9
$CLAYER
  8
0
  9
$CELTYPE
  6
CONTINUOUS
  9
$CECOLOR
 62
           256
  9
$CELTSCALE
 40
1.0
  9
$DELOBJ
 70
             1
  9
$DISPSILH
 70
             0
  9
$DIMSCALE
 40
1.0
  9
$DIMASZ
 40
0.18
  9
$DIMEXO
 40
0.0625
  9
$DIMDLI
 40
0.38
  9
$DIMRND
 40
0.0
  9
$DIMDLE
 40
0.0
  9
$DIMEXE
 40
0.18
  9
$DIMTP
 40
0.0
  9
$DIMTM
 40
0.0
  9
$DIMTXT
 40
0.18
  9
$DIMCEN
 40
0.09
  9
$DIMTSZ
 40
0.0
  9
$DIMTOL
 70
             0
  9
$DIMLIM
 70
             0
  9
$DIMTIH
 70
             1
  9
$DIMTOH
 70
             1
  9
$DIMSE1
 70
             0
  9
$DIMSE2
 70
             0
  9
$DIMTAD
 70
             0
  9
$DIMZIN
 70
             0
  9
$DIMBLK
  1

  9
$DIMASO
 70
             1
  9
$DIMSHO
 70
             1
  9
$DIMPOST
  1

  9
$DIMAPOST
  1

  9
$DIMALT
 70
             0
  9
$DIMALTD
 70
             2
  9
$DIMALTF
 40
25.4
  9
$DIMLFAC
 40
1.0
  9
$DIMTOFL
 70
             0
  9
$DIMTVP
 40
0.0
  9
$DIMTIX
 70
             0
  9
$DIMSOXD
 70
             0
  9
$DIMSAH
 70
             0
  9
$DIMBLK1
  1

  9
$DIMBLK2
  1

  9
$DIMSTYLE
  2
STANDARD
  9
$DIMCLRD
 70
             0
  9
$DIMCLRE
 70
             0
  9
$DIMCLRT
 70
             0
  9
$DIMTFAC
 40
1.0
  9
$DIMGAP
 40
0.09
  9
$DIMJUST
 70
             0
  9
$DIMSD1
 70
             0
  9
$DIMSD2
 70
             0
  9
$DIMTOLJ
 70
             1
  9
$DIMTZIN
 70
             0
  9
$DIMALTZ
 70
             0
  9
$DIMALTTZ
 70
             0
  9
$DIMFIT
 70
             3
  9
$DIMUPT
 70
             0
  9
$DIMUNIT
 70
             2
  9
$DIMDEC
 70
             4
  9
$DIMTDEC
 70
             4
  9
$DIMALTU
 70
             2
  9
$DIMALTTD
 70
             2
  9
$DIMTXSTY
  7
STANDARD
  9
$DIMAUNIT
 70
             0
  9
$LUNITS
 70
             2
  9
$LUPREC
 70
             4
  9
$SKETCHINC
 40
0.1
  9
$FILLETRAD
 40
0.0
  9
$AUNITS
 70
             0
  9
$AUPREC
 70
             0
  9
$MENU
  1
acad
  9
$ELEVATION
 40
0.0
  9
$PELEVATION
 40
0.0
  9
$THICKNESS
 40
0.0
  9
$LIMCHECK
 70
             0
  9
$BLIPMODE
 70
             1
  9
$CHAMFERA
 40
0.0
  9
$CHAMFERB
 40
0.0
  9
$CHAMFERC
 40
0.0
  9
$CHAMFERD
 40
0.0
  9
$SKPOLY
 70
             0
  9
$TDCREATE
 40
0.000000000
  9
$TDUPDATE
 40
0.000000000
  9
$TDINDWG
 40
0.0000000000
  9
$TDUSRTIMER
 40
0.0000000000
  9
$USRTIMER
 70
             1
  9
$ANGBASE
 50
0.0
  9
$ANGDIR
 70
             0
  9
$PDMODE
 70
             0
  9
$PDSIZE
 40
0.0
  9
$PLINEWID
 40
0.0
  9
$COORDS
 70
             0
  9
$SPLFRAME
 70
             0
  9
$SPLINETYPE
 70
             6
  9
$SPLINESEGS
 70
             8
  9
$ATTDIA
 70
             0
  9
$ATTREQ
 70
             1
  9
$HANDLING
 70
             1
  9
$HANDSEED
  5
2A9
  9
$SURFTAB1
 70
             6
  9
$SURFTAB2
 70
             6
  9
$SURFTYPE
 70
             6
  9
$SURFU
 70
             6
  9
$SURFV
 70
             6
  9
$UCSNAME
  2

  9
$UCSORG
 10
0.0
 20
0.0
 30
0.0
  9
$UCSXDIR
 10
1.0
 20
0.0
 30
0.0
  9
$UCSYDIR
 10
0.0
 20
1.0
 30
0.0
  9
$PUCSNAME
  2

  9
$PUCSORG
 10
0.0
 20
0.0
 30
0.0
  9
$PUCSXDIR
 10
1.0
 20
0.0
 30
0.0
  9
$PUCSYDIR
 10
0.0
 20
1.0
 30
0.0
  9
$USERI1
 70
             0
  9
$USERI2
 70
             0
  9
$USERI3
 70
             0
  9
$USERI4
 70
             0
  9
$USERI5
 70
             0
  9
$USERR1
 40
11.6
  9
$USERR2
 40
0.0
  9
$USERR3
 40
0.0
  9
$USERR4
 40
0.0
  9
$USERR5
 40
0.0
  9
$WORLDVIEW
 70
             1
  9
$SHADEDGE
 70
             3
  9
$SHADEDIF
 70
            70
  9
$TILEMODE
 70
             1
  9
$MAXACTVP
 70
            16
  9
$PINSBASE
 10
0.0
 20
0.0
 30
0.0
  9
$PLIMCHECK
 70
             0
  9
$PEXTMIN
 10
1.00000000000000E+20
 20
1.00000000000000E+20
 30
1.00000000000000E+20
  9
$PEXTMAX
 10
-1.00000000000000E+20
 20
-1.00000000000000E+20
 30
-1.00000000000000E+20
  9
$PLIMMIN
 10
0.0
 20
0.0
  9
$PLIMMAX
 10
12.0
 20
9.0
  9
$UNITMODE
 70
             0
  9
$VISRETAIN
 70
             0
  9
$PLINEGEN
 70
             1
  9
$PSLTSCALE
 70
             0
  9
$TREEDEPTH
 70
          3020
  9
$PICKSTYLE
 70
             1
  9
$CMLSTYLE
  2
STANDARD
  9
$CMLJUST
 70
             0
  9
$CMLSCALE
 40
1.0
  9
$PROXYGRAPHICS
 70
             0
  9
$MEASUREMENT
 70
             1
  0
ENDSEC
  0
SECTION
  2
CLASSES
  0
CLASS
  1
LWPOLYLINE
  2
AcDbPolyline
  3
"AutoCAD"
 90
        0
280
             0
281
             1
  0
CLASS
  1
IMAGE
  2
AcDbRasterImage
  3
ISM
 90
      127
280
             0
281
             1
  0
CLASS
  1
OLE2FRAME
  2
AcDbOle2Frame
  3
""
 90
        0
280
             0
281
             1
  0
CLASS
  1
HATCH
  2
AcDbHatch
  3
"ACAD_SEDONA"
 90
        0
280
             0
281
             1
  0
CLASS
  1
DICTIONARYVAR
  2
AcDbDictionaryVar
  3
"AutoCAD"
 90
        0
280
             0
281
             0
  0
CLASS
  1
RASTERVARIABLES
  2
AcDbRasterVariables
  3
ISM
 90
        0
280
             0
281
             0
  0
CLASS
  1
IMAGEDEF
  2
AcDbRasterImageDef
  3
ISM
 90
        0
280
             0
281
             0
  0
CLASS
  1
IMAGEDEF_REACTOR
  2
AcDbRasterImageDefReactor
  3
ISM
 90
        1
280
             0
281
             0
  0
CLASS
  1
IDBUFFER
  2
AcDbIdBuffer
  3
"Acad"
 90
        0
280
             0
281
             0
  0
CLASS
  1
SPATIAL_FILTER
  2
AcDbSpatialFilter
  3
"Acad"
 90
        0
280
             0
281
             0
  0
CLASS
  1
XRECORD
  2
AcDbXrecord
  3
"<Built In>"
 90
        0
280
             0
281
             0
  0
CLASS
  1
SORTENTSTABLE
  2
AcDbSortentsTable
  3
"AutoCAD"
 90
        0
280
             0
281
             0
  0
CLASS
  1
LAYER_INDEX
  2
AcDbLayerIndex
  3
"Acad"
 90
        0
280
             0
281
             0
  0
CLASS
  1
SPATIAL_INDEX
  2
AcDbSpatialIndex
  3
"Acad"
 90
        0
280
             0
281
             0
  0
CLASS
  1
OBJECT_PTR
  2
CAseDLPNTableRecord
  3
"ASE-LPNTableRecord"
 90
        1
280
             0
281
             0
  0
CLASS
  1
LAYOUT
  2
AcDbLayout
  3
"AutoCAD 2000"
 90
        1
280
             0
281
             0
  0
CLASS
  1
PLOTSETTINGS
  2
AcDbPlotSettings
  3
"AutoCAD 2000"
 90
        1
280
             0
281
             0
  0
CLASS
  1
ACDBDICTIONARYWDFLT
  2
AcDbDictionaryWithDefault
  3
"AutoCAD 2000"
 90
        1
280
             0
281
             0
  0
CLASS
  1
ACDBPLACEHOLDER
  2
AcDbPlaceHolder
  3
"AutoCAD 2000"
 90
        1
280
             0
281
             0
  0
ENDSEC
  0
SECTION
  2
TABLES
  0
TABLE
  2
VPORT
  5
7
100
AcDbSymbolTable
 70
             1
  0
VPORT
  5
15
100
AcDbSymbolTableRecord
100
AcDbViewportTableRecord
  2
*ACTIVE
 70
             0
 10
0.0
 20
0.0
 11
1.0
 21
1.0
 12
6945.9833433410959
 22
5707.5083394215744
 13
0.0
 23
0.0
 14
1.0
 24
1.0
 15
0.0
 25
0.0
 16
0.0
 26
0.0
 36
1.0
 17
0.0
 27
0.0
 37
0.0
 40
251.62500344691938
 41
1.60267857142857
 42
50.0
 43
0.0
 44
0.0
 50
0.0
 51
0.0
 71
             0
 72
           100
 73
             1
 74
             1
 75
             0
 76
             0
 77
             0
 78
             0
  0
ENDTAB
  0
TABLE
  2
LTYPE
  5
4
100
AcDbSymbolTable
 70
            11
  0
LTYPE
  5
11
100
AcDbSymbolTableRecord
100
AcDbLinetypeTableRecord
  2
BYBLOCK
 70
            64
  3

 72
            65
 73
             0
 40
0.0
  0
LTYPE
  5
12
100
AcDbSymbolTableRecord
100
AcDbLinetypeTableRecord
  2
BYLAYER
 70
            64
  3

 72
            65
 73
             0
 40
0.0
  0
LTYPE
  5
13
100
AcDbSymbolTableRecord
100
AcDbLinetypeTableRecord
  2
CONTINUOUS
 70
            64
  3
Solid line
 72
            65
 73
             0
 40
0.0
  0
LTYPE
  5
1D
100
AcDbSymbolTableRecord
100
AcDbLinetypeTableRecord
  2
DASHED
 70
            64
  3
Dashed
 72
            65
 73
             2
 40
15.0
 49
12.0
 74
             0
 49
-3.0
 74
             0
  0
LTYPE
  5
1E
100
AcDbSymbolTableRecord
100
AcDbLinetypeTableRecord
  2
DOTTED
 70
            64
  3
Dotted
 72
            65
 73
             2
 40
3.5
 49
0.5
 74
             0
 49
-3.0
 74
             0
  0
LTYPE
  5
1F
100
AcDbSymbolTableRecord
100
AcDbLinetypeTableRecord
  2
DOT_CENTER
 70
            64
  3
Dot_Center
 72
            65
 73
             4
 40
2.0
 49
1.25
 74
             0
 49
-0.25
 74
             0
 49
0.25
 74
             0
 49
-0.25
 74
             0
  0
LTYPE
  5
20
100
AcDbSymbolTableRecord
100
AcDbLinetypeTableRecord
  2
LONG_DASHED
 70
            64
  3
Long_Dashed
 72
            65
 73
             2
 40
2.0
 49
1.5
 74
             0
 49
-0.5
 74
             0
  0
LTYPE
  5
21
100
AcDbSymbolTableRecord
100
AcDbLinetypeTableRecord
  2
DASH_CENTER
 70
            64
  3
Dash_Center
 72
            65
 73
             4
 40
36.0
 49
24.0
 74
             0
 49
-3.0
 74
             0
 49
6.0
 74
             0
 49
-3.0
 74
             0
  0
LTYPE
  5
22
100
AcDbSymbolTableRecord
100
AcDbLinetypeTableRecord
  2
PHANTOM
 70
            64
  3
Phantom
 72
            65
 73
             6
 40
2.5
 49
1.25
 74
             0
 49
-0.25
 74
             0
 49
0.25
 74
             0
 49
-0.25
 74
             0
 49
0.25
 74
             0
 49
-0.25
 74
             0
  0
LTYPE
  5
23
100
AcDbSymbolTableRecord
100
AcDbLinetypeTableRecord
  2
CENTER_DASH_DASH
 70
            64
  3
Center_Dash_Dash
 72
            65
 73
             6
 40
22.0
 49
12.0
 74
             0
 49
-3.0
 74
             0
 49
0.5
 74
             0
 49
-3.0
 74
             0
 49
0.5
 74
             0
 49
-3.0
 74
             0
  0
LTYPE
  5
24
100
AcDbSymbolTableRecord
100
AcDbLinetypeTableRecord
  2
EXLTYPE3
 70
            64
  3
EXLTYPE3
 72
            65
 73
             4
 40
13.0
 49
10.0
 74
             0
 49
-1.0
 74
             0
 49
1.0
 74
             0
 49
-1.0
 74
             0
  0
ENDTAB
  0
TABLE
  2
LAYER
  5
2
100
AcDbSymbolTable
 70
             2
  0
LAYER
  5
14
100
AcDbSymbolTableRecord
100
AcDbLayerTableRecord
  2
0
 70
             0
 62
             7
  6
CONTINUOUS
  0
LAYER
  5
25
100
AcDbSymbolTableRecord
100
AcDbLayerTableRecord
  2
___E
 70
             0
 62
             7
  6
CONTINUOUS
  0
ENDTAB
  0
TABLE
  2
STYLE
  5
3
100
AcDbSymbolTable
 70
             1
  0
STYLE
  5
17
100
AcDbSymbolTableRecord
100
AcDbTextStyleTableRecord
  2
STANDARD
 70
             0
 40
0.0
 41
1.0
 50
0.0
 71
             0
 42
0.0
  3
txt
  4

  0
ENDTAB
  0
TABLE
  2
VIEW
  5
5
100
AcDbSymbolTable
 70
             0
  0
ENDTAB
  0
TABLE
  2
UCS
  5
6
100
AcDbSymbolTable
 70
             0
  0
ENDTAB
  0
TABLE
  2
APPID
  5
8
100
AcDbSymbolTable
 70
             1
  0
APPID
  5
16
100
AcDbSymbolTableRecord
100
AcDbRegAppTableRecord
  2
ACAD
 70
             0
  0
ENDTAB
  0
TABLE
  2
DIMSTYLE
  5
9
100
AcDbSymbolTable
 70
             1
  0
DIMSTYLE
105
18
100
AcDbSymbolTableRecord
100
AcDbDimStyleTableRecord
  2
STANDARD
 70
             0
  3

  4

  5

  6

  7

 40
1.0
 41
0.18
 42
0.0625
 43
0.38
 44
0.18
 45
0.0
 46
0.0
 47
0.0
 48
0.0
 71
             0
 72
             0
 73
             1
 74
             1
 75
             0
 76
             0
 77
             0
 78
             0
140
0.18
141
0.09
142
0.0
143
25.4
144
1.0
145
0.0
146
1.0
147
0.09
170
             0
171
             2
172
             0
173
             0
174
             0
175
             0
176
             0
177
             0
178
             0
270
             2
271
             4
272
             4
273
             2
274
             2
275
             0
280
             0
281
             0
282
             0
283
             1
284
             0
285
             0
286
             0
287
             0
288
             0
340
17
  0
ENDTAB
  0
TABLE
  2
BLOCK_RECORD
  5
1
100
AcDbSymbolTable
 70
             0
  0
BLOCK_RECORD
  5
A
100
AcDbSymbolTableRecord
100
AcDbBlockTableRecord
  2
*MODEL_SPACE
  0
BLOCK_RECORD
  5
B
100
AcDbSymbolTableRecord
100
AcDbBlockTableRecord
  2
*PAPER_SPACE
  0
ENDTAB
  0
ENDSEC
  0
SECTION
  2
BLOCKS
  0
BLOCK
  5
D
100
AcDbEntity
  8
0
100
AcDbBlockBegin
  2
*MODEL_SPACE
 70
             0
 10
0.0
 20
0.0
 30
0.0
  3
*MODEL_SPACE
  1

  0
ENDBLK
  5
E
100
AcDbEntity
  8
0
100
AcDbBlockEnd
  0
BLOCK
  5
F
100
AcDbEntity
 67
             1
  8
0
100
AcDbBlockBegin
  2
*PAPER_SPACE
 70
             0
 10
0.0
 20
0.0
 30
0.0
  3
*PAPER_SPACE
  1

  0
ENDBLK
  5
10
100
AcDbEntity
 67
             1
  8
0
100
AcDbBlockEnd
  0
ENDSEC
  0
SECTION
  2
ENTITIES
  0
LWPOLYLINE
  5
2A7
100
AcDbEntity
  8
___E
  6
CONTINUOUS
 62
             7
100
AcDbPolyline
 90
        6
 70
             0
 10
6815.4833410294514
 20
5762.1333406698623
 10
6816.4833415431494
 20
5762.1333406698623
 10
6816.4833415431494
 20
5762.1333406698623
 10
6816.4833415431494
 20
5774.1333408342452
 10
6816.4833415431494
 20
5774.1333408342452
 10
6816.4833415431494
 20
5774.1333408342452
  0
LWPOLYLINE
  5
2A5
100
AcDbEntity
  8
___E
  6
CONTINUOUS
 62
             7
100
AcDbPolyline
 90
       36
 70
             1
 10
6812.7333414917803
 20
5719.3833400842459
 10
6811.2333414712321
 20
5719.3833400842459
 10
6811.2333414712321
 20
5719.3833400842459
 10
6811.2333414712321
 20
5709.3833394472604
 10
6811.2333414712321
 20
5709.3833394472604
 10
6812.7333414917803
 20
5709.3833394472604
 10
6812.7333414917803
 20
5709.3833394472604
 10
6812.7333414917803
 20
5708.5833399363
 10
6812.7333414917803
 20
5708.5833399363
 10
6822.7333421287667
 20
5708.5833399363
 10
6822.7333421287667
 20
5708.5833399363
 10
6822.7333421287667
 20
5709.3833394472604
 10
6822.7333421287667
 20
5709.3833394472604
 10
6824.233342149314
 20
5709.3833394472604
 10
6824.233342149314
 20
5709.3833394472604
 10
6824.233342149314
 20
5719.3833400842459
 10
6824.233342149314
 20
5719.3833400842459
 10
6822.7333421287667
 20
5719.3833400842459
 10
6822.7333421287667
 20
5719.3833400842459
 10
6822.7333421287667
 20
5718.5833405732874
 10
6822.7333421287667
 20
5718.5833405732874
 10
6812.7333414917803
 20
5718.5833405732874
 10
6812.7333414917803
 20
5718.5833405732874
 10
6812.7333414917803
 20
5719.3833400842459
 10
6812.7333414917803
 20
5719.3833400842459
 10
6812.7333414917803
 20
5719.3833400842459
 10
6812.7333414917803
 20
5719.3833400842459
 10
6812.7333414917803
 20
5719.3833400842459
 10
6812.7333414917803
 20
5719.3833400842459
 10
6812.7333414917803
 20
5719.3833400842459
 10
6812.7333414917803
 20
5719.3833400842459
 10
6812.7333414917803
 20
5719.3833400842459
 10
6812.7333414917803
 20
5719.3833400842459
 10
6812.7333414917803
 20
5719.3833400842459
 10
6812.7333414917803
 20
5719.3833400842459
 10
6812.7333414917803
 20
5719.3833400842459
  0
LWPOLYLINE
  5
2A3
100
AcDbEntity
  8
___E
  6
CONTINUOUS
 62
             7
100
AcDbPolyline
 90
       36
 70
             1
 10
6812.7333414917803
 20
5709.3833394472604
 10
6811.2333414712321
 20
5709.3833394472604
 10
6811.2333414712321
 20
5709.3833394472604
 10
6811.2333414712321
 20
5699.3833403102726
 10
6811.2333414712321
 20
5699.3833403102726
 10
6812.7333414917803
 20
5699.3833403102726
 10
6812.7333414917803
 20
5699.3833403102726
 10
6812.7333414917803
 20
5698.5833392993154
 10
6812.7333414917803
 20
5698.5833392993154
 10
6822.7333421287667
 20
5698.5833392993154
 10
6822.7333421287667
 20
5698.5833392993154
 10
6822.7333421287667
 20
5699.3833403102726
 10
6822.7333421287667
 20
5699.3833403102726
 10
6824.233342149314
 20
5699.3833403102726
 10
6824.233342149314
 20
5699.3833403102726
 10
6824.233342149314
 20
5709.3833394472604
 10
6824.233342149314
 20
5709.3833394472604
 10
6822.7333421287667
 20
5709.3833394472604
 10
6822.7333421287667
 20
5709.3833394472604
 10
6822.7333421287667
 20
5708.5833399363
 10
6822.7333421287667
 20
5708.5833399363
 10
6812.7333414917803
 20
5708.5833399363
 10
6812.7333414917803
 20
5708.5833399363
 10
6812.7333414917803
 20
5709.3833394472604
 10
6812.7333414917803
 20
5709.3833394472604
 10
6812.7333414917803
 20
5709.3833394472604
 10
6812.7333414917803
 20
5709.3833394472604
 10
6812.7333414917803
 20
5709.3833394472604
 10
6812.7333414917803
 20
5709.3833394472604
 10
6812.7333414917803
 20
5709.3833394472604
 10
6812.7333414917803
 20
5709.3833394472604
 10
6812.7333414917803
 20
5709.3833394472604
 10
6812.7333414917803
 20
5709.3833394472604
 10
6812.7333414917803
 20
5709.3833394472604
 10
6812.7333414917803
 20
5709.3833394472604
 10
6812.7333414917803
 20
5709.3833394472604
  0
LWPOLYLINE
  5
2A1
100
AcDbEntity
  8
___E
  6
CONTINUOUS
 62
             7
100
AcDbPolyline
 90
       36
 70
             1
 10
6818.2333420671221
 20
5715.3833395294514
 10
6817.233341553424
 20
5715.3833395294514
 10
6817.233341553424
 20
5715.3833395294514
 10
6817.233341553424
 20
5713.383340002054
 10
6817.233341553424
 20
5713.383340002054
 10
6815.2333420260265
 20
5713.383340002054
 10
6815.2333420260265
 20
5713.383340002054
 10
6815.2333420260265
 20
5712.383339488355
 10
6815.2333420260265
 20
5712.383339488355
 10
6817.233341553424
 20
5712.383339488355
 10
6817.233341553424
 20
5712.383339488355
 10
6817.233341553424
 20
5710.3833399609584
 10
6817.233341553424
 20
5710.3833399609584
 10
6818.2333420671221
 20
5710.3833399609584
 10
6818.2333420671221
 20
5710.3833399609584
 10
6818.2333420671221
 20
5712.383339488355
 10
6818.2333420671221
 20
5712.383339488355
 10
6820.2333415945204
 20
5712.383339488355
 10
6820.2333415945204
 20
5712.383339488355
 10
6820.2333415945204
 20
5713.383340002054
 10
6820.2333415945204
 20
5713.383340002054
 10
6818.2333420671221
 20
5713.383340002054
 10
6818.2333420671221
 20
5713.383340002054
 10
6818.2333420671221
 20
5715.3833395294514
 10
6818.2333420671221
 20
5715.3833395294514
 10
6818.2333420671221
 20
5715.3833395294514
 10
6818.2333420671221
 20
5715.3833395294514
 10
6818.2333420671221
 20
5715.3833395294514
 10
6818.2333420671221
 20
5715.3833395294514
 10
6818.2333420671221
 20
5715.3833395294514
 10
6818.2333420671221
 20
5715.3833395294514
 10
6818.2333420671221
 20
5715.3833395294514
 10
6818.2333420671221
 20
5715.3833395294514
 10
6818.2333420671221
 20
5715.3833395294514
 10
6818.2333420671221
 20
5715.3833395294514
 10
6818.2333420671221
 20
5715.3833395294514
  0
LWPOLYLINE
  5
29F
100
AcDbEntity
  8
___E
  6
CONTINUOUS
 62
             7
100
AcDbPolyline
 90
       15
 70
             0
 10
6811.2333414712321
 20
5716.3833400431504
 10
6812.7333414917803
 20
5716.3833400431504
 10
6812.7333414917803
 20
5716.3833400431504
 10
6812.7333414917803
 20
5717.1833395541089
 10
6812.7333414917803
 20
5717.1833395541089
 10
6822.7333421287667
 20
5717.1833395541089
 10
6822.7333421287667
 20
5717.1833395541089
 10
6822.7333421287667
 20
5716.3833400431504
 10
6822.7333421287667
 20
5716.3833400431504
 10
6824.233342149314
 20
5716.3833400431504
 10
6824.233342149314
 20
5716.3833400431504
 10
6824.233342149314
 20
5716.3833400431504
 10
6824.233342149314
 20
5716.3833400431504
 10
6824.233342149314
 20
5716.3833400431504
 10
6824.233342149314
 20
5716.3833400431504
  0
LWPOLYLINE
  5
29D
100
AcDbEntity
  8
___E
  6
CONTINUOUS
 62
             7
100
AcDbPolyline
 90
       36
 70
             1
 10
6818.2333420671221
 20
5705.3833403924646
 10
6817.233341553424
 20
5705.3833403924646
 10
6817.233341553424
 20
5705.3833403924646
 10
6817.233341553424
 20
5703.3833393650684
 10
6817.233341553424
 20
5703.3833393650684
 10
6815.2333420260265
 20
5703.3833393650684
 10
6815.2333420260265
 20
5703.3833393650684
 10
6815.2333420260265
 20
5702.383340351369
 10
6815.2333420260265
 20
5702.383340351369
 10
6817.233341553424
 20
5702.383340351369
 10
6817.233341553424
 20
5702.383340351369
 10
6817.233341553424
 20
5700.383339323972
 10
6817.233341553424
 20
5700.383339323972
 10
6818.2333420671221
 20
5700.383339323972
 10
6818.2333420671221
 20
5700.383339323972
 10
6818.2333420671221
 20
5702.383340351369
 10
6818.2333420671221
 20
5702.383340351369
 10
6820.2333415945204
 20
5702.383340351369
 10
6820.2333415945204
 20
5702.383340351369
 10
6820.2333415945204
 20
5703.3833393650684
 10
6820.2333415945204
 20
5703.3833393650684
 10
6818.2333420671221
 20
5703.3833393650684
 10
6818.2333420671221
 20
5703.3833393650684
 10
6818.2333420671221
 20
5705.3833403924646
 10
6818.2333420671221
 20
5705.3833403924646
 10
6818.2333420671221
 20
5705.3833403924646
 10
6818.2333420671221
 20
5705.3833403924646
 10
6818.2333420671221
 20
5705.3833403924646
 10
6818.2333420671221
 20
5705.3833403924646
 10
6818.2333420671221
 20
5705.3833403924646
 10
6818.2333420671221
 20
5705.3833403924646
 10
6818.2333420671221
 20
5705.3833403924646
 10
6818.2333420671221
 20
5705.3833403924646
 10
6818.2333420671221
 20
5705.3833403924646
 10
6818.2333420671221
 20
5705.3833403924646
 10
6818.2333420671221
 20
5705.3833403924646
  0
LWPOLYLINE
  5
29B
100
AcDbEntity
  8
___E
  6
CONTINUOUS
 62
             7
100
AcDbPolyline
 90
       36
 70
             1
 10
6818.2333420671221
 20
5695.3833397554781
 10
6817.233341553424
 20
5695.3833397554781
 10
6817.233341553424
 20
5695.3833397554781
 10
6817.233341553424
 20
5693.3833402280816
 10
6817.233341553424
 20
5693.3833402280816
 10
6815.2333420260265
 20
5693.3833402280816
 10
6815.2333420260265
 20
5693.3833402280816
 10
6815.2333420260265
 20
5692.3833397143826
 10
6815.2333420260265
 20
5692.3833397143826
 10
6817.233341553424
 20
5692.3833397143826
 10
6817.233341553424
 20
5692.3833397143826
 10
6817.233341553424
 20
5690.3833401869852
 10
6817.233341553424
 20
5690.3833401869852
 10
6818.2333420671221
 20
5690.3833401869852
 10
6818.2333420671221
 20
5690.3833401869852
 10
6818.2333420671221
 20
5692.3833397143826
 10
6818.2333420671221
 20
5692.3833397143826
 10
6820.2333415945204
 20
5692.3833397143826
 10
6820.2333415945204
 20
5692.3833397143826
 10
6820.2333415945204
 20
5693.3833402280816
 10
6820.2333415945204
 20
5693.3833402280816
 10
6818.2333420671221
 20
5693.3833402280816
 10
6818.2333420671221
 20
5693.3833402280816
 10
6818.2333420671221
 20
5695.3833397554781
 10
6818.2333420671221
 20
5695.3833397554781
 10
6818.2333420671221
 20
5695.3833397554781
 10
6818.2333420671221
 20
5695.3833397554781
 10
6818.2333420671221
 20
5695.3833397554781
 10
6818.2333420671221
 20
5695.3833397554781
 10
6818.2333420671221
 20
5695.3833397554781
 10
6818.2333420671221
 20
5695.3833397554781
 10
6818.2333420671221
 20
5695.3833397554781
 10
6818.2333420671221
 20
5695.3833397554781
 10
6818.2333420671221
 20
5695.3833397554781
 10
6818.2333420671221
 20
5695.3833397554781
 10
6818.2333420671221
 20
5695.3833397554781
  0
LWPOLYLINE
  5
299
100
AcDbEntity
  8
___E
  6
CONTINUOUS
 62
             7
100
AcDbPolyline
 90
       15
 70
             0
 10
6811.2333414712321
 20
5696.3833402691771
 10
6812.7333414917803
 20
5696.3833402691771
 10
6812.7333414917803
 20
5696.3833402691771
 10
6812.7333414917803
 20
5697.1833397801356
 10
6812.7333414917803
 20
5697.1833397801356
 10
6822.7333421287667
 20
5697.1833397801356
 10
6822.7333421287667
 20
5697.1833397801356
 10
6822.7333421287667
 20
5696.3833402691771
 10
6822.7333421287667
 20
5696.3833402691771
 10
6824.233342149314
 20
5696.3833402691771
 10
6824.233342149314
 20
5696.3833402691771
 10
6824.233342149314
 20
5696.3833402691771
 10
6824.233342149314
 20
5696.3833402691771
 10
6824.233342149314
 20
5696.3833402691771
 10
6824.233342149314
 20
5696.3833402691771
  0
LWPOLYLINE
  5
297
100
AcDbEntity
  8
___E
  6
CONTINUOUS
 62
             7
100
AcDbPolyline
 90
       36
 70
             1
 10
6812.7333414917803
 20
5699.3833403102726
 10
6811.2333414712321
 20
5699.3833403102726
 10
6811.2333414712321
 20
5699.3833403102726
 10
6811.2333414712321
 20
5689.3833396732871
 10
6811.2333414712321
 20
5689.3833396732871
 10
6812.7333414917803
 20
5689.3833396732871
 10
6812.7333414917803
 20
5689.3833396732871
 10
6812.7333414917803
 20
5688.5833401623277
 10
6812.7333414917803
 20
5688.5833401623277
 10
6822.7333421287667
 20
5688.5833401623277
 10
6822.7333421287667
 20
5688.5833401623277
 10
6822.7333421287667
 20
5689.3833396732871
 10
6822.7333421287667
 20
5689.3833396732871
 10
6824.233342149314
 20
5689.3833396732871
 10
6824.233342149314
 20
5689.3833396732871
 10
6824.233342149314
 20
5699.3833403102726
 10
6824.233342149314
 20
5699.3833403102726
 10
6822.7333421287667
 20
5699.3833403102726
 10
6822.7333421287667
 20
5699.3833403102726
 10
6822.7333421287667
 20
5698.5833392993154
 10
6822.7333421287667
 20
5698.5833392993154
 10
6812.7333414917803
 20
5698.5833392993154
 10
6812.7333414917803
 20
5698.5833392993154
 10
6812.7333414917803
 20
5699.3833403102726
 10
6812.7333414917803
 20
5699.3833403102726
 10
6812.7333414917803
 20
5699.3833403102726
 10
6812.7333414917803
 20
5699.3833403102726
 10
6812.7333414917803
 20
5699.3833403102726
 10
6812.7333414917803
 20
5699.3833403102726
 10
6812.7333414917803
 20
5699.3833403102726
 10
6812.7333414917803
 20
5699.3833403102726
 10
6812.7333414917803
 20
5699.3833403102726
 10
6812.7333414917803
 20
5699.3833403102726
 10
6812.7333414917803
 20
5699.3833403102726
 10
6812.7333414917803
 20
5699.3833403102726
 10
6812.7333414917803
 20
5699.3833403102726
  0
LWPOLYLINE
  5
295
100
AcDbEntity
  8
___E
  6
CONTINUOUS
 62
             7
100
AcDbPolyline
 90
       15
 70
             0
 10
6811.2333414712321
 20
5706.383339406163
 10
6812.7333414917803
 20
5706.383339406163
 10
6812.7333414917803
 20
5706.383339406163
 10
6812.7333414917803
 20
5707.1833404171221
 10
6812.7333414917803
 20
5707.1833404171221
 10
6822.7333421287667
 20
5707.1833404171221
 10
6822.7333421287667
 20
5707.1833404171221
 10
6822.7333421287667
 20
5706.383339406163
 10
6822.7333421287667
 20
5706.383339406163
 10
6824.233342149314
 20
5706.383339406163
 10
6824.233342149314
 20
5706.383339406163
 10
6824.233342149314
 20
5706.383339406163
 10
6824.233342149314
 20
5706.383339406163
 10
6824.233342149314
 20
5706.383339406163
 10
6824.233342149314
 20
5706.383339406163
  0
LWPOLYLINE
  5
293
100
AcDbEntity
  8
___E
  6
CONTINUOUS
 62
             7
100
AcDbPolyline
 90
       36
 70
             1
 10
6818.2333420671221
 20
5735.3833408034234
 10
6817.233341553424
 20
5735.3833408034234
 10
6817.233341553424
 20
5735.3833408034234
 10
6817.233341553424
 20
5733.3833397760263
 10
6817.233341553424
 20
5733.3833397760263
 10
6815.2333420260265
 20
5733.3833397760263
 10
6815.2333420260265
 20
5733.3833397760263
 10
6815.2333420260265
 20
5732.3833407623279
 10
6815.2333420260265
 20
5732.3833407623279
 10
6817.233341553424
 20
5732.3833407623279
 10
6817.233341553424
 20
5732.3833407623279
 10
6817.233341553424
 20
5730.3833397349308
 10
6817.233341553424
 20
5730.3833397349308
 10
6818.2333420671221
 20
5730.3833397349308
 10
6818.2333420671221
 20
5730.3833397349308
 10
6818.2333420671221
 20
5732.3833407623279
 10
6818.2333420671221
 20
5732.3833407623279
 10
6820.2333415945204
 20
5732.3833407623279
 10
6820.2333415945204
 20
5732.3833407623279
 10
6820.2333415945204
 20
5733.3833397760263
 10
6820.2333415945204
 20
5733.3833397760263
 10
6818.2333420671221
 20
5733.3833397760263
 10
6818.2333420671221
 20
5733.3833397760263
 10
6818.2333420671221
 20
5735.3833408034234
 10
6818.2333420671221
 20
5735.3833408034234
 10
6818.2333420671221
 20
5735.3833408034234
 10
6818.2333420671221
 20
5735.3833408034234
 10
6818.2333420671221
 20
5735.3833408034234
 10
6818.2333420671221
 20
5735.3833408034234
 10
6818.2333420671221
 20
5735.3833408034234
 10
6818.2333420671221
 20
5735.3833408034234
 10
6818.2333420671221
 20
5735.3833408034234
 10
6818.2333420671221
 20
5735.3833408034234
 10
6818.2333420671221
 20
5735.3833408034234
 10
6818.2333420671221
 20
5735.3833408034234
 10
6818.2333420671221
 20
5735.3833408034234
  0
LWPOLYLINE
  5
291
100
AcDbEntity
  8
___E
  6
CONTINUOUS
 62
             7
100
AcDbPolyline
 90
       36
 70
             1
 10
6818.2333420671221
 20
5725.3833401664378
 10
6817.233341553424
 20
5725.3833401664378
 10
6817.233341553424
 20
5725.3833401664378
 10
6817.233341553424
 20
5723.3833406390404
 10
6817.233341553424
 20
5723.3833406390404
 10
6815.2333420260265
 20
5723.3833406390404
 10
6815.2333420260265
 20
5723.3833406390404
 10
6815.2333420260265
 20
5722.3833401253414
 10
6815.2333420260265
 20
5722.3833401253414
 10
6817.233341553424
 20
5722.3833401253414
 10
6817.233341553424
 20
5722.3833401253414
 10
6817.233341553424
 20
5720.383340597944
 10
6817.233341553424
 20
5720.383340597944
 10
6818.2333420671221
 20
5720.383340597944
 10
6818.2333420671221
 20
5720.383340597944
 10
6818.2333420671221
 20
5722.3833401253414
 10
6818.2333420671221
 20
5722.3833401253414
 10
6820.2333415945204
 20
5722.3833401253414
 10
6820.2333415945204
 20
5722.3833401253414
 10
6820.2333415945204
 20
5723.3833406390404
 10
6820.2333415945204
 20
5723.3833406390404
 10
6818.2333420671221
 20
5723.3833406390404
 10
6818.2333420671221
 20
5723.3833406390404
 10
6818.2333420671221
 20
5725.3833401664378
 10
6818.2333420671221
 20
5725.3833401664378
 10
6818.2333420671221
 20
5725.3833401664378
 10
6818.2333420671221
 20
5725.3833401664378
 10
6818.2333420671221
 20
5725.3833401664378
 10
6818.2333420671221
 20
5725.3833401664378
 10
6818.2333420671221
 20
5725.3833401664378
 10
6818.2333420671221
 20
5725.3833401664378
 10
6818.2333420671221
 20
5725.3833401664378
 10
6818.2333420671221
 20
5725.3833401664378
 10
6818.2333420671221
 20
5725.3833401664378
 10
6818.2333420671221
 20
5725.3833401664378
 10
6818.2333420671221
 20
5725.3833401664378
  0
LWPOLYLINE
  5
28F
100
AcDbEntity
  8
___E
  6
CONTINUOUS
 62
             7
100
AcDbPolyline
 90
       15
 70
             0
 10
6811.2333414712321
 20
5726.3833406801359
 10
6812.7333414917803
 20
5726.3833406801359
 10
6812.7333414917803
 20
5726.3833406801359
 10
6812.7333414917803
 20
5727.1833401910953
 10
6812.7333414917803
 20
5727.1833401910953
 10
6822.7333421287667
 20
5727.1833401910953
 10
6822.7333421287667
 20
5727.1833401910953
 10
6822.7333421287667
 20
5726.3833406801359
 10
6822.7333421287667
 20
5726.3833406801359
 10
6824.233342149314
 20
5726.3833406801359
 10
6824.233342149314
 20
5726.3833406801359
 10
6824.233342149314
 20
5726.3833406801359
 10
6824.233342149314
 20
5726.3833406801359
 10
6824.233342149314
 20
5726.3833406801359
 10
6824.233342149314
 20
5726.3833406801359
  0
LWPOLYLINE
  5
28D
100
AcDbEntity
  8
___E
  6
CONTINUOUS
 62
             7
100
AcDbPolyline
 90
       36
 70
             1
 10
6812.7333414917803
 20
5729.3833407212323
 10
6811.2333414712321
 20
5729.3833407212323
 10
6811.2333414712321
 20
5729.3833407212323
 10
6811.2333414712321
 20
5719.3833400842459
 10
6811.2333414712321
 20
5719.3833400842459
 10
6812.7333414917803
 20
5719.3833400842459
 10
6812.7333414917803
 20
5719.3833400842459
 10
6812.7333414917803
 20
5718.5833405732874
 10
6812.7333414917803
 20
5718.5833405732874
 10
6822.7333421287667
 20
5718.5833405732874
 10
6822.7333421287667
 20
5718.5833405732874
 10
6822.7333421287667
 20
5719.3833400842459
 10
6822.7333421287667
 20
5719.3833400842459
 10
6824.233342149314
 20
5719.3833400842459
 10
6824.233342149314
 20
5719.3833400842459
 10
6824.233342149314
 20
5729.3833407212323
 10
6824.233342149314
 20
5729.3833407212323
 10
6822.7333421287667
 20
5729.3833407212323
 10
6822.7333421287667
 20
5729.3833407212323
 10
6822.7333421287667
 20
5728.5833397102733
 10
6822.7333421287667
 20
5728.5833397102733
 10
6812.7333414917803
 20
5728.5833397102733
 10
6812.7333414917803
 20
5728.5833397102733
 10
6812.7333414917803
 20
5729.3833407212323
 10
6812.7333414917803
 20
5729.3833407212323
 10
6812.7333414917803
 20
5729.3833407212323
 10
6812.7333414917803
 20
5729.3833407212323
 10
6812.7333414917803
 20
5729.3833407212323
 10
6812.7333414917803
 20
5729.3833407212323
 10
6812.7333414917803
 20
5729.3833407212323
 10
6812.7333414917803
 20
5729.3833407212323
 10
6812.7333414917803
 20
5729.3833407212323
 10
6812.7333414917803
 20
5729.3833407212323
 10
6812.7333414917803
 20
5729.3833407212323
 10
6812.7333414917803
 20
5729.3833407212323
 10
6812.7333414917803
 20
5729.3833407212323
  0
LWPOLYLINE
  5
28B
100
AcDbEntity
  8
___E
  6
CONTINUOUS
 62
             7
100
AcDbPolyline
 90
       15
 70
             0
 10
6811.2333414712321
 20
5736.3833398171228
 10
6812.7333414917803
 20
5736.3833398171228
 10
6812.7333414917803
 20
5736.3833398171228
 10
6812.7333414917803
 20
5737.1833408280818
 10
6812.7333414917803
 20
5737.1833408280818
 10
6822.7333421287667
 20
5737.1833408280818
 10
6822.7333421287667
 20
5737.1833408280818
 10
6822.7333421287667
 20
5736.3833398171228
 10
6822.7333421287667
 20
5736.3833398171228
 10
6824.233342149314
 20
5736.3833398171228
 10
6824.233342149314
 20
5736.3833398171228
 10
6824.233342149314
 20
5736.3833398171228
 10
6824.233342149314
 20
5736.3833398171228
 10
6824.233342149314
 20
5736.3833398171228
 10
6824.233342149314
 20
5736.3833398171228
  0
LWPOLYLINE
  5
289
100
AcDbEntity
  8
___E
  6
CONTINUOUS
 62
             7
100
AcDbPolyline
 90
       36
 70
             1
 10
6812.7333414917803
 20
5739.3833398582183
 10
6811.2333414712321
 20
5739.3833398582183
 10
6811.2333414712321
 20
5739.3833398582183
 10
6811.2333414712321
 20
5729.3833407212323
 10
6811.2333414712321
 20
5729.3833407212323
 10
6812.7333414917803
 20
5729.3833407212323
 10
6812.7333414917803
 20
5729.3833407212323
 10
6812.7333414917803
 20
5728.5833397102733
 10
6812.7333414917803
 20
5728.5833397102733
 10
6822.7333421287667
 20
5728.5833397102733
 10
6822.7333421287667
 20
5728.5833397102733
 10
6822.7333421287667
 20
5729.3833407212323
 10
6822.7333421287667
 20
5729.3833407212323
 10
6824.233342149314
 20
5729.3833407212323
 10
6824.233342149314
 20
5729.3833407212323
 10
6824.233342149314
 20
5739.3833398582183
 10
6824.233342149314
 20
5739.3833398582183
 10
6822.7333421287667
 20
5739.3833398582183
 10
6822.7333421287667
 20
5739.3833398582183
 10
6822.7333421287667
 20
5738.5833403472598
 10
6822.7333421287667
 20
5738.5833403472598
 10
6812.7333414917803
 20
5738.5833403472598
 10
6812.7333414917803
 20
5738.5833403472598
 10
6812.7333414917803
 20
5739.3833398582183
 10
6812.7333414917803
 20
5739.3833398582183
 10
6812.7333414917803
 20
5739.3833398582183
 10
6812.7333414917803
 20
5739.3833398582183
 10
6812.7333414917803
 20
5739.3833398582183
 10
6812.7333414917803
 20
5739.3833398582183
 10
6812.7333414917803
 20
5739.3833398582183
 10
6812.7333414917803
 20
5739.3833398582183
 10
6812.7333414917803
 20
5739.3833398582183
 10
6812.7333414917803
 20
5739.3833398582183
 10
6812.7333414917803
 20
5739.3833398582183
 10
6812.7333414917803
 20
5739.3833398582183
 10
6812.7333414917803
 20
5739.3833398582183
  0
LWPOLYLINE
  5
287
100
AcDbEntity
  8
___E
  6
CONTINUOUS
 62
             7
100
AcDbPolyline
 90
       36
 70
             1
 10
6818.2333420671221
 20
5685.3833391184926
 10
6817.233341553424
 20
5685.3833391184926
 10
6817.233341553424
 20
5685.3833391184926
 10
6817.233341553424
 20
5683.3833395910951
 10
6817.233341553424
 20
5683.3833395910951
 10
6815.2333420260265
 20
5683.3833395910951
 10
6815.2333420260265
 20
5683.3833395910951
 10
6815.2333420260265
 20
5682.3833390773962
 10
6815.2333420260265
 20
5682.3833390773962
 10
6817.233341553424
 20
5682.3833390773962
 10
6817.233341553424
 20
5682.3833390773962
 10
6817.233341553424
 20
5680.3833395499987
 10
6817.233341553424
 20
5680.3833395499987
 10
6818.2333420671221
 20
5680.3833395499987
 10
6818.2333420671221
 20
5680.3833395499987
 10
6818.2333420671221
 20
5682.3833390773962
 10
6818.2333420671221
 20
5682.3833390773962
 10
6820.2333415945204
 20
5682.3833390773962
 10
6820.2333415945204
 20
5682.3833390773962
 10
6820.2333415945204
 20
5683.3833395910951
 10
6820.2333415945204
 20
5683.3833395910951
 10
6818.2333420671221
 20
5683.3833395910951
 10
6818.2333420671221
 20
5683.3833395910951
 10
6818.2333420671221
 20
5685.3833391184926
 10
6818.2333420671221
 20
5685.3833391184926
 10
6818.2333420671221
 20
5685.3833391184926
 10
6818.2333420671221
 20
5685.3833391184926
 10
6818.2333420671221
 20
5685.3833391184926
 10
6818.2333420671221
 20
5685.3833391184926
 10
6818.2333420671221
 20
5685.3833391184926
 10
6818.2333420671221
 20
5685.3833391184926
 10
6818.2333420671221
 20
5685.3833391184926
 10
6818.2333420671221
 20
5685.3833391184926
 10
6818.2333420671221
 20
5685.3833391184926
 10
6818.2333420671221
 20
5685.3833391184926
 10
6818.2333420671221
 20
5685.3833391184926
  0
LWPOLYLINE
  5
285
100
AcDbEntity
  8
___E
  6
CONTINUOUS
 62
             7
100
AcDbPolyline
 90
       36
 70
             1
 10
6818.2333420671221
 20
5675.3833399815057
 10
6817.233341553424
 20
5675.3833399815057
 10
6817.233341553424
 20
5675.3833399815057
 10
6817.233341553424
 20
5673.3833389541087
 10
6817.233341553424
 20
5673.3833389541087
 10
6815.2333420260265
 20
5673.3833389541087
 10
6815.2333420260265
 20
5673.3833389541087
 10
6815.2333420260265
 20
5672.3833399404102
 10
6815.2333420260265
 20
5672.3833399404102
 10
6817.233341553424
 20
5672.3833399404102
 10
6817.233341553424
 20
5672.3833399404102
 10
6817.233341553424
 20
5670.3833389130123
 10
6817.233341553424
 20
5670.3833389130123
 10
6818.2333420671221
 20
5670.3833389130123
 10
6818.2333420671221
 20
5670.3833389130123
 10
6818.2333420671221
 20
5672.3833399404102
 10
6818.2333420671221
 20
5672.3833399404102
 10
6820.2333415945204
 20
5672.3833399404102
 10
6820.2333415945204
 20
5672.3833399404102
 10
6820.2333415945204
 20
5673.3833389541087
 10
6820.2333415945204
 20
5673.3833389541087
 10
6818.2333420671221
 20
5673.3833389541087
 10
6818.2333420671221
 20
5673.3833389541087
 10
6818.2333420671221
 20
5675.3833399815057
 10
6818.2333420671221
 20
5675.3833399815057
 10
6818.2333420671221
 20
5675.3833399815057
 10
6818.2333420671221
 20
5675.3833399815057
 10
6818.2333420671221
 20
5675.3833399815057
 10
6818.2333420671221
 20
5675.3833399815057
 10
6818.2333420671221
 20
5675.3833399815057
 10
6818.2333420671221
 20
5675.3833399815057
 10
6818.2333420671221
 20
5675.3833399815057
 10
6818.2333420671221
 20
5675.3833399815057
 10
6818.2333420671221
 20
5675.3833399815057
 10
6818.2333420671221
 20
5675.3833399815057
 10
6818.2333420671221
 20
5675.3833399815057
  0
LWPOLYLINE
  5
283
100
AcDbEntity
  8
___E
  6
CONTINUOUS
 62
             7
100
AcDbPolyline
 90
       21
 70
             0
 10
6811.2333414712321
 20
5669.3833398993138
 10
6811.2333414712321
 20
5666.3833398582183
 10
6811.2333414712321
 20
5666.3833398582183
 10
6812.7333414917803
 20
5666.3833398582183
 10
6812.7333414917803
 20
5666.3833398582183
 10
6812.7333414917803
 20
5667.1833393691768
 10
6812.7333414917803
 20
5667.1833393691768
 10
6822.7333421287667
 20
5667.1833393691768
 10
6822.7333421287667
 20
5667.1833393691768
 10
6822.7333421287667
 20
5666.3833398582183
 10
6822.7333421287667
 20
5666.3833398582183
 10
6824.233342149314
 20
5666.3833398582183
 10
6824.233342149314
 20
5666.3833398582183
 10
6824.233342149314
 20
5669.3833398993138
 10
6824.233342149314
 20
5669.3833398993138
 10
6824.233342149314
 20
5669.3833398993138
 10
6824.233342149314
 20
5669.3833398993138
 10
6824.233342149314
 20
5669.3833398993138
 10
6824.233342149314
 20
5669.3833398993138
 10
6824.233342149314
 20
5669.3833398993138
 10
6824.233342149314
 20
5669.3833398993138
  0
LWPOLYLINE
  5
281
100
AcDbEntity
  8
___E
  6
CONTINUOUS
 62
             7
100
AcDbPolyline
 90
       15
 70
             0
 10
6811.2333414712321
 20
5676.3833389952042
 10
6812.7333414917803
 20
5676.3833389952042
 10
6812.7333414917803
 20
5676.3833389952042
 10
6812.7333414917803
 20
5677.1833400061632
 10
6812.7333414917803
 20
5677.1833400061632
 10
6822.7333421287667
 20
5677.1833400061632
 10
6822.7333421287667
 20
5677.1833400061632
 10
6822.7333421287667
 20
5676.3833389952042
 10
6822.7333421287667
 20
5676.3833389952042
 10
6824.233342149314
 20
5676.3833389952042
 10
6824.233342149314
 20
5676.3833389952042
 10
6824.233342149314
 20
5676.3833389952042
 10
6824.233342149314
 20
5676.3833389952042
 10
6824.233342149314
 20
5676.3833389952042
 10
6824.233342149314
 20
5676.3833389952042
  0
LWPOLYLINE
  5
27F
100
AcDbEntity
  8
___E
  6
CONTINUOUS
 62
             7
100
AcDbPolyline
 90
       15
 70
             0
 10
6811.2333414712321
 20
5686.3833396321907
 10
6812.7333414917803
 20
5686.3833396321907
 10
6812.7333414917803
 20
5686.3833396321907
 10
6812.7333414917803
 20
5687.1833391431501
 10
6812.7333414917803
 20
5687.1833391431501
 10
6822.7333421287667
 20
5687.1833391431501
 10
6822.7333421287667
 20
5687.1833391431501
 10
6822.7333421287667
 20
5686.3833396321907
 10
6822.7333421287667
 20
5686.3833396321907
 10
6824.233342149314
 20
5686.3833396321907
 10
6824.233342149314
 20
5686.3833396321907
 10
6824.233342149314
 20
5686.3833396321907
 10
6824.233342149314
 20
5686.3833396321907
 10
6824.233342149314
 20
5686.3833396321907
 10
6824.233342149314
 20
5686.3833396321907
  0
LWPOLYLINE
  5
27D
100
AcDbEntity
  8
___E
  6
CONTINUOUS
 62
             7
100
AcDbPolyline
 90
       36
 70
             1
 10
6812.7333414917803
 20
5689.3833396732871
 10
6811.2333414712321
 20
5689.3833396732871
 10
6811.2333414712321
 20
5689.3833396732871
 10
6811.2333414712321
 20
5679.3833390363006
 10
6811.2333414712321
 20
5679.3833390363006
 10
6812.7333414917803
 20
5679.3833390363006
 10
6812.7333414917803
 20
5679.3833390363006
 10
6812.7333414917803
 20
5678.5833395253412
 10
6812.7333414917803
 20
5678.5833395253412
 10
6822.7333421287667
 20
5678.5833395253412
 10
6822.7333421287667
 20
5678.5833395253412
 10
6822.7333421287667
 20
5679.3833390363006
 10
6822.7333421287667
 20
5679.3833390363006
 10
6824.233342149314
 20
5679.3833390363006
 10
6824.233342149314
 20
5679.3833390363006
 10
6824.233342149314
 20
5689.3833396732871
 10
6824.233342149314
 20
5689.3833396732871
 10
6822.7333421287667
 20
5689.3833396732871
 10
6822.7333421287667
 20
5689.3833396732871
 10
6822.7333421287667
 20
5688.5833401623277
 10
6822.7333421287667
 20
5688.5833401623277
 10
6812.7333414917803
 20
5688.5833401623277
 10
6812.7333414917803
 20
5688.5833401623277
 10
6812.7333414917803
 20
5689.3833396732871
 10
6812.7333414917803
 20
5689.3833396732871
 10
6812.7333414917803
 20
5689.3833396732871
 10
6812.7333414917803
 20
5689.3833396732871
 10
6812.7333414917803
 20
5689.3833396732871
 10
6812.7333414917803
 20
5689.3833396732871
 10
6812.7333414917803
 20
5689.3833396732871
 10
6812.7333414917803
 20
5689.3833396732871
 10
6812.7333414917803
 20
5689.3833396732871
 10
6812.7333414917803
 20
5689.3833396732871
 10
6812.7333414917803
 20
5689.3833396732871
 10
6812.7333414917803
 20
5689.3833396732871
 10
6812.7333414917803
 20
5689.3833396732871
  0
LWPOLYLINE
  5
27B
100
AcDbEntity
  8
___E
  6
CONTINUOUS
 62
             7
100
AcDbPolyline
 90
       12
 70
             1
 10
6810.9833409678076
 20
5666.1333393547939
 10
6824.4833411527388
 20
5666.1333393547939
 10
6824.4833411527388
 20
5666.1333393547939
 10
6824.4833411527388
 20
5739.6333403616427
 10
6824.4833411527388
 20
5739.6333403616427
 10
6810.9833409678076
 20
5739.6333403616427
 10
6810.9833409678076
 20
5739.6333403616427
 10
6810.9833409678076
 20
5666.1333393547939
 10
6810.9833409678076
 20
5666.1333393547939
 10
6810.9833409678076
 20
5666.1333393547939
 10
6810.9833409678076
 20
5666.1333393547939
 10
6810.9833409678076
 20
5666.1333393547939
  0
LWPOLYLINE
  5
279
100
AcDbEntity
  8
___E
  6
CONTINUOUS
 62
             7
100
AcDbPolyline
 90
       12
 70
             1
 10
6799.7333408136974
 20
5633.1333389027386
 10
6870.7333427863014
 20
5633.1333389027386
 10
6870.7333427863014
 20
5633.1333389027386
 10
6870.7333427863014
 20
5807.1333412863014
 10
6870.7333427863014
 20
5807.1333412863014
 10
6799.7333408136974
 20
5807.1333412863014
 10
6799.7333408136974
 20
5807.1333412863014
 10
6799.7333408136974
 20
5633.1333389027386
 10
6799.7333408136974
 20
5633.1333389027386
 10
6799.7333408136974
 20
5633.1333389027386
 10
6799.7333408136974
 20
5633.1333389027386
 10
6799.7333408136974
 20
5633.1333389027386
  0
LWPOLYLINE
  5
277
100
AcDbEntity
  8
___E
  6
CONTINUOUS
 62
             7
100
AcDbPolyline
 90
        9
 70
             0
 10
6997.7333445739732
 20
5627.1333388205467
 10
6996.1333440520557
 20
5627.1333388205467
 10
6996.1333440520557
 20
5627.1333388205467
 10
6996.1333440520557
 20
5609.1333385739717
 10
6996.1333440520557
 20
5609.1333385739717
 10
6997.7333445739732
 20
5609.1333385739717
 10
6997.7333445739732
 20
5609.1333385739717
 10
6997.7333445739732
 20
5609.1333385739717
 10
6997.7333445739732
 20
5609.1333385739717
  0
LWPOLYLINE
  5
275
100
AcDbEntity
  8
___E
  6
CONTINUOUS
 62
             7
100
AcDbPolyline
 90
       18
 70
             1
 10
6819.2333410808214
 20
5627.1333388205467
 10
6811.4391129740507
 20
5622.6333387589029
 10
6811.4391129740507
 20
5622.6333387589029
 10
6811.4391129740507
 20
5613.6333386356164
 10
6811.4391129740507
 20
5613.6333386356164
 10
6819.2333410808214
 20
5609.1333385739717
 10
6819.2333410808214
 20
5609.1333385739717
 10
6827.0275706875909
 20
5613.6333386356164
 10
6827.0275706875909
 20
5613.6333386356164
 10
6827.0275706875909
 20
5622.6333387589029
 10
6827.0275706875909
 20
5622.6333387589029
 10
6819.2333410808214
 20
5627.1333388205467
 10
6819.2333410808214
 20
5627.1333388205467
 10
6819.2333410808214
 20
5627.1333388205467
 10
6819.2333410808214
 20
5627.1333388205467
 10
6819.2333410808214
 20
5627.1333388205467
 10
6819.2333410808214
 20
5627.1333388205467
 10
6819.2333410808214
 20
5627.1333388205467
  0
LWPOLYLINE
  5
273
100
AcDbEntity
  8
___E
  6
CONTINUOUS
 62
             7
100
AcDbPolyline
 90
       18
 70
             1
 10
6851.2333425191773
 20
5627.1333388205467
 10
6843.4391129124069
 20
5622.6333387589029
 10
6843.4391129124069
 20
5622.6333387589029
 10
6843.4391129124069
 20
5613.6333386356164
 10
6843.4391129124069
 20
5613.6333386356164
 10
6851.2333425191773
 20
5609.1333385739717
 10
6851.2333425191773
 20
5609.1333385739717
 10
6859.0275706259472
 20
5613.6333386356164
 10
6859.0275706259472
 20
5613.6333386356164
 10
6859.0275706259472
 20
5622.6333387589029
 10
6859.0275706259472
 20
5622.6333387589029
 10
6851.2333425191773
 20
5627.1333388205467
 10
6851.2333425191773
 20
5627.1333388205467
 10
6851.2333425191773
 20
5627.1333388205467
 10
6851.2333425191773
 20
5627.1333388205467
 10
6851.2333425191773
 20
5627.1333388205467
 10
6851.2333425191773
 20
5627.1333388205467
 10
6851.2333425191773
 20
5627.1333388205467
  0
CIRCLE
  5
271
100
AcDbEntity
  8
___E
  6
CONTINUOUS
 62
             7
100
AcDbCircle
 10
6990.233344471234
 20
5803.133340731506
 40
3.00000004109643
  0
CIRCLE
  5
270
100
AcDbEntity
  8
___E
  6
CONTINUOUS
 62
             7
100
AcDbCircle
 10
6856.7333415945204
 20
5668.1333388821904
 40
3.00000004109552
  0
CIRCLE
  5
26F
100
AcDbEntity
  8
___E
  6
CONTINUOUS
 62
             7
100
AcDbCircle
 10
6831.2333412452044
 20
5668.1333388821904
 40
3.00000004109643
  0
CIRCLE
  5
26E
100
AcDbEntity
  8
___E
  6
CONTINUOUS
 62
             7
100
AcDbCircle
 10
6856.2333420876703
 20
5744.1333404232864
 40
1.99999952739745
  0
CIRCLE
  5
26D
100
AcDbEntity
  8
___E
  6
CONTINUOUS
 62
             7
100
AcDbCircle
 10
6856.2333420876703
 20
5753.1333405465748
 40
1.99999952739745
  0
CIRCLE
  5
26C
100
AcDbEntity
  8
___E
  6
CONTINUOUS
 62
             7
100
AcDbCircle
 10
6856.2333420876703
 20
5762.1333406698623
 40
1.99999952739745
  0
CIRCLE
  5
26B
100
AcDbEntity
  8
___E
  6
CONTINUOUS
 62
             7
100
AcDbCircle
 10
6856.2333420876703
 20
5744.1333404232864
 40
2.7499995376711
  0
CIRCLE
  5
26A
100
AcDbEntity
  8
___E
  6
CONTINUOUS
 62
             7
100
AcDbCircle
 10
6856.2333420876703
 20
5753.1333405465748
 40
2.7499995376711
  0
CIRCLE
  5
269
100
AcDbEntity
  8
___E
  6
CONTINUOUS
 62
             7
100
AcDbCircle
 10
6856.2333420876703
 20
5762.1333406698623
 40
2.7499995376711
  0
CIRCLE
  5
268
100
AcDbEntity
  8
___E
  6
CONTINUOUS
 62
             7
100
AcDbCircle
 10
6856.7333415945204
 20
5771.1333407931497
 40
1.75000052397172
  0
CIRCLE
  5
267
100
AcDbEntity
  8
___E
  6
CONTINUOUS
 62
             7
100
AcDbCircle
 10
6817.7333410602732
 20
5712.8833404952047
 40
4.0000005547945
  0
CIRCLE
  5
266
100
AcDbEntity
  8
___E
  6
CONTINUOUS
 62
             7
100
AcDbCircle
 10
6817.7333410602732
 20
5702.8833398582183
 40
4.0000005547945
  0
CIRCLE
  5
265
100
AcDbEntity
  8
___E
  6
CONTINUOUS
 62
             7
100
AcDbCircle
 10
6817.7333410602732
 20
5692.8833392212318
 40
4.0000005547945
  0
CIRCLE
  5
264
100
AcDbEntity
  8
___E
  6
CONTINUOUS
 62
             7
100
AcDbCircle
 10
6817.7333410602732
 20
5732.8833402691771
 40
4.0000005547945
  0
CIRCLE
  5
263
100
AcDbEntity
  8
___E
  6
CONTINUOUS
 62
             7
100
AcDbCircle
 10
6817.7333410602732
 20
5722.8833396321907
 40
4.0000005547945
  0
CIRCLE
  5
262
100
AcDbEntity
  8
___E
  6
CONTINUOUS
 62
             7
100
AcDbCircle
 10
6817.7333410602732
 20
5682.8833400842459
 40
4.0000005547945
  0
CIRCLE
  5
261
100
AcDbEntity
  8
___E
  6
CONTINUOUS
 62
             7
100
AcDbCircle
 10
6817.7333410602732
 20
5672.8833394472604
 40
4.0000005547945
  0
CIRCLE
  5
260
100
AcDbEntity
  8
___E
  6
CONTINUOUS
 62
             7
100
AcDbCircle
 10
6835.2333417999989
 20
5776.1333403616427
 40
3.00000004109643
  0
CIRCLE
  5
25F
100
AcDbEntity
  8
___E
  6
CONTINUOUS
 62
             7
100
AcDbCircle
 10
7034.2333445739732
 20
5797.1333406493141
 40
4.0000005547945
  0
CIRCLE
  5
25E
100
AcDbEntity
  8
___E
  6
CONTINUOUS
 62
             7
100
AcDbCircle
 10
7034.2333445739732
 20
5643.1333395397251
 40
4.0000005547945
  0
CIRCLE
  5
25D
100
AcDbEntity
  8
___E
  6
CONTINUOUS
 62
             7
100
AcDbCircle
 10
6835.2333417999989
 20
5630.1333388616431
 40
3.00000004109643
  0
CIRCLE
  5
25C
100
AcDbEntity
  8
___E
  6
CONTINUOUS
 62
             7
100
AcDbCircle
 10
6819.2333410808214
 20
5618.1333386972592
 40
9.00000012328746
  0
CIRCLE
  5
25B
100
AcDbEntity
  8
___E
  6
CONTINUOUS
 62
             7
100
AcDbCircle
 10
6851.2333425191773
 20
5618.1333386972592
 40
9.00000012328746
  0
ARC
  5
25A
100
AcDbEntity
  8
___E
  6
CONTINUOUS
 62
             7
100
AcDbCircle
 10
6819.8318170890198
 20
5748.349252481039
 40
0.16500000226008
100
AcDbArc
 50
-12.60158900018418
 51
113.98738400002514
  0
ARC
  5
259
100
AcDbEntity
  8
___E
  6
CONTINUOUS
 62
             7
100
AcDbCircle
 10
6818.8473175755344
 20
5748.7010759858586
 40
0.16500000226139
100
AcDbArc
 50
153.09390699994518
 51
-69.35121800037646
  0
ARC
  5
258
100
AcDbEntity
  8
___E
  6
CONTINUOUS
 62
             7
100
AcDbCircle
 10
6813.7333420054783
 20
5743.6833404171221
 40
0.55000050753394
100
AcDbArc
 50
149.23727999991792
 51
-90.0
  0
ARC
  5
257
100
AcDbEntity
  8
___E
  6
CONTINUOUS
 62
             7
100
AcDbCircle
 10
6825.548458167329
 20
5743.6833404171221
 40
0.5500005075337
100
AcDbArc
 50
-90.0
 51
30.76272000003364
  0
ARC
  5
256
100
AcDbEntity
  8
___E
  6
CONTINUOUS
 62
             7
100
AcDbCircle
 10
6819.6409000864041
 20
5753.6080380530784
 40
0.55000050753503
100
AcDbArc
 50
30.76271999990377
 51
149.23727999999932
  0
ARC
  5
255
100
AcDbEntity
  8
___E
  6
CONTINUOUS
 62
             7
100
AcDbCircle
 10
6943.2333443273983
 20
5668.1333388821904
 40
1.0000005136989
100
AcDbArc
 50
165.52248799998722
 51
180.0
  0
ARC
  5
254
100
AcDbEntity
  8
___E
  6
CONTINUOUS
 62
             7
100
AcDbCircle
 10
6943.2333443273983
 20
5774.1333408342452
 40
1.00000051369898
100
AcDbArc
 50
180.0
 51
-90.0
  0
ARC
  5
253
100
AcDbEntity
  8
___E
  6
CONTINUOUS
 62
             7
100
AcDbCircle
 10
6943.2333443273983
 20
5778.1333413890407
 40
1.00000051369807
100
AcDbArc
 50
90.0
 51
180.0
  0
ARC
  5
252
100
AcDbEntity
  8
___E
  6
CONTINUOUS
 62
             7
100
AcDbCircle
 10
6946.4333438712338
 20
5712.8833404952047
 40
12.49999967123375
100
AcDbArc
 50
163.7397950000053
 51
-163.7397950000053
  0
ARC
  5
251
100
AcDbEntity
  8
___E
  6
CONTINUOUS
 62
             7
100
AcDbCircle
 10
6946.4333438712338
 20
5722.8833396321907
 40
12.499999671234
100
AcDbArc
 50
163.73979500000127
 51
-163.7397950000053
  0
ARC
  5
250
100
AcDbEntity
  8
___E
  6
CONTINUOUS
 62
             7
100
AcDbCircle
 10
6946.4333438712338
 20
5732.8833402691771
 40
12.499999671234
100
AcDbArc
 50
163.73979500000127
 51
-163.7397950000053
  0
ARC
  5
24F
100
AcDbEntity
  8
___E
  6
CONTINUOUS
 62
             7
100
AcDbCircle
 10
6946.4333438712338
 20
5672.8833394472604
 40
12.49999967123349
100
AcDbArc
 50
163.73979500000928
 51
-163.73979499999729
  0
ARC
  5
24E
100
AcDbEntity
  8
___E
  6
CONTINUOUS
 62
             7
100
AcDbCircle
 10
6946.4333438712338
 20
5682.8833400842459
 40
12.49999967123375
100
AcDbArc
 50
163.7397950000053
 51
-163.73979500000127
  0
ARC
  5
24D
100
AcDbEntity
  8
___E
  6
CONTINUOUS
 62
             7
100
AcDbCircle
 10
6946.4333438712338
 20
5692.8833392212318
 40
12.49999967123375
100
AcDbArc
 50
163.7397950000053
 51
-163.73979500000928
  0
ARC
  5
24C
100
AcDbEntity
  8
___E
  6
CONTINUOUS
 62
             7
100
AcDbCircle
 10
6946.4333438712338
 20
5702.8833398582183
 40
12.49999967123375
100
AcDbArc
 50
163.7397950000053
 51
-163.7397950000053
  0
ARC
  5
24B
100
AcDbEntity
  8
___E
  6
CONTINUOUS
 62
             7
100
AcDbCircle
 10
6812.7833409924651
 20
5636.6833394513687
 40
1.00000051369898
100
AcDbArc
 50
180.0
 51
-90.0
  0
ARC
  5
24A
100
AcDbEntity
  8
___E
  6
CONTINUOUS
 62
             7
100
AcDbCircle
 10
6812.7833409924651
 20
5649.6833386294511
 40
1.00000051369898
100
AcDbArc
 50
90.0
 51
180.0
  0
ARC
  5
249
100
AcDbEntity
  8
___E
  6
CONTINUOUS
 62
             7
100
AcDbCircle
 10
6865.7833427184923
 20
5636.6833394513687
 40
1.00000051369807
100
AcDbArc
 50
-90.0
 51
0.0
  0
ARC
  5
248
100
AcDbEntity
  8
___E
  6
CONTINUOUS
 62
             7
100
AcDbCircle
 10
6865.7833427184923
 20
5649.6833386294511
 40
1.00000051369898
100
AcDbArc
 50
0.0
 51
90.0
  0
ARC
  5
247
100
AcDbEntity
  8
___E
  6
CONTINUOUS
 62
             7
100
AcDbCircle
 10
6798.7333417999989
 20
5800.1333406904114
 40
1.00000051369716
100
AcDbArc
 50
90.0
 51
180.0
  0
ARC
  5
246
100
AcDbEntity
  8
___E
  6
CONTINUOUS
 62
             7
100
AcDbCircle
 10
6798.7333417999989
 20
5794.1333406082194
 40
1.00000051369807
100
AcDbArc
 50
180.0
 51
-90.0
  0
ARC
  5
245
100
AcDbEntity
  8
___E
  6
CONTINUOUS
 62
             7
100
AcDbCircle
 10
6798.7333417999989
 20
5646.1333395808206
 40
1.00000051369898
100
AcDbArc
 50
90.0
 51
180.0
  0
ARC
  5
244
100
AcDbEntity
  8
___E
  6
CONTINUOUS
 62
             7
100
AcDbCircle
 10
6798.7333417999989
 20
5640.1333394986304
 40
1.00000051369807
100
AcDbArc
 50
180.0
 51
-90.0
  0
ARC
  5
243
100
AcDbEntity
  8
___E
  6
CONTINUOUS
 62
             7
100
AcDbCircle
 10
6871.7333417999989
 20
5640.1333394986304
 40
1.00000051369989
100
AcDbArc
 50
-90.0
 51
0.0
  0
ARC
  5
242
100
AcDbEntity
  8
___E
  6
CONTINUOUS
 62
             7
100
AcDbCircle
 10
6871.7333417999989
 20
5646.1333395808206
 40
1.00000051369898
100
AcDbArc
 50
0.0
 51
90.0
  0
ARC
  5
241
100
AcDbEntity
  8
___E
  6
CONTINUOUS
 62
             7
100
AcDbCircle
 10
6871.7333417999989
 20
5794.1333406082194
 40
1.00000051369989
100
AcDbArc
 50
-90.0
 51
0.0
  0
ARC
  5
240
100
AcDbEntity
  8
___E
  6
CONTINUOUS
 62
             7
100
AcDbCircle
 10
6871.7333417999989
 20
5800.1333406904114
 40
1.00000051369898
100
AcDbArc
 50
0.0
 51
90.0
  0
ARC
  5
23F
100
AcDbEntity
  8
___E
  6
CONTINUOUS
 62
             7
100
AcDbCircle
 10
6989.5389269617208
 20
5612.3617511181974
 40
1.90692752612096
100
AcDbArc
 50
111.7162639999973
 51
-114.98941799999166
  0
ARC
  5
23E
100
AcDbEntity
  8
___E
  6
CONTINUOUS
 62
             7
100
AcDbCircle
 10
6989.574253462205
 20
5623.8833382760267
 40
1.94155352659663
100
AcDbArc
 50
115.66519100001035
 51
-115.66519100001035
  0
ARC
  5
23D
100
AcDbEntity
  8
___E
  6
CONTINUOUS
 62
             7
100
AcDbCircle
 10
6995.8785825485656
 20
5618.222029198474
 40
8.14572161158519
100
AcDbArc
 50
151.30366499999224
 51
-149.87134500000266
  0
ARC
  5
23C
100
AcDbEntity
  8
___E
  6
CONTINUOUS
 62
             7
100
AcDbCircle
 10
6835.2333417999989
 20
5630.1333388616431
 40
4.0000005547945
100
AcDbArc
 50
180.0
 51
0.0
  0
ARC
  5
23B
100
AcDbEntity
  8
___E
  6
CONTINUOUS
 62
             7
100
AcDbCircle
 10
6855.2333415739722
 20
5814.1333418821914
 40
3.00000004109643
100
AcDbArc
 50
180.0
 51
0.0
  0
ARC
  5
23A
100
AcDbEntity
  8
___E
  6
CONTINUOUS
 62
             7
100
AcDbCircle
 10
6855.2333415739722
 20
5600.1333384506843
 40
3.00000004109552
100
AcDbArc
 50
0.0
 51
180.0
  0
ARC
  5
239
100
AcDbEntity
  8
___E
  6
CONTINUOUS
 62
             7
100
AcDbCircle
 10
6815.2333420260265
 20
5600.1333384506843
 40
3.00000004109552
100
AcDbArc
 50
0.0
 51
180.0
  0
ARC
  5
238
100
AcDbEntity
  8
___E
  6
CONTINUOUS
 62
             7
100
AcDbCircle
 10
6815.2333420260265
 20
5814.1333418821914
 40
3.00000004109552
100
AcDbArc
 50
180.0
 51
0.0
  0
LINE
  5
158
100
AcDbEntity
  8
___E
  6
CONTINUOUS
 62
             7
100
AcDbLine
 10
6988.5833444486307
 20
5801.4833407089036
 11
6991.9833449952066
 21
5804.8833412554786
  0
LINE
  5
157
100
AcDbEntity
  8
___E
  6
CONTINUOUS
 62
             7
100
AcDbLine
 10
6991.8833444938364
 20
5801.4833407089036
 11
6988.5333449479458
 21
5804.8333417547938
  0
LINE
  5
156
100
AcDbEntity
  8
___E
  6
CONTINUOUS
 62
             7
100
AcDbLine
 10
6815.4833410294514
 20
5766.1333412246568
 11
6815.4833410294514
 21
5762.1333406698623
  0
LINE
  5
155
100
AcDbEntity
  8
___E
  6
CONTINUOUS
 62
             7
100
AcDbLine
 10
6813.4833415020539
 20
5766.1333412246568
 11
6815.4833410294514
 21
5766.1333412246568
  0
LINE
  5
154
100
AcDbEntity
  8
___E
  6
CONTINUOUS
 62
             7
100
AcDbLine
 10
6813.4833415020539
 20
5766.1333412246568
 11
6816.4833415431494
 21
5774.1333408342452
  0
LINE
  5
153
100
AcDbEntity
  8
___E
  6
CONTINUOUS
 62
             7
100
AcDbLine
 10
6819.5006500844829
 20
5751.5345910246742
 11
6820.1908990939382
 21
5751.7133400271223
  0
LINE
  5
152
100
AcDbEntity
  8
___E
  6
CONTINUOUS
 62
             7
100
AcDbLine
 10
6819.0908995788704
 20
5751.9883410308894
 11
6819.5006500844829
 21
5751.5345910246742
  0
LINE
  5
151
100
AcDbEntity
  8
___E
  6
CONTINUOUS
 62
             7
100
AcDbLine
 10
6819.7647385881
 20
5748.5000024831043
 11
6817.7158990600346
 21
5747.5883399706154
  0
LINE
  5
150
100
AcDbEntity
  8
___E
  6
CONTINUOUS
 62
             7
100
AcDbLine
 10
6819.2139505805553
 20
5744.8291439328186
 11
6819.9928420912256
 21
5748.3132539805456
  0
LINE
  5
14F
100
AcDbEntity
  8
___E
  6
CONTINUOUS
 62
             7
100
AcDbLine
 10
6818.90550257633
 20
5748.5466764837438
 11
6820.7408996014728
 21
5749.2383399932187
  0
LINE
  5
14E
100
AcDbEntity
  8
___E
  6
CONTINUOUS
 62
             7
100
AcDbLine
 10
6820.1908990939382
 20
5751.7133400271223
 11
6818.7001795735177
 21
5748.7757444868812
  0
LINE
  5
14D
100
AcDbEntity
  8
___E
  6
CONTINUOUS
 62
             7
100
AcDbLine
 10
6819.5871820856682
 20
5744.8542134331619
 11
6820.7408996014728
 21
5749.2383399932187
  0
LINE
  5
14C
100
AcDbEntity
  8
___E
  6
CONTINUOUS
 62
             7
100
AcDbLine
 10
6820.1908990939382
 20
5745.0583409359579
 11
6819.5871820856682
 21
5744.8542134331619
  0
LINE
  5
14B
100
AcDbEntity
  8
___E
  6
CONTINUOUS
 62
             7
100
AcDbLine
 10
6819.1459000796231
 20
5744.2333409246567
 11
6820.1908990939382
 21
5745.0583409359579
  0
LINE
  5
14A
100
AcDbEntity
  8
___E
  6
CONTINUOUS
 62
             7
100
AcDbLine
 10
6818.8159000751029
 20
5745.3333404397254
 11
6819.2139505805553
 21
5744.8291439328186
  0
LINE
  5
149
100
AcDbEntity
  8
___E
  6
CONTINUOUS
 62
             7
100
AcDbLine
 10
6819.1459000796231
 20
5744.2333409246567
 11
6818.8159000751029
 21
5745.3333404397254
  0
LINE
  5
148
100
AcDbEntity
  8
___E
  6
CONTINUOUS
 62
             7
100
AcDbLine
 10
6819.0908995788704
 20
5751.9883410308894
 11
6817.7158990600346
 21
5747.5883399706154
  0
LINE
  5
147
100
AcDbEntity
  8
___E
  6
CONTINUOUS
 62
             7
100
AcDbLine
 10
6826.0210691738039
 20
5743.9646564209761
 11
6820.1135110928781
 21
5753.8893540569306
  0
LINE
  5
146
100
AcDbEntity
  8
___E
  6
CONTINUOUS
 62
             7
100
AcDbLine
 10
6813.7333420054783
 20
5743.1333399095884
 11
6825.548458167329
 21
5743.1333399095884
  0
LINE
  5
145
100
AcDbEntity
  8
___E
  6
CONTINUOUS
 62
             7
100
AcDbLine
 10
6819.1682890799302
 20
5753.8893540569306
 11
6813.2607309990044
 21
5743.9646564209761
  0
LINE
  5
144
100
AcDbEntity
  8
___E
  6
CONTINUOUS
 62
             7
100
AcDbLine
 10
6945.2333438547948
 20
5808.1333418000004
 11
6945.2333438547948
 21
5798.133341163013
  0
LINE
  5
143
100
AcDbEntity
  8
___E
  6
CONTINUOUS
 62
             7
100
AcDbLine
 10
6945.2333438547948
 20
5798.133341163013
 11
7027.2333454780828
 21
5798.133341163013
  0
LINE
  5
142
100
AcDbEntity
  8
___E
  6
CONTINUOUS
 62
             7
100
AcDbLine
 10
6854.9833425705474
 20
5669.883339406163
 11
6858.3833416171228
 21
5666.483338859588
  0
LINE
  5
141
100
AcDbEntity
  8
___E
  6
CONTINUOUS
 62
             7
100
AcDbLine
 10
6858.4333426178073
 20
5669.8333399054782
 11
6855.0833415719171
 21
5666.483338859588
  0
LINE
  5
140
100
AcDbEntity
  8
___E
  6
CONTINUOUS
 62
             7
100
AcDbLine
 10
6829.4833422212323
 20
5669.883339406163
 11
6832.8833412678077
 21
5666.483338859588
  0
LINE
  5
13F
100
AcDbEntity
  8
___E
  6
CONTINUOUS
 62
             7
100
AcDbLine
 10
6832.9333422684922
 20
5669.8333399054782
 11
6829.583341222602
 21
5666.483338859588
  0
LINE
  5
13E
100
AcDbEntity
  8
___E
  6
CONTINUOUS
 62
             7
100
AcDbLine
 10
6857.2333426013693
 20
5743.1333399095884
 11
6855.2333415739722
 21
5745.1333409369854
  0
LINE
  5
13D
100
AcDbEntity
  8
___E
  6
CONTINUOUS
 62
             7
100
AcDbLine
 10
6855.2333415739722
 20
5743.1333399095884
 11
6857.2333426013693
 21
5745.1333409369854
  0
LINE
  5
13C
100
AcDbEntity
  8
___E
  6
CONTINUOUS
 62
             7
100
AcDbLine
 10
6857.2333426013693
 20
5752.1333400328758
 11
6855.2333415739722
 21
5754.1333410602729
  0
LINE
  5
13B
100
AcDbEntity
  8
___E
  6
CONTINUOUS
 62
             7
100
AcDbLine
 10
6855.2333415739722
 20
5752.1333400328758
 11
6857.2333426013693
 21
5754.1333410602729
  0
LINE
  5
13A
100
AcDbEntity
  8
___E
  6
CONTINUOUS
 62
             7
100
AcDbLine
 10
6857.2333426013693
 20
5761.1333401561633
 11
6855.2333415739722
 21
5763.1333411835603
  0
LINE
  5
139
100
AcDbEntity
  8
___E
  6
CONTINUOUS
 62
             7
100
AcDbLine
 10
6855.2333415739722
 20
5761.1333401561633
 11
6857.2333426013693
 21
5763.1333411835603
  0
LINE
  5
138
100
AcDbEntity
  8
___E
  6
CONTINUOUS
 62
             7
100
AcDbLine
 10
6812.7333414917803
 20
5716.3833400431504
 11
6812.7333414917803
 21
5709.3833394472604
  0
LINE
  5
137
100
AcDbEntity
  8
___E
  6
CONTINUOUS
 62
             7
100
AcDbLine
 10
6822.7333421287667
 20
5716.3833400431504
 11
6822.7333421287667
 21
5709.3833394472604
  0
LINE
  5
136
100
AcDbEntity
  8
___E
  6
CONTINUOUS
 62
             7
100
AcDbLine
 10
6812.7333414917803
 20
5696.3833402691771
 11
6812.7333414917803
 21
5689.3833396732871
  0
LINE
  5
135
100
AcDbEntity
  8
___E
  6
CONTINUOUS
 62
             7
100
AcDbLine
 10
6822.7333421287667
 20
5696.3833402691771
 11
6822.7333421287667
 21
5689.3833396732871
  0
LINE
  5
134
100
AcDbEntity
  8
___E
  6
CONTINUOUS
 62
             7
100
AcDbLine
 10
6812.7333414917803
 20
5706.383339406163
 11
6812.7333414917803
 21
5699.3833403102726
  0
LINE
  5
133
100
AcDbEntity
  8
___E
  6
CONTINUOUS
 62
             7
100
AcDbLine
 10
6822.7333421287667
 20
5706.383339406163
 11
6822.7333421287667
 21
5699.3833403102726
  0
LINE
  5
132
100
AcDbEntity
  8
___E
  6
CONTINUOUS
 62
             7
100
AcDbLine
 10
6812.7333414917803
 20
5739.3833398582183
 11
6822.7333421287667
 21
5739.3833398582183
  0
LINE
  5
131
100
AcDbEntity
  8
___E
  6
CONTINUOUS
 62
             7
100
AcDbLine
 10
6812.7333414917803
 20
5726.3833406801359
 11
6812.7333414917803
 21
5719.3833400842459
  0
LINE
  5
130
100
AcDbEntity
  8
___E
  6
CONTINUOUS
 62
             7
100
AcDbLine
 10
6822.7333421287667
 20
5726.3833406801359
 11
6822.7333421287667
 21
5719.3833400842459
  0
LINE
  5
12F
100
AcDbEntity
  8
___E
  6
CONTINUOUS
 62
             7
100
AcDbLine
 10
6812.7333414917803
 20
5736.3833398171228
 11
6812.7333414917803
 21
5729.3833407212323
  0
LINE
  5
12E
100
AcDbEntity
  8
___E
  6
CONTINUOUS
 62
             7
100
AcDbLine
 10
6822.7333421287667
 20
5736.3833398171228
 11
6822.7333421287667
 21
5729.3833407212323
  0
LINE
  5
12D
100
AcDbEntity
  8
___E
  6
CONTINUOUS
 62
             7
100
AcDbLine
 10
6812.7333414917803
 20
5666.3833398582183
 11
6822.7333421287667
 21
5666.3833398582183
  0
LINE
  5
12C
100
AcDbEntity
  8
___E
  6
CONTINUOUS
 62
             7
100
AcDbLine
 10
6812.7333414917803
 20
5678.5833395253412
 11
6812.7333414917803
 21
5679.3833390363006
  0
LINE
  5
12B
100
AcDbEntity
  8
___E
  6
CONTINUOUS
 62
             7
100
AcDbLine
 10
6822.7333421287667
 20
5678.5833395253412
 11
6812.7333414917803
 21
5678.5833395253412
  0
LINE
  5
12A
100
AcDbEntity
  8
___E
  6
CONTINUOUS
 62
             7
100
AcDbLine
 10
6822.7333421287667
 20
5679.3833390363006
 11
6822.7333421287667
 21
5678.5833395253412
  0
LINE
  5
129
100
AcDbEntity
  8
___E
  6
CONTINUOUS
 62
             7
100
AcDbLine
 10
6824.233342149314
 20
5679.3833390363006
 11
6822.7333421287667
 21
5679.3833390363006
  0
LINE
  5
128
100
AcDbEntity
  8
___E
  6
CONTINUOUS
 62
             7
100
AcDbLine
 10
6824.233342149314
 20
5669.3833398993138
 11
6824.233342149314
 21
5679.3833390363006
  0
LINE
  5
127
100
AcDbEntity
  8
___E
  6
CONTINUOUS
 62
             7
100
AcDbLine
 10
6822.7333421287667
 20
5669.3833398993138
 11
6824.233342149314
 21
5669.3833398993138
  0
LINE
  5
126
100
AcDbEntity
  8
___E
  6
CONTINUOUS
 62
             7
100
AcDbLine
 10
6822.7333421287667
 20
5668.5833388883548
 11
6822.7333421287667
 21
5669.3833398993138
  0
LINE
  5
125
100
AcDbEntity
  8
___E
  6
CONTINUOUS
 62
             7
100
AcDbLine
 10
6812.7333414917803
 20
5668.5833388883548
 11
6822.7333421287667
 21
5668.5833388883548
  0
LINE
  5
124
100
AcDbEntity
  8
___E
  6
CONTINUOUS
 62
             7
100
AcDbLine
 10
6812.7333414917803
 20
5669.3833398993138
 11
6812.7333414917803
 21
5668.5833388883548
  0
LINE
  5
123
100
AcDbEntity
  8
___E
  6
CONTINUOUS
 62
             7
100
AcDbLine
 10
6811.2333414712321
 20
5669.3833398993138
 11
6812.7333414917803
 21
5669.3833398993138
  0
LINE
  5
122
100
AcDbEntity
  8
___E
  6
CONTINUOUS
 62
             7
100
AcDbLine
 10
6811.2333414712321
 20
5679.3833390363006
 11
6811.2333414712321
 21
5669.3833398993138
  0
LINE
  5
121
100
AcDbEntity
  8
___E
  6
CONTINUOUS
 62
             7
100
AcDbLine
 10
6812.7333414917803
 20
5679.3833390363006
 11
6811.2333414712321
 21
5679.3833390363006
  0
LINE
  5
120
100
AcDbEntity
  8
___E
  6
CONTINUOUS
 62
             7
100
AcDbLine
 10
6812.7333414917803
 20
5676.3833389952042
 11
6812.7333414917803
 21
5669.3833398993138
  0
LINE
  5
11F
100
AcDbEntity
  8
___E
  6
CONTINUOUS
 62
             7
100
AcDbLine
 10
6822.7333421287667
 20
5676.3833389952042
 11
6822.7333421287667
 21
5669.3833398993138
  0
LINE
  5
11E
100
AcDbEntity
  8
___E
  6
CONTINUOUS
 62
             7
100
AcDbLine
 10
6812.7333414917803
 20
5686.3833396321907
 11
6812.7333414917803
 21
5679.3833390363006
  0
LINE
  5
11D
100
AcDbEntity
  8
___E
  6
CONTINUOUS
 62
             7
100
AcDbLine
 10
6822.7333421287667
 20
5686.3833396321907
 11
6822.7333421287667
 21
5679.3833390363006
  0
LINE
  5
11C
100
AcDbEntity
  8
___E
  6
CONTINUOUS
 62
             7
100
AcDbLine
 10
6802.5833408527387
 20
5595.1333388821904
 11
6800.9833418308208
 21
5595.1333388821904
  0
LINE
  5
11B
100
AcDbEntity
  8
___E
  6
CONTINUOUS
 62
             7
100
AcDbLine
 10
6869.4833417691771
 20
5595.1333388821904
 11
6867.8833427472591
 21
5595.1333388821904
  0
LINE
  5
11A
100
AcDbEntity
  8
___E
  6
CONTINUOUS
 62
             7
100
AcDbLine
 10
6867.8833427472591
 20
5819.1333414506844
 11
6869.4833417691771
 21
5819.1333414506844
  0
LINE
  5
119
100
AcDbEntity
  8
___E
  6
CONTINUOUS
 62
             7
100
AcDbLine
 10
6800.9833418308208
 20
5819.1333414506844
 11
6802.5833408527387
 21
5819.1333414506844
  0
LINE
  5
118
100
AcDbEntity
  8
___E
  6
CONTINUOUS
 62
             7
100
AcDbLine
 10
7039.2333456424667
 20
5634.547552422111
 11
7039.2333456424667
 21
5805.7191277669281
  0
LINE
  5
117
100
AcDbEntity
  8
___E
  6
CONTINUOUS
 62
             7
100
AcDbLine
 10
7029.2333450054803
 20
5807.1333412863014
 11
7037.8191321230934
 21
5807.1333412863014
  0
LINE
  5
116
100
AcDbEntity
  8
___E
  6
CONTINUOUS
 62
             7
100
AcDbLine
 10
7027.2333454780828
 20
5798.133341163013
 11
7029.2333450054803
 21
5800.1333406904114
  0
LINE
  5
115
100
AcDbEntity
  8
___E
  6
CONTINUOUS
 62
             7
100
AcDbLine
 10
7029.2333450054803
 20
5807.1333412863014
 11
7029.2333450054803
 21
5800.1333406904114
  0
LINE
  5
114
100
AcDbEntity
  8
___E
  6
CONTINUOUS
 62
             7
100
AcDbLine
 10
6944.2333433410968
 20
5807.1333412863014
 11
6945.2333438547948
 21
5807.1333412863014
  0
LINE
  5
113
100
AcDbEntity
  8
___E
  6
CONTINUOUS
 62
             7
100
AcDbLine
 10
6945.2333438547948
 20
5808.1333418000004
 11
7029.2333450054803
 21
5808.1333418000004
  0
LINE
  5
112
100
AcDbEntity
  8
___E
  6
CONTINUOUS
 62
             7
100
AcDbLine
 10
6944.2333433410968
 20
5773.1333403205472
 11
6943.2333443273983
 21
5773.1333403205472
  0
LINE
  5
111
100
AcDbEntity
  8
___E
  6
CONTINUOUS
 62
             7
100
AcDbLine
 10
6942.2333438136993
 20
5774.1333408342452
 11
6942.2333438136993
 21
5778.1333413890407
  0
LINE
  5
110
100
AcDbEntity
  8
___E
  6
CONTINUOUS
 62
             7
100
AcDbLine
 10
6943.2333443273983
 20
5779.1333404027391
 11
6944.2333433410968
 21
5779.1333404027391
  0
LINE
  5
10F
100
AcDbEntity
  8
___E
  6
CONTINUOUS
 62
             7
100
AcDbLine
 10
6944.2333433410968
 20
5727.3833396938344
 11
6932.2333431767129
 21
5727.3833396938344
  0
LINE
  5
10E
100
AcDbEntity
  8
___E
  6
CONTINUOUS
 62
             7
100
AcDbLine
 10
6932.2333431767129
 20
5728.3833402075334
 11
6944.2333433410968
 21
5728.3833402075334
  0
LINE
  5
10D
100
AcDbEntity
  8
___E
  6
CONTINUOUS
 62
             7
100
AcDbLine
 10
6944.2333433410968
 20
5717.3833405568494
 11
6932.2333431767129
 21
5717.3833405568494
  0
LINE
  5
10C
100
AcDbEntity
  8
___E
  6
CONTINUOUS
 62
             7
100
AcDbLine
 10
6932.2333431767129
 20
5718.3833395705469
 11
6944.2333433410968
 21
5718.3833395705469
  0
LINE
  5
10B
100
AcDbEntity
  8
___E
  6
CONTINUOUS
 62
             7
100
AcDbLine
 10
6944.2333433410968
 20
5737.3833403308208
 11
6932.2333431767129
 21
5737.3833403308208
  0
LINE
  5
10A
100
AcDbEntity
  8
___E
  6
CONTINUOUS
 62
             7
100
AcDbLine
 10
6932.2333431767129
 20
5738.3833408445198
 11
6944.2333433410968
 21
5738.3833408445198
  0
LINE
  5
109
100
AcDbEntity
  8
___E
  6
CONTINUOUS
 62
             7
100
AcDbLine
 10
6930.2333436493154
 20
5739.3833398582183
 11
6944.2333433410968
 21
5739.3833398582183
  0
LINE
  5
108
100
AcDbEntity
  8
___E
  6
CONTINUOUS
 62
             7
100
AcDbLine
 10
6944.2333433410968
 20
5667.3833388719167
 11
6932.2333431767129
 21
5667.3833388719167
  0
LINE
  5
107
100
AcDbEntity
  8
___E
  6
CONTINUOUS
 62
             7
100
AcDbLine
 10
6932.2333431767129
 20
5668.3833393856157
 11
6944.2333433410968
 21
5668.3833393856157
  0
LINE
  5
106
100
AcDbEntity
  8
___E
  6
CONTINUOUS
 62
             7
100
AcDbLine
 10
6930.2333436493154
 20
5666.3833398582183
 11
6944.2333433410968
 21
5666.3833398582183
  0
LINE
  5
105
100
AcDbEntity
  8
___E
  6
CONTINUOUS
 62
             7
100
AcDbLine
 10
6930.2333436493154
 20
5666.3833398582183
 11
6944.2333433410968
 21
5666.3833398582183
  0
LINE
  5
104
100
AcDbEntity
  8
___E
  6
CONTINUOUS
 62
             7
100
AcDbLine
 10
6944.2333433410968
 20
5697.3833392828756
 11
6932.2333431767129
 21
5697.3833392828756
  0
LINE
  5
103
100
AcDbEntity
  8
___E
  6
CONTINUOUS
 62
             7
100
AcDbLine
 10
6932.2333431767129
 20
5698.3833397965745
 11
6944.2333433410968
 21
5698.3833397965745
  0
LINE
  5
102
100
AcDbEntity
  8
___E
  6
CONTINUOUS
 62
             7
100
AcDbLine
 10
6944.2333433410968
 20
5687.3833401458896
 11
6932.2333431767129
 21
5687.3833401458896
  0
LINE
  5
101
100
AcDbEntity
  8
___E
  6
CONTINUOUS
 62
             7
100
AcDbLine
 10
6932.2333431767129
 20
5688.3833391595881
 11
6944.2333433410968
 21
5688.3833391595881
  0
LINE
  5
100
100
AcDbEntity
  8
___E
  6
CONTINUOUS
 62
             7
100
AcDbLine
 10
6944.2333433410968
 20
5677.3833395089032
 11
6932.2333431767129
 21
5677.3833395089032
  0
LINE
  5
FF
100
AcDbEntity
  8
___E
  6
CONTINUOUS
 62
             7
100
AcDbLine
 10
6932.2333431767129
 20
5678.3833400226022
 11
6944.2333433410968
 21
5678.3833400226022
  0
LINE
  5
FE
100
AcDbEntity
  8
___E
  6
CONTINUOUS
 62
             7
100
AcDbLine
 10
6944.2333433410968
 20
5707.383339919862
 11
6932.2333431767129
 21
5707.383339919862
  0
LINE
  5
FD
100
AcDbEntity
  8
___E
  6
CONTINUOUS
 62
             7
100
AcDbLine
 10
6932.2333431767129
 20
5708.383340433561
 11
6944.2333433410968
 21
5708.383340433561
  0
LINE
  5
FC
100
AcDbEntity
  8
___E
  6
CONTINUOUS
 62
             7
100
AcDbLine
 10
6930.2333436493154
 20
5709.3833394472604
 11
6944.2333433410968
 21
5709.3833394472604
  0
LINE
  5
FB
100
AcDbEntity
  8
___E
  6
EXLTYPE3
 62
             7
100
AcDbLine
 10
6931.2333441630144
 20
5739.3833398582183
 11
6931.2333441630144
 21
5666.3833398582183
  0
LINE
  5
FA
100
AcDbEntity
  8
___E
  6
EXLTYPE3
 62
             7
100
AcDbLine
 10
6930.2333436493154
 20
5666.3833398582183
 11
6930.2333436493154
 21
5739.3833398582183
  0
LINE
  5
F9
100
AcDbEntity
  8
___E
  6
EXLTYPE3
 62
             7
100
AcDbLine
 10
6929.2333431356174
 20
5666.3833398582183
 11
6929.2333431356174
 21
5739.3833398582183
  0
LINE
  5
F8
100
AcDbEntity
  8
___E
  6
EXLTYPE3
 62
             7
100
AcDbLine
 10
6929.2333431356174
 20
5739.3833398582183
 11
6931.2333441630144
 21
5739.3833398582183
  0
LINE
  5
F7
100
AcDbEntity
  8
___E
  6
CONTINUOUS
 62
             7
100
AcDbLine
 10
6930.2333436493154
 20
5709.3833394472604
 11
6943.2333443273983
 21
5709.3833394472604
  0
LINE
  5
F6
100
AcDbEntity
  8
___E
  6
CONTINUOUS
 62
             7
100
AcDbLine
 10
6930.2333436493154
 20
5719.3833400842459
 11
6943.2333443273983
 21
5719.3833400842459
  0
LINE
  5
F5
100
AcDbEntity
  8
___E
  6
CONTINUOUS
 62
             7
100
AcDbLine
 10
6930.2333436493154
 20
5729.3833407212323
 11
6943.2333443273983
 21
5729.3833407212323
  0
LINE
  5
F4
100
AcDbEntity
  8
___E
  6
CONTINUOUS
 62
             7
100
AcDbLine
 10
6932.2333431767129
 20
5727.3833396938344
 11
6932.2333431767129
 21
5728.3833402075334
  0
LINE
  5
F3
100
AcDbEntity
  8
___E
  6
CONTINUOUS
 62
             7
100
AcDbLine
 10
6932.2333431767129
 20
5717.3833405568494
 11
6932.2333431767129
 21
5718.3833395705469
  0
LINE
  5
F2
100
AcDbEntity
  8
___E
  6
CONTINUOUS
 62
             7
100
AcDbLine
 10
6930.2333436493154
 20
5709.3833394472604
 11
6943.2333443273983
 21
5709.3833394472604
  0
LINE
  5
F1
100
AcDbEntity
  8
___E
  6
CONTINUOUS
 62
             7
100
AcDbLine
 10
6943.2333443273983
 20
5709.3833394472604
 11
6943.2333443273983
 21
5716.3833400431504
  0
LINE
  5
F0
100
AcDbEntity
  8
___E
  6
CONTINUOUS
 62
             7
100
AcDbLine
 10
6943.2333443273983
 20
5716.3833400431504
 11
6930.2333436493154
 21
5716.3833400431504
  0
LINE
  5
EF
100
AcDbEntity
  8
___E
  6
CONTINUOUS
 62
             7
100
AcDbLine
 10
6930.2333436493154
 20
5716.3833400431504
 11
6930.2333436493154
 21
5719.3833400842459
  0
LINE
  5
EE
100
AcDbEntity
  8
___E
  6
CONTINUOUS
 62
             7
100
AcDbLine
 10
6930.2333436493154
 20
5719.3833400842459
 11
6943.2333443273983
 21
5719.3833400842459
  0
LINE
  5
ED
100
AcDbEntity
  8
___E
  6
CONTINUOUS
 62
             7
100
AcDbLine
 10
6943.2333443273983
 20
5719.3833400842459
 11
6943.2333443273983
 21
5726.3833406801359
  0
LINE
  5
EC
100
AcDbEntity
  8
___E
  6
CONTINUOUS
 62
             7
100
AcDbLine
 10
6943.2333443273983
 20
5726.3833406801359
 11
6930.2333436493154
 21
5726.3833406801359
  0
LINE
  5
EB
100
AcDbEntity
  8
___E
  6
CONTINUOUS
 62
             7
100
AcDbLine
 10
6930.2333436493154
 20
5726.3833406801359
 11
6930.2333436493154
 21
5729.3833407212323
  0
LINE
  5
EA
100
AcDbEntity
  8
___E
  6
CONTINUOUS
 62
             7
100
AcDbLine
 10
6932.2333431767129
 20
5737.3833403308208
 11
6932.2333431767129
 21
5738.3833408445198
  0
LINE
  5
E9
100
AcDbEntity
  8
___E
  6
CONTINUOUS
 62
             7
100
AcDbLine
 10
6930.2333436493154
 20
5729.3833407212323
 11
6943.2333443273983
 21
5729.3833407212323
  0
LINE
  5
E8
100
AcDbEntity
  8
___E
  6
CONTINUOUS
 62
             7
100
AcDbLine
 10
6943.2333443273983
 20
5729.3833407212323
 11
6943.2333443273983
 21
5736.3833398171228
  0
LINE
  5
E7
100
AcDbEntity
  8
___E
  6
CONTINUOUS
 62
             7
100
AcDbLine
 10
6943.2333443273983
 20
5736.3833398171228
 11
6930.2333436493154
 21
5736.3833398171228
  0
LINE
  5
E6
100
AcDbEntity
  8
___E
  6
CONTINUOUS
 62
             7
100
AcDbLine
 10
6930.2333436493154
 20
5736.3833398171228
 11
6930.2333436493154
 21
5739.3833398582183
  0
LINE
  5
E5
100
AcDbEntity
  8
___E
  6
CONTINUOUS
 62
             7
100
AcDbLine
 10
6934.4333437068499
 20
5709.3833394472604
 11
6934.4333437068499
 21
5716.3833400431504
  0
LINE
  5
E4
100
AcDbEntity
  8
___E
  6
CONTINUOUS
 62
             7
100
AcDbLine
 10
6936.4333432342473
 20
5709.3833394472604
 11
6936.4333432342473
 21
5716.3833400431504
  0
LINE
  5
E3
100
AcDbEntity
  8
___E
  6
CONTINUOUS
 62
             7
100
AcDbLine
 10
6936.4333432342473
 20
5709.3833394472604
 11
6936.4333432342473
 21
5716.3833400431504
  0
LINE
  5
E2
100
AcDbEntity
  8
___E
  6
CONTINUOUS
 62
             7
100
AcDbLine
 10
6937.4333437479463
 20
5709.3833394472604
 11
6937.4333437479463
 21
5716.3833400431504
  0
LINE
  5
E1
100
AcDbEntity
  8
___E
  6
CONTINUOUS
 62
             7
100
AcDbLine
 10
6938.2333432589048
 20
5709.3833394472604
 11
6938.2333432589048
 21
5716.3833400431504
  0
LINE
  5
E0
100
AcDbEntity
  8
___E
  6
CONTINUOUS
 62
             7
100
AcDbLine
 10
6934.4333437068499
 20
5719.3833400842459
 11
6934.4333437068499
 21
5726.3833406801359
  0
LINE
  5
DF
100
AcDbEntity
  8
___E
  6
CONTINUOUS
 62
             7
100
AcDbLine
 10
6936.4333432342473
 20
5719.3833400842459
 11
6936.4333432342473
 21
5726.3833406801359
  0
LINE
  5
DE
100
AcDbEntity
  8
___E
  6
CONTINUOUS
 62
             7
100
AcDbLine
 10
6936.4333432342473
 20
5719.3833400842459
 11
6936.4333432342473
 21
5726.3833406801359
  0
LINE
  5
DD
100
AcDbEntity
  8
___E
  6
CONTINUOUS
 62
             7
100
AcDbLine
 10
6937.4333437479463
 20
5719.3833400842459
 11
6937.4333437479463
 21
5726.3833406801359
  0
LINE
  5
DC
100
AcDbEntity
  8
___E
  6
CONTINUOUS
 62
             7
100
AcDbLine
 10
6938.2333432589048
 20
5719.3833400842459
 11
6938.2333432589048
 21
5726.3833406801359
  0
LINE
  5
DB
100
AcDbEntity
  8
___E
  6
CONTINUOUS
 62
             7
100
AcDbLine
 10
6934.4333437068499
 20
5729.3833407212323
 11
6934.4333437068499
 21
5736.3833398171228
  0
LINE
  5
DA
100
AcDbEntity
  8
___E
  6
CONTINUOUS
 62
             7
100
AcDbLine
 10
6936.4333432342473
 20
5729.3833407212323
 11
6936.4333432342473
 21
5736.3833398171228
  0
LINE
  5
D9
100
AcDbEntity
  8
___E
  6
CONTINUOUS
 62
             7
100
AcDbLine
 10
6936.4333432342473
 20
5729.3833407212323
 11
6936.4333432342473
 21
5736.3833398171228
  0
LINE
  5
D8
100
AcDbEntity
  8
___E
  6
CONTINUOUS
 62
             7
100
AcDbLine
 10
6937.4333437479463
 20
5729.3833407212323
 11
6937.4333437479463
 21
5736.3833398171228
  0
LINE
  5
D7
100
AcDbEntity
  8
___E
  6
CONTINUOUS
 62
             7
100
AcDbLine
 10
6938.2333432589048
 20
5729.3833407212323
 11
6938.2333432589048
 21
5736.3833398171228
  0
LINE
  5
D6
100
AcDbEntity
  8
___E
  6
CONTINUOUS
 62
             7
100
AcDbLine
 10
6932.2333431767129
 20
5667.3833388719167
 11
6932.2333431767129
 21
5668.3833393856157
  0
LINE
  5
D5
100
AcDbEntity
  8
___E
  6
EXLTYPE3
 62
             7
100
AcDbLine
 10
6930.2333436493154
 20
5666.3833398582183
 11
6929.2333431356174
 21
5666.3833398582183
  0
LINE
  5
D4
100
AcDbEntity
  8
___E
  6
CONTINUOUS
 62
             7
100
AcDbLine
 10
6930.2333436493154
 20
5666.3833398582183
 11
6930.2333436493154
 21
5669.3833398993138
  0
LINE
  5
D3
100
AcDbEntity
  8
___E
  6
CONTINUOUS
 62
             7
100
AcDbLine
 10
6930.2333436493154
 20
5679.3833390363006
 11
6943.2333443273983
 21
5679.3833390363006
  0
LINE
  5
D2
100
AcDbEntity
  8
___E
  6
CONTINUOUS
 62
             7
100
AcDbLine
 10
6930.2333436493154
 20
5689.3833396732871
 11
6943.2333443273983
 21
5689.3833396732871
  0
LINE
  5
D1
100
AcDbEntity
  8
___E
  6
CONTINUOUS
 62
             7
100
AcDbLine
 10
6930.2333436493154
 20
5699.3833403102726
 11
6943.2333443273983
 21
5699.3833403102726
  0
LINE
  5
D0
100
AcDbEntity
  8
___E
  6
CONTINUOUS
 62
             7
100
AcDbLine
 10
6932.2333431767129
 20
5697.3833392828756
 11
6932.2333431767129
 21
5698.3833397965745
  0
LINE
  5
CF
100
AcDbEntity
  8
___E
  6
CONTINUOUS
 62
             7
100
AcDbLine
 10
6932.2333431767129
 20
5687.3833401458896
 11
6932.2333431767129
 21
5688.3833391595881
  0
LINE
  5
CE
100
AcDbEntity
  8
___E
  6
CONTINUOUS
 62
             7
100
AcDbLine
 10
6932.2333431767129
 20
5677.3833395089032
 11
6932.2333431767129
 21
5678.3833400226022
  0
LINE
  5
CD
100
AcDbEntity
  8
___E
  6
CONTINUOUS
 62
             7
100
AcDbLine
 10
6930.2333436493154
 20
5669.3833398993138
 11
6943.2333443273983
 21
5669.3833398993138
  0
LINE
  5
CC
100
AcDbEntity
  8
___E
  6
CONTINUOUS
 62
             7
100
AcDbLine
 10
6943.2333443273983
 20
5669.3833398993138
 11
6943.2333443273983
 21
5676.3833389952042
  0
LINE
  5
CB
100
AcDbEntity
  8
___E
  6
CONTINUOUS
 62
             7
100
AcDbLine
 10
6943.2333443273983
 20
5676.3833389952042
 11
6930.2333436493154
 21
5676.3833389952042
  0
LINE
  5
CA
100
AcDbEntity
  8
___E
  6
CONTINUOUS
 62
             7
100
AcDbLine
 10
6930.2333436493154
 20
5676.3833389952042
 11
6930.2333436493154
 21
5679.3833390363006
  0
LINE
  5
C9
100
AcDbEntity
  8
___E
  6
CONTINUOUS
 62
             7
100
AcDbLine
 10
6930.2333436493154
 20
5679.3833390363006
 11
6943.2333443273983
 21
5679.3833390363006
  0
LINE
  5
C8
100
AcDbEntity
  8
___E
  6
CONTINUOUS
 62
             7
100
AcDbLine
 10
6943.2333443273983
 20
5679.3833390363006
 11
6943.2333443273983
 21
5686.3833396321907
  0
LINE
  5
C7
100
AcDbEntity
  8
___E
  6
CONTINUOUS
 62
             7
100
AcDbLine
 10
6943.2333443273983
 20
5686.3833396321907
 11
6930.2333436493154
 21
5686.3833396321907
  0
LINE
  5
C6
100
AcDbEntity
  8
___E
  6
CONTINUOUS
 62
             7
100
AcDbLine
 10
6930.2333436493154
 20
5686.3833396321907
 11
6930.2333436493154
 21
5689.3833396732871
  0
LINE
  5
C5
100
AcDbEntity
  8
___E
  6
CONTINUOUS
 62
             7
100
AcDbLine
 10
6930.2333436493154
 20
5689.3833396732871
 11
6943.2333443273983
 21
5689.3833396732871
  0
LINE
  5
C4
100
AcDbEntity
  8
___E
  6
CONTINUOUS
 62
             7
100
AcDbLine
 10
6943.2333443273983
 20
5689.3833396732871
 11
6943.2333443273983
 21
5696.3833402691771
  0
LINE
  5
C3
100
AcDbEntity
  8
___E
  6
CONTINUOUS
 62
             7
100
AcDbLine
 10
6943.2333443273983
 20
5696.3833402691771
 11
6930.2333436493154
 21
5696.3833402691771
  0
LINE
  5
C2
100
AcDbEntity
  8
___E
  6
CONTINUOUS
 62
             7
100
AcDbLine
 10
6930.2333436493154
 20
5696.3833402691771
 11
6930.2333436493154
 21
5699.3833403102726
  0
LINE
  5
C1
100
AcDbEntity
  8
___E
  6
CONTINUOUS
 62
             7
100
AcDbLine
 10
6932.2333431767129
 20
5707.383339919862
 11
6932.2333431767129
 21
5708.383340433561
  0
LINE
  5
C0
100
AcDbEntity
  8
___E
  6
CONTINUOUS
 62
             7
100
AcDbLine
 10
6930.2333436493154
 20
5699.3833403102726
 11
6943.2333443273983
 21
5699.3833403102726
  0
LINE
  5
BF
100
AcDbEntity
  8
___E
  6
CONTINUOUS
 62
             7
100
AcDbLine
 10
6943.2333443273983
 20
5699.3833403102726
 11
6943.2333443273983
 21
5706.383339406163
  0
LINE
  5
BE
100
AcDbEntity
  8
___E
  6
CONTINUOUS
 62
             7
100
AcDbLine
 10
6943.2333443273983
 20
5706.383339406163
 11
6930.2333436493154
 21
5706.383339406163
  0
LINE
  5
BD
100
AcDbEntity
  8
___E
  6
CONTINUOUS
 62
             7
100
AcDbLine
 10
6930.2333436493154
 20
5706.383339406163
 11
6930.2333436493154
 21
5709.3833394472604
  0
LINE
  5
BC
100
AcDbEntity
  8
___E
  6
CONTINUOUS
 62
             7
100
AcDbLine
 10
6934.4333437068499
 20
5669.3833398993138
 11
6934.4333437068499
 21
5676.3833389952042
  0
LINE
  5
BB
100
AcDbEntity
  8
___E
  6
CONTINUOUS
 62
             7
100
AcDbLine
 10
6936.4333432342473
 20
5669.3833398993138
 11
6936.4333432342473
 21
5676.3833389952042
  0
LINE
  5
BA
100
AcDbEntity
  8
___E
  6
CONTINUOUS
 62
             7
100
AcDbLine
 10
6936.4333432342473
 20
5669.3833398993138
 11
6936.4333432342473
 21
5676.3833389952042
  0
LINE
  5
B9
100
AcDbEntity
  8
___E
  6
CONTINUOUS
 62
             7
100
AcDbLine
 10
6937.4333437479463
 20
5669.3833398993138
 11
6937.4333437479463
 21
5676.3833389952042
  0
LINE
  5
B8
100
AcDbEntity
  8
___E
  6
CONTINUOUS
 62
             7
100
AcDbLine
 10
6938.2333432589048
 20
5669.3833398993138
 11
6938.2333432589048
 21
5676.3833389952042
  0
LINE
  5
B7
100
AcDbEntity
  8
___E
  6
CONTINUOUS
 62
             7
100
AcDbLine
 10
6934.4333437068499
 20
5679.3833390363006
 11
6934.4333437068499
 21
5686.3833396321907
  0
LINE
  5
B6
100
AcDbEntity
  8
___E
  6
CONTINUOUS
 62
             7
100
AcDbLine
 10
6936.4333432342473
 20
5679.3833390363006
 11
6936.4333432342473
 21
5686.3833396321907
  0
LINE
  5
B5
100
AcDbEntity
  8
___E
  6
CONTINUOUS
 62
             7
100
AcDbLine
 10
6936.4333432342473
 20
5679.3833390363006
 11
6936.4333432342473
 21
5686.3833396321907
  0
LINE
  5
B4
100
AcDbEntity
  8
___E
  6
CONTINUOUS
 62
             7
100
AcDbLine
 10
6937.4333437479463
 20
5679.3833390363006
 11
6937.4333437479463
 21
5686.3833396321907
  0
LINE
  5
B3
100
AcDbEntity
  8
___E
  6
CONTINUOUS
 62
             7
100
AcDbLine
 10
6938.2333432589048
 20
5679.3833390363006
 11
6938.2333432589048
 21
5686.3833396321907
  0
LINE
  5
B2
100
AcDbEntity
  8
___E
  6
CONTINUOUS
 62
             7
100
AcDbLine
 10
6934.4333437068499
 20
5689.3833396732871
 11
6934.4333437068499
 21
5696.3833402691771
  0
LINE
  5
B1
100
AcDbEntity
  8
___E
  6
CONTINUOUS
 62
             7
100
AcDbLine
 10
6936.4333432342473
 20
5689.3833396732871
 11
6936.4333432342473
 21
5696.3833402691771
  0
LINE
  5
B0
100
AcDbEntity
  8
___E
  6
CONTINUOUS
 62
             7
100
AcDbLine
 10
6936.4333432342473
 20
5689.3833396732871
 11
6936.4333432342473
 21
5696.3833402691771
  0
LINE
  5
AF
100
AcDbEntity
  8
___E
  6
CONTINUOUS
 62
             7
100
AcDbLine
 10
6937.4333437479463
 20
5689.3833396732871
 11
6937.4333437479463
 21
5696.3833402691771
  0
LINE
  5
AE
100
AcDbEntity
  8
___E
  6
CONTINUOUS
 62
             7
100
AcDbLine
 10
6938.2333432589048
 20
5689.3833396732871
 11
6938.2333432589048
 21
5696.3833402691771
  0
LINE
  5
AD
100
AcDbEntity
  8
___E
  6
CONTINUOUS
 62
             7
100
AcDbLine
 10
6934.4333437068499
 20
5699.3833403102726
 11
6934.4333437068499
 21
5706.383339406163
  0
LINE
  5
AC
100
AcDbEntity
  8
___E
  6
CONTINUOUS
 62
             7
100
AcDbLine
 10
6936.4333432342473
 20
5699.3833403102726
 11
6936.4333432342473
 21
5706.383339406163
  0
LINE
  5
AB
100
AcDbEntity
  8
___E
  6
CONTINUOUS
 62
             7
100
AcDbLine
 10
6936.4333432342473
 20
5699.3833403102726
 11
6936.4333432342473
 21
5706.383339406163
  0
LINE
  5
AA
100
AcDbEntity
  8
___E
  6
CONTINUOUS
 62
             7
100
AcDbLine
 10
6937.4333437479463
 20
5699.3833403102726
 11
6937.4333437479463
 21
5706.383339406163
  0
LINE
  5
A9
100
AcDbEntity
  8
___E
  6
CONTINUOUS
 62
             7
100
AcDbLine
 10
6938.2333432589048
 20
5699.3833403102726
 11
6938.2333432589048
 21
5706.383339406163
  0
LINE
  5
A8
100
AcDbEntity
  8
___E
  6
CONTINUOUS
 62
             7
100
AcDbLine
 10
6944.2333433410968
 20
5807.1333412863014
 11
6944.2333433410968
 21
5633.1333389027386
  0
LINE
  5
A7
100
AcDbEntity
  8
___E
  6
CONTINUOUS
 62
             7
100
AcDbLine
 10
6833.4833412760263
 20
5777.8833408856153
 11
6836.8833418226022
 21
5774.4833403390403
  0
LINE
  5
A6
100
AcDbEntity
  8
___E
  6
CONTINUOUS
 62
             7
100
AcDbLine
 10
6836.9333413232871
 20
5777.8333413849314
 11
6833.5833417773974
 21
5774.4833403390403
  0
LINE
  5
A5
100
AcDbEntity
  8
___E
  6
CONTINUOUS
 62
             7
100
AcDbLine
 10
6800.9833418308208
 20
5821.1333409780818
 11
6800.9833418308208
 21
5808.1333418000004
  0
LINE
  5
A4
100
AcDbEntity
  8
___E
  6
CONTINUOUS
 62
             7
100
AcDbLine
 10
6802.5833408527387
 20
5821.1333409780818
 11
6802.5833408527387
 21
5808.1333418000004
  0
LINE
  5
A3
100
AcDbEntity
  8
___E
  6
CONTINUOUS
 62
             7
100
AcDbLine
 10
6867.8833427472591
 20
5821.1333409780818
 11
6867.8833427472591
 21
5808.1333418000004
  0
LINE
  5
A2
100
AcDbEntity
  8
___E
  6
CONTINUOUS
 62
             7
100
AcDbLine
 10
6869.4833417691771
 20
5821.1333409780818
 11
6869.4833417691771
 21
5808.1333418000004
  0
LINE
  5
A1
100
AcDbEntity
  8
___E
  6
CONTINUOUS
 62
             7
100
AcDbLine
 10
6799.7333408136974
 20
5798.133341163013
 11
6798.7333417999989
 21
5798.133341163013
  0
LINE
  5
A0
100
AcDbEntity
  8
___E
  6
CONTINUOUS
 62
             7
100
AcDbLine
 10
6871.7333417999989
 20
5798.133341163013
 11
6870.7333427863014
 21
5798.133341163013
  0
LINE
  5
9F
100
AcDbEntity
  8
___E
  6
CONTINUOUS
 62
             7
100
AcDbLine
 10
6798.7333417999998
 20
5808.1333418000004
 11
6798.7333417999989
 21
5798.133341163013
  0
LINE
  5
9E
100
AcDbEntity
  8
___E
  6
CONTINUOUS
 62
             7
100
AcDbLine
 10
6871.7333417999989
 20
5798.133341163013
 11
6871.7333417999998
 21
5808.1333418000004
  0
LINE
  5
9D
100
AcDbEntity
  8
___E
  6
CONTINUOUS
 62
             7
100
AcDbLine
 10
6871.7333417999998
 20
5808.1333418000004
 11
6798.7333417999998
 21
5808.1333418000004
  0
LINE
  5
9C
100
AcDbEntity
  8
___E
  6
CONTINUOUS
 62
             7
100
AcDbLine
 10
6811.7833419787667
 20
5649.6833386294511
 11
6811.7833419787667
 21
5636.6833394513687
  0
LINE
  5
9B
100
AcDbEntity
  8
___E
  6
CONTINUOUS
 62
             7
100
AcDbLine
 10
6865.7833427184923
 20
5635.6833389376707
 11
6812.7833409924651
 21
5635.6833389376707
  0
LINE
  5
9A
100
AcDbEntity
  8
___E
  6
CONTINUOUS
 62
             7
100
AcDbLine
 10
6812.7833409924651
 20
5650.6833391431501
 11
6865.7833427184923
 21
5650.6833391431501
  0
LINE
  5
99
100
AcDbEntity
  8
___E
  6
CONTINUOUS
 62
             7
100
AcDbLine
 10
6866.7833417321908
 20
5649.6833386294511
 11
6866.7833417321908
 21
5636.6833394513687
  0
LINE
  5
98
100
AcDbEntity
  8
___E
  6
CONTINUOUS
 62
             7
100
AcDbLine
 10
6858.7333426219184
 20
5632.1333383890396
 11
6858.7333426219184
 21
5633.1333389027386
  0
LINE
  5
97
100
AcDbEntity
  8
___E
  6
CONTINUOUS
 62
             7
100
AcDbLine
 10
6843.7333424164372
 20
5632.1333383890396
 11
6858.7333426219184
 21
5632.1333383890396
  0
LINE
  5
96
100
AcDbEntity
  8
___E
  6
CONTINUOUS
 62
             7
100
AcDbLine
 10
6843.7333424164372
 20
5633.1333389027386
 11
6843.7333424164372
 21
5632.1333383890396
  0
LINE
  5
95
100
AcDbEntity
  8
___E
  6
CONTINUOUS
 62
             7
100
AcDbLine
 10
6826.7333411835607
 20
5632.1333383890396
 11
6826.7333411835607
 21
5633.1333389027386
  0
LINE
  5
94
100
AcDbEntity
  8
___E
  6
CONTINUOUS
 62
             7
100
AcDbLine
 10
6811.7333409780813
 20
5632.1333383890396
 11
6826.7333411835607
 21
5632.1333383890396
  0
LINE
  5
93
100
AcDbEntity
  8
___E
  6
CONTINUOUS
 62
             7
100
AcDbLine
 10
6811.7333409780813
 20
5633.1333389027386
 11
6811.7333409780813
 21
5632.1333383890396
  0
LINE
  5
92
100
AcDbEntity
  8
___E
  6
CONTINUOUS
 62
             7
100
AcDbLine
 10
6817.233341553424
 20
5733.3833397760263
 11
6815.4655750292077
 21
5735.8582138099291
  0
LINE
  5
91
100
AcDbEntity
  8
___E
  6
CONTINUOUS
 62
             7
100
AcDbLine
 10
6814.7584675195212
 20
5735.1511078002422
 11
6817.233341553424
 21
5733.3833397760263
  0
LINE
  5
90
100
AcDbEntity
  8
___E
  6
CONTINUOUS
 62
             7
100
AcDbLine
 10
6797.7333412863009
 20
5794.1333406082194
 11
6797.7333412863009
 21
5800.1333406904114
  0
LINE
  5
8F
100
AcDbEntity
  8
___E
  6
CONTINUOUS
 62
             7
100
AcDbLine
 10
6799.7333408136974
 20
5793.1333415945201
 11
6798.7333417999989
 21
5793.1333415945201
  0
LINE
  5
8E
100
AcDbEntity
  8
___E
  6
CONTINUOUS
 62
             7
100
AcDbLine
 10
6798.7333417999989
 20
5647.13333859452
 11
6799.7333408136974
 21
5647.13333859452
  0
LINE
  5
8D
100
AcDbEntity
  8
___E
  6
CONTINUOUS
 62
             7
100
AcDbLine
 10
6797.7333412863009
 20
5640.1333394986304
 11
6797.7333412863009
 21
5646.1333395808206
  0
LINE
  5
8C
100
AcDbEntity
  8
___E
  6
CONTINUOUS
 62
             7
100
AcDbLine
 10
6799.7333408136974
 20
5639.1333389849306
 11
6798.7333417999989
 21
5639.1333389849306
  0
LINE
  5
8B
100
AcDbEntity
  8
___E
  6
CONTINUOUS
 62
             7
100
AcDbLine
 10
6871.7333417999989
 20
5639.1333389849306
 11
6870.7333427863014
 21
5639.1333389849306
  0
LINE
  5
8A
100
AcDbEntity
  8
___E
  6
CONTINUOUS
 62
             7
100
AcDbLine
 10
6872.7333423136979
 20
5646.1333395808206
 11
6872.7333423136979
 21
5640.1333394986304
  0
LINE
  5
89
100
AcDbEntity
  8
___E
  6
CONTINUOUS
 62
             7
100
AcDbLine
 10
6870.7333427863014
 20
5647.13333859452
 11
6871.7333417999989
 21
5647.13333859452
  0
LINE
  5
88
100
AcDbEntity
  8
___E
  6
CONTINUOUS
 62
             7
100
AcDbLine
 10
6871.7333417999989
 20
5793.1333415945201
 11
6870.7333427863014
 21
5793.1333415945201
  0
LINE
  5
87
100
AcDbEntity
  8
___E
  6
CONTINUOUS
 62
             7
100
AcDbLine
 10
6872.7333423136979
 20
5800.1333406904114
 11
6872.7333423136979
 21
5794.1333406082194
  0
LINE
  5
86
100
AcDbEntity
  8
___E
  6
CONTINUOUS
 62
             7
100
AcDbLine
 10
7036.5833451061653
 20
5794.7833416171234
 11
7031.8833455417816
 21
5799.4833411815061
  0
LINE
  5
85
100
AcDbEntity
  8
___E
  6
CONTINUOUS
 62
             7
100
AcDbLine
 10
7031.9333450424674
 20
5794.8333411178073
 11
7036.5833451061653
 21
5799.4833411815061
  0
LINE
  5
84
100
AcDbEntity
  8
___E
  6
CONTINUOUS
 62
             7
100
AcDbLine
 10
7036.5833451061653
 20
5640.783339007533
 11
7031.8833455417816
 21
5645.4833385719166
  0
LINE
  5
83
100
AcDbEntity
  8
___E
  6
CONTINUOUS
 62
             7
100
AcDbLine
 10
7031.9333450424674
 20
5640.8333385082178
 11
7036.5833451061653
 21
5645.4833385719166
  0
LINE
  5
82
100
AcDbEntity
  8
___E
  6
CONTINUOUS
 62
             7
100
AcDbLine
 10
6992.2333439986314
 20
5625.6333387999994
 11
6992.2333439986314
 21
5632.1333383890396
  0
LINE
  5
81
100
AcDbEntity
  8
___E
  6
CONTINUOUS
 62
             7
100
AcDbLine
 10
6994.2333450260294
 20
5608.1333380602728
 11
6997.7333445739732
 21
5608.1333380602728
  0
LINE
  5
80
100
AcDbEntity
  8
___E
  6
CONTINUOUS
 62
             7
100
AcDbLine
 10
6992.2333439986314
 20
5610.63333859452
 11
6992.2333439986314
 21
5609.1333385739717
  0
LINE
  5
7F
100
AcDbEntity
  8
___E
  6
CONTINUOUS
 62
             7
100
AcDbLine
 10
6994.2333450260294
 20
5608.1333380602728
 11
6992.2333439986314
 21
5609.1333385739717
  0
LINE
  5
7E
100
AcDbEntity
  8
___E
  6
CONTINUOUS
 62
             7
100
AcDbLine
 10
6994.2333450260294
 20
5633.1333389027386
 11
6992.2333439986314
 21
5632.1333383890396
  0
LINE
  5
7D
100
AcDbEntity
  8
___E
  6
CONTINUOUS
 62
             7
100
AcDbLine
 10
6997.7333445739732
 20
5633.1333389027386
 11
6997.7333445739732
 21
5608.1333380602728
  0
LINE
  5
7C
100
AcDbEntity
  8
___E
  6
CONTINUOUS
 62
             7
100
AcDbLine
 10
6999.7333441013707
 20
5633.1333389027386
 11
6999.7333441013707
 21
5608.1333380602728
  0
LINE
  5
7B
100
AcDbEntity
  8
___E
  6
CONTINUOUS
 62
             7
100
AcDbLine
 10
6992.2333439986314
 20
5633.1333389027386
 11
6997.7333445739732
 21
5633.1333389027386
  0
LINE
  5
7A
100
AcDbEntity
  8
___E
  6
CONTINUOUS
 62
             7
100
AcDbLine
 10
6999.7333441013707
 20
5633.1333389027386
 11
7029.2333450054803
 21
5633.1333389027386
  0
LINE
  5
79
100
AcDbEntity
  8
___E
  6
CONTINUOUS
 62
             7
100
AcDbLine
 10
6996.1333440520557
 20
5618.1333386972592
 11
6994.1333445246582
 21
5616.1333391698618
  0
LINE
  5
78
100
AcDbEntity
  8
___E
  6
CONTINUOUS
 62
             7
100
AcDbLine
 10
6987.6333449356171
 20
5612.2333391164384
 11
6987.6333449356171
 21
5624.0333382780809
  0
LINE
  5
77
100
AcDbEntity
  8
___E
  6
CONTINUOUS
 62
             7
100
AcDbLine
 10
6996.1333440520557
 20
5611.1333381013692
 11
6994.1333445246582
 21
5611.1333381013692
  0
LINE
  5
76
100
AcDbEntity
  8
___E
  6
CONTINUOUS
 62
             7
100
AcDbLine
 10
6996.1333440520557
 20
5625.1333392931501
 11
6994.1333445246582
 21
5625.1333392931501
  0
LINE
  5
75
100
AcDbEntity
  8
___E
  6
CONTINUOUS
 62
             7
100
AcDbLine
 10
6994.1333445246582
 20
5622.1333392520537
 11
6988.7333444506858
 21
5622.1333392520537
  0
LINE
  5
74
100
AcDbEntity
  8
___E
  6
CONTINUOUS
 62
             7
100
AcDbLine
 10
6994.1333445246582
 20
5614.1333381424647
 11
6988.8333449520551
 21
5614.1333381424647
  0
LINE
  5
73
100
AcDbEntity
  8
___E
  6
CONTINUOUS
 62
             7
100
AcDbLine
 10
6988.7333444506858
 20
5610.63333859452
 11
6994.1333445246582
 21
5610.63333859452
  0
LINE
  5
72
100
AcDbEntity
  8
___E
  6
CONTINUOUS
 62
             7
100
AcDbLine
 10
6994.1333445246582
 20
5610.63333859452
 11
6994.1333445246582
 21
5625.6333387999994
  0
LINE
  5
71
100
AcDbEntity
  8
___E
  6
CONTINUOUS
 62
             7
100
AcDbLine
 10
6994.1333445246582
 20
5625.6333387999994
 11
6988.7333444506858
 21
5625.6333387999994
  0
LINE
  5
70
100
AcDbEntity
  8
___E
  6
CONTINUOUS
 62
             7
100
AcDbLine
 10
6994.1333445246582
 20
5618.1333386972592
 11
6996.1333440520557
 21
5620.1333382246567
  0
LINE
  5
6F
100
AcDbEntity
  8
___E
  6
CONTINUOUS
 62
             7
100
AcDbLine
 10
7029.2333450054803
 20
5608.1333380602728
 11
6997.7333445739732
 21
5608.1333380602728
  0
LINE
  5
6E
100
AcDbEntity
  8
___E
  6
CONTINUOUS
 62
             7
100
AcDbLine
 10
7019.2333443684938
 20
5633.1333389027386
 11
7018.2333453547953
 21
5633.1333389027386
  0
LINE
  5
6D
100
AcDbEntity
  8
___E
  6
CONTINUOUS
 62
             7
100
AcDbLine
 10
7029.2333450054803
 20
5633.1333389027386
 11
7029.2333450054803
 21
5594.5475513741658
  0
LINE
  5
6C
100
AcDbEntity
  8
___E
  6
CONTINUOUS
 62
             7
100
AcDbLine
 10
7029.2333450054803
 20
5819.7191274587094
 11
7029.2333450054803
 21
5807.1333412863014
  0
LINE
  5
6B
100
AcDbEntity
  8
___E
  6
CONTINUOUS
 62
             7
100
AcDbLine
 10
7039.2333456424667
 20
5634.547552422111
 11
7037.8191321230934
 21
5633.1333389027386
  0
LINE
  5
6A
100
AcDbEntity
  8
___E
  6
CONTINUOUS
 62
             7
100
AcDbLine
 10
7039.2333456424667
 20
5805.7191277669281
 11
7037.8191321230934
 21
5807.1333412863014
  0
LINE
  5
69
100
AcDbEntity
  8
___E
  6
CONTINUOUS
 62
             7
100
AcDbLine
 10
6944.2333433410968
 20
5633.1333389027386
 11
7037.8191321230934
 21
5633.1333389027386
  0
LINE
  5
68
100
AcDbEntity
  8
___E
  6
CONTINUOUS
 62
             7
100
AcDbLine
 10
7094.2333453958909
 20
5593.1333378547934
 11
7030.6475585248527
 21
5593.1333378547934
  0
LINE
  5
67
100
AcDbEntity
  8
___E
  6
CONTINUOUS
 62
             7
100
AcDbLine
 10
7094.2333453958909
 20
5821.1333409780818
 11
7030.6475585248527
 21
5821.1333409780818
  0
LINE
  5
66
100
AcDbEntity
  8
___E
  6
CONTINUOUS
 62
             7
100
AcDbLine
 10
7094.2333453958909
 20
5593.1333378547934
 11
7094.2333453958909
 21
5821.1333409780818
  0
LINE
  5
65
100
AcDbEntity
  8
___E
  6
CONTINUOUS
 62
             7
100
AcDbLine
 10
7030.6475585248527
 20
5593.1333378547934
 11
7029.2333450054803
 21
5594.5475513741658
  0
LINE
  5
64
100
AcDbEntity
  8
___E
  6
CONTINUOUS
 62
             7
100
AcDbLine
 10
7030.6475585248527
 20
5821.1333409780818
 11
7029.2333450054803
 21
5819.7191274587094
  0
LINE
  5
63
100
AcDbEntity
  8
___E
  6
CONTINUOUS
 62
             7
100
AcDbLine
 10
6841.2333418821909
 20
5608.1333380602728
 11
6841.2333418821909
 21
5633.1333389027386
  0
LINE
  5
62
100
AcDbEntity
  8
___E
  6
CONTINUOUS
 62
             7
100
AcDbLine
 10
6829.233341717807
 20
5608.1333380602728
 11
6829.233341717807
 21
5633.1333389027386
  0
LINE
  5
61
100
AcDbEntity
  8
___E
  6
CONTINUOUS
 62
             7
100
AcDbLine
 10
6833.5333422767117
 20
5631.8333383849304
 11
6836.8833418226022
 21
5628.4833388390398
  0
LINE
  5
60
100
AcDbEntity
  8
___E
  6
CONTINUOUS
 62
             7
100
AcDbLine
 10
6833.6833422787658
 20
5628.58333934041
 11
6836.8833418226022
 21
5631.7833388842464
  0
LINE
  5
5F
100
AcDbEntity
  8
___E
  6
CONTINUOUS
 62
             7
100
AcDbLine
 10
6839.2333423547934
 20
5633.1333389027386
 11
6839.2333423547934
 21
5630.1333388616431
  0
LINE
  5
5E
100
AcDbEntity
  8
___E
  6
CONTINUOUS
 62
             7
100
AcDbLine
 10
6831.2333412452044
 20
5633.1333389027386
 11
6831.2333412452044
 21
5630.1333388616431
  0
LINE
  5
5D
100
AcDbEntity
  8
___E
  6
CONTINUOUS
 62
             7
100
AcDbLine
 10
6861.2333416561632
 20
5608.1333380602728
 11
6861.2333416561632
 21
5633.1333389027386
  0
LINE
  5
5C
100
AcDbEntity
  8
___E
  6
CONTINUOUS
 62
             7
100
AcDbLine
 10
6809.2333419438346
 20
5608.1333380602728
 11
6809.2333419438346
 21
5633.1333389027386
  0
LINE
  5
5B
100
AcDbEntity
  8
___E
  6
CONTINUOUS
 62
             7
100
AcDbLine
 10
6829.1362887164778
 20
5633.1333389027386
 11
6841.2333418821909
 21
5633.1333389027386
  0
LINE
  5
5A
100
AcDbEntity
  8
___E
  6
CONTINUOUS
 62
             7
100
AcDbLine
 10
6841.2333418821909
 20
5608.1333380602728
 11
6861.2333416561632
 21
5608.1333380602728
  0
LINE
  5
59
100
AcDbEntity
  8
___E
  6
CONTINUOUS
 62
             7
100
AcDbLine
 10
6809.2333419438346
 20
5608.1333380602728
 11
6841.2333418821909
 21
5608.1333380602728
  0
LINE
  5
58
100
AcDbEntity
  8
___E
  6
CONTINUOUS
 62
             7
100
AcDbLine
 10
6815.5833415308207
 20
5621.7833382472591
 11
6823.3833416376701
 21
5613.9833381404096
  0
LINE
  5
57
100
AcDbEntity
  8
___E
  6
CONTINUOUS
 62
             7
100
AcDbLine
 10
6822.9833411321906
 20
5621.8833387486293
 11
6814.9833415226021
 21
5613.8833391390399
  0
LINE
  5
56
100
AcDbEntity
  8
___E
  6
CONTINUOUS
 62
             7
100
AcDbLine
 10
6847.583341469177
 20
5621.7833382472591
 11
6855.3833415760264
 21
5613.9833381404096
  0
LINE
  5
55
100
AcDbEntity
  8
___E
  6
CONTINUOUS
 62
             7
100
AcDbLine
 10
6854.9833425705474
 20
5621.8833387486293
 11
6846.9833414609584
 21
5613.8833391390399
  0
LINE
  5
54
100
AcDbEntity
  8
___E
  6
CONTINUOUS
 62
             7
100
AcDbLine
 10
6802.5833408527387
 20
5607.1333390465743
 11
6867.8833427472591
 21
5607.1333390465743
  0
LINE
  5
53
100
AcDbEntity
  8
___E
  6
CONTINUOUS
 62
             7
100
AcDbLine
 10
6869.4833417691771
 20
5633.1333389027386
 11
6869.4833417691771
 21
5593.1333378547934
  0
LINE
  5
52
100
AcDbEntity
  8
___E
  6
CONTINUOUS
 62
             7
100
AcDbLine
 10
6867.8833427472591
 20
5633.1333389027386
 11
6867.8833427472591
 21
5593.1333378547934
  0
LINE
  5
51
100
AcDbEntity
  8
___E
  6
CONTINUOUS
 62
             7
100
AcDbLine
 10
6800.9833418308208
 20
5633.1333389027386
 11
6800.9833418308208
 21
5593.1333378547934
  0
LINE
  5
50
100
AcDbEntity
  8
___E
  6
CONTINUOUS
 62
             7
100
AcDbLine
 10
6802.5833408527387
 20
5633.1333389027386
 11
6802.5833408527387
 21
5593.1333378547934
  0
LINE
  5
4F
100
AcDbEntity
  8
___E
  6
CONTINUOUS
 62
             7
100
AcDbLine
 10
6819.6475555864954
 20
5593.1333378547934
 11
6850.8191280135034
 21
5593.1333378547934
  0
LINE
  5
4E
100
AcDbEntity
  8
___E
  6
CONTINUOUS
 62
             7
100
AcDbLine
 10
6819.6475555864954
 20
5821.1333409780818
 11
6850.8191280135034
 21
5821.1333409780818
  0
LINE
  5
4D
100
AcDbEntity
  8
___E
  6
CONTINUOUS
 62
             7
100
AcDbLine
 10
6852.2333415328758
 20
5819.7191274587094
 11
6852.2333415328758
 21
5814.1333418821914
  0
LINE
  5
4C
100
AcDbEntity
  8
___E
  6
CONTINUOUS
 62
             7
100
AcDbLine
 10
6858.2333416150677
 20
5819.7191274587094
 11
6858.2333416150677
 21
5814.1333418821914
  0
LINE
  5
4B
100
AcDbEntity
  8
___E
  6
CONTINUOUS
 62
             7
100
AcDbLine
 10
6859.6475551344402
 20
5821.1333409780818
 11
6869.4833417691771
 21
5821.1333409780818
  0
LINE
  5
4A
100
AcDbEntity
  8
___E
  6
CONTINUOUS
 62
             7
100
AcDbLine
 10
6859.6475551344402
 20
5821.1333409780818
 11
6858.2333416150677
 21
5819.7191274587094
  0
LINE
  5
49
100
AcDbEntity
  8
___E
  6
CONTINUOUS
 62
             7
100
AcDbLine
 10
6850.8191280135034
 20
5821.1333409780818
 11
6852.2333415328758
 21
5819.7191274587094
  0
LINE
  5
48
100
AcDbEntity
  8
___E
  6
CONTINUOUS
 62
             7
100
AcDbLine
 10
6859.6475551344402
 20
5593.1333378547934
 11
6869.4833417691771
 21
5593.1333378547934
  0
LINE
  5
47
100
AcDbEntity
  8
___E
  6
CONTINUOUS
 62
             7
100
AcDbLine
 10
6858.2333416150677
 20
5594.5475513741658
 11
6858.2333416150677
 21
5600.1333384506843
  0
LINE
  5
46
100
AcDbEntity
  8
___E
  6
CONTINUOUS
 62
             7
100
AcDbLine
 10
6859.6475551344402
 20
5593.1333378547934
 11
6858.2333416150677
 21
5594.5475513741658
  0
LINE
  5
45
100
AcDbEntity
  8
___E
  6
CONTINUOUS
 62
             7
100
AcDbLine
 10
6850.8191280135034
 20
5593.1333378547934
 11
6852.2333415328758
 21
5594.5475513741658
  0
LINE
  5
44
100
AcDbEntity
  8
___E
  6
CONTINUOUS
 62
             7
100
AcDbLine
 10
6852.2333415328758
 20
5594.5475513741658
 11
6852.2333415328758
 21
5600.1333384506843
  0
LINE
  5
43
100
AcDbEntity
  8
___E
  6
CONTINUOUS
 62
             7
100
AcDbLine
 10
6818.2333420671221
 20
5594.5475513741658
 11
6818.2333420671221
 21
5600.1333384506843
  0
LINE
  5
42
100
AcDbEntity
  8
___E
  6
CONTINUOUS
 62
             7
100
AcDbLine
 10
6819.6475555864954
 20
5593.1333378547934
 11
6818.2333420671221
 21
5594.5475513741658
  0
LINE
  5
41
100
AcDbEntity
  8
___E
  6
CONTINUOUS
 62
             7
100
AcDbLine
 10
6810.8191284655577
 20
5593.1333378547934
 11
6812.233341984931
 21
5594.5475513741658
  0
LINE
  5
40
100
AcDbEntity
  8
___E
  6
CONTINUOUS
 62
             7
100
AcDbLine
 10
6812.233341984931
 20
5594.5475513741658
 11
6812.233341984931
 21
5600.1333384506843
  0
LINE
  5
3F
100
AcDbEntity
  8
___E
  6
CONTINUOUS
 62
             7
100
AcDbLine
 10
6810.8191284655577
 20
5593.1333378547934
 11
6800.9833418308208
 21
5593.1333378547934
  0
LINE
  5
3E
100
AcDbEntity
  8
___E
  6
CONTINUOUS
 62
             7
100
AcDbLine
 10
6819.6475555864954
 20
5821.1333409780818
 11
6818.2333420671221
 21
5819.7191274587094
  0
LINE
  5
3D
100
AcDbEntity
  8
___E
  6
CONTINUOUS
 62
             7
100
AcDbLine
 10
6810.8191284655577
 20
5821.1333409780818
 11
6812.233341984931
 21
5819.7191274587094
  0
LINE
  5
3C
100
AcDbEntity
  8
___E
  6
CONTINUOUS
 62
             7
100
AcDbLine
 10
6810.8191284655577
 20
5821.1333409780818
 11
6800.9833418308208
 21
5821.1333409780818
  0
LINE
  5
3B
100
AcDbEntity
  8
___E
  6
CONTINUOUS
 62
             7
100
AcDbLine
 10
6812.233341984931
 20
5819.7191274587094
 11
6812.233341984931
 21
5814.1333418821914
  0
LINE
  5
3A
100
AcDbEntity
  8
___E
  6
CONTINUOUS
 62
             7
100
AcDbLine
 10
6818.2333420671221
 20
5819.7191274587094
 11
6818.2333420671221
 21
5814.1333418821914
  0
LINE
  5
39
100
AcDbEntity
  8
___E
  6
CONTINUOUS
 62
             7
100
AcDbLine
 10
6869.4833417691771
 20
5601.1333389643823
 11
6869.4833417691771
 21
5605.5633385250676
  0
LINE
  5
38
100
AcDbEntity
  8
___E
  6
CONTINUOUS
 62
             7
100
AcDbLine
 10
6869.4833417691771
 20
5813.1333413684924
 11
6869.4833417691771
 21
5808.7033418078072
  0
POINT
  5
37
100
AcDbEntity
  8
___E
 62
             7
100
AcDbPoint
 10
6871.7333417999998
 20
5808.1333418000004
  0
POINT
  5
36
100
AcDbEntity
  8
___E
 62
             7
100
AcDbPoint
 10
6798.7333417999998
 20
5808.1333418000004
  0
POINT
  5
35
100
AcDbEntity
  8
___E
 62
             7
100
AcDbPoint
 10
7092.6333463739738
 20
5593.1333378547934
  0
POINT
  5
34
100
AcDbEntity
  8
___E
 62
             7
100
AcDbPoint
 10
7094.2333453958909
 20
5593.1333378547934
  0
POINT
  5
33
100
AcDbEntity
  8
___E
 62
             7
100
AcDbPoint
 10
6944.2333433410968
 20
5807.1333412863014
  0
POINT
  5
32
100
AcDbEntity
  8
___E
 62
             7
100
AcDbPoint
 10
6944.2333433410968
 20
5807.1333412863014
  0
POINT
  5
31
100
AcDbEntity
  8
___E
 62
             7
100
AcDbPoint
 10
7094.2333453958909
 20
5821.8833409883564
  0
POINT
  5
30
100
AcDbEntity
  8
___E
 62
             7
100
AcDbPoint
 10
6929.2333431356174
 20
5739.3833398582183
  0
POINT
  5
2F
100
AcDbEntity
  8
___E
 62
             7
100
AcDbPoint
 10
7094.2333453958909
 20
5821.1333409780818
  0
POINT
  5
2E
100
AcDbEntity
  8
___E
 62
             7
100
AcDbPoint
 10
6810.0833409554789
 20
5814.1333418821914
  0
POINT
  5
2D
100
AcDbEntity
  8
___E
 62
             7
100
AcDbPoint
 10
6810.0833409554789
 20
5600.1333384506843
  0
POINT
  5
2C
100
AcDbEntity
  8
___E
 62
             7
100
AcDbPoint
 10
6800.9833418308208
 20
5593.1333378547934
  0
POINT
  5
2B
100
AcDbEntity
  8
___E
 62
             7
100
AcDbPoint
 10
6800.9833418308208
 20
5821.1333409780818
  0
POINT
  5
2A
100
AcDbEntity
  8
___E
 62
             7
100
AcDbPoint
 10
6818.2333420671221
 20
5819.7191274587094
  0
POINT
  5
29
100
AcDbEntity
  8
___E
 62
             7
100
AcDbPoint
 10
6812.233341984931
 20
5819.7191274587094
  0
ENDSEC
  0
SECTION
  2
OBJECTS
  0
DICTIONARY
  5
19
100
AcDbDictionary
  3
ACAD_GROUP
350
1A
  3
ACAD_MLINESTYLE
350
1B
  0
DICTIONARY
  5
1A
102
{ACAD_REACTORS
330
19
102
}
100
AcDbDictionary
  0
DICTIONARY
  5
1B
102
{ACAD_REACTORS
330
19
102
}
100
AcDbDictionary
  3
STANDARD
350
1C
  0
MLINESTYLE
  5
1C
102
{ACAD_REACTORS
330
1B
102
}
100
AcDbMlineStyle
  2
STANDARD
 70
             0
  3

 62
             0
 51
90.0
 52
90.0
 71
             2
 49
0.5
 62
           256
  6
BYLAYER
 49
-0.5
 62
           256
  6
BYLAYER
  0
ENDSEC
  0
EOF
