  0
SECTION
  2
HEADER
  9
$ACADVER
  1
AC1014
  9
$ACADMAINTVER
 70
             0
  9
$DWGCODEPAGE
  3
ANSI_1252
  9
$INSBASE
 10
0.0
 20
0.0
 30
0.0
  9
$EXTMIN
 10
1.00000000000000E+20
 20
1.00000000000000E+20
 30
1.00000000000000E+20
  9
$EXTMAX
 10
-1.00000000000000E+20
 20
-1.00000000000000E+20
 30
-1.00000000000000E+20
  9
$LIMMIN
 10
0.0
 20
0.0
  9
$LIMMAX
 10
0.0
 20
0.0
  9
$ORTHOMODE
 70
             0
  9
$REGENMODE
 70
             1
  9
$FILLMODE
 70
             1
  9
$QTEXTMODE
 70
             0
  9
$MIRRTEXT
 70
             1
  9
$DRAGMODE
 70
             2
  9
$LTSCALE
 40
1.0
  9
$OSMODE
 70
             0
  9
$ATTMODE
 70
             1
  9
$TEXTSIZE
 40
0.2
  9
$TRACEWID
 40
0.05
  9
$TEXTSTYLE
  7
STANDARD
  9
$CLAYER
  8
0
  9
$CELTYPE
  6
CONTINUOUS
  9
$CECOLOR
 62
           256
  9
$CELTSCALE
 40
1.0
  9
$DELOBJ
 70
             1
  9
$DISPSILH
 70
             0
  9
$DIMSCALE
 40
1.0
  9
$DIMASZ
 40
0.18
  9
$DIMEXO
 40
0.0625
  9
$DIMDLI
 40
0.38
  9
$DIMRND
 40
0.0
  9
$DIMDLE
 40
0.0
  9
$DIMEXE
 40
0.18
  9
$DIMTP
 40
0.0
  9
$DIMTM
 40
0.0
  9
$DIMTXT
 40
0.18
  9
$DIMCEN
 40
0.09
  9
$DIMTSZ
 40
0.0
  9
$DIMTOL
 70
             0
  9
$DIMLIM
 70
             0
  9
$DIMTIH
 70
             1
  9
$DIMTOH
 70
             1
  9
$DIMSE1
 70
             0
  9
$DIMSE2
 70
             0
  9
$DIMTAD
 70
             0
  9
$DIMZIN
 70
             0
  9
$DIMBLK
  1

  9
$DIMASO
 70
             1
  9
$DIMSHO
 70
             1
  9
$DIMPOST
  1

  9
$DIMAPOST
  1

  9
$DIMALT
 70
             0
  9
$DIMALTD
 70
             2
  9
$DIMALTF
 40
25.4
  9
$DIMLFAC
 40
1.0
  9
$DIMTOFL
 70
             0
  9
$DIMTVP
 40
0.0
  9
$DIMTIX
 70
             0
  9
$DIMSOXD
 70
             0
  9
$DIMSAH
 70
             0
  9
$DIMBLK1
  1

  9
$DIMBLK2
  1

  9
$DIMSTYLE
  2
STANDARD
  9
$DIMCLRD
 70
             0
  9
$DIMCLRE
 70
             0
  9
$DIMCLRT
 70
             0
  9
$DIMTFAC
 40
1.0
  9
$DIMGAP
 40
0.09
  9
$DIMJUST
 70
             0
  9
$DIMSD1
 70
             0
  9
$DIMSD2
 70
             0
  9
$DIMTOLJ
 70
             1
  9
$DIMTZIN
 70
             0
  9
$DIMALTZ
 70
             0
  9
$DIMALTTZ
 70
             0
  9
$DIMFIT
 70
             3
  9
$DIMUPT
 70
             0
  9
$DIMUNIT
 70
             2
  9
$DIMDEC
 70
             4
  9
$DIMTDEC
 70
             4
  9
$DIMALTU
 70
             2
  9
$DIMALTTD
 70
             2
  9
$DIMTXSTY
  7
STANDARD
  9
$DIMAUNIT
 70
             0
  9
$LUNITS
 70
             2
  9
$LUPREC
 70
             4
  9
$SKETCHINC
 40
0.1
  9
$FILLETRAD
 40
0.0
  9
$AUNITS
 70
             0
  9
$AUPREC
 70
             0
  9
$MENU
  1
acad
  9
$ELEVATION
 40
0.0
  9
$PELEVATION
 40
0.0
  9
$THICKNESS
 40
0.0
  9
$LIMCHECK
 70
             0
  9
$BLIPMODE
 70
             1
  9
$CHAMFERA
 40
0.0
  9
$CHAMFERB
 40
0.0
  9
$CHAMFERC
 40
0.0
  9
$CHAMFERD
 40
0.0
  9
$SKPOLY
 70
             0
  9
$TDCREATE
 40
0.000000000
  9
$TDUPDATE
 40
0.000000000
  9
$TDINDWG
 40
0.0000000000
  9
$TDUSRTIMER
 40
0.0000000000
  9
$USRTIMER
 70
             1
  9
$ANGBASE
 50
0.0
  9
$ANGDIR
 70
             0
  9
$PDMODE
 70
             0
  9
$PDSIZE
 40
0.0
  9
$PLINEWID
 40
0.0
  9
$COORDS
 70
             0
  9
$SPLFRAME
 70
             0
  9
$SPLINETYPE
 70
             6
  9
$SPLINESEGS
 70
             8
  9
$ATTDIA
 70
             0
  9
$ATTREQ
 70
             1
  9
$HANDLING
 70
             1
  9
$HANDSEED
  5
1C1
  9
$SURFTAB1
 70
             6
  9
$SURFTAB2
 70
             6
  9
$SURFTYPE
 70
             6
  9
$SURFU
 70
             6
  9
$SURFV
 70
             6
  9
$UCSNAME
  2

  9
$UCSORG
 10
0.0
 20
0.0
 30
0.0
  9
$UCSXDIR
 10
1.0
 20
0.0
 30
0.0
  9
$UCSYDIR
 10
0.0
 20
1.0
 30
0.0
  9
$PUCSNAME
  2

  9
$PUCSORG
 10
0.0
 20
0.0
 30
0.0
  9
$PUCSXDIR
 10
1.0
 20
0.0
 30
0.0
  9
$PUCSYDIR
 10
0.0
 20
1.0
 30
0.0
  9
$USERI1
 70
             0
  9
$USERI2
 70
             0
  9
$USERI3
 70
             0
  9
$USERI4
 70
             0
  9
$USERI5
 70
             0
  9
$USERR1
 40
11.6
  9
$USERR2
 40
0.0
  9
$USERR3
 40
0.0
  9
$USERR4
 40
0.0
  9
$USERR5
 40
0.0
  9
$WORLDVIEW
 70
             1
  9
$SHADEDGE
 70
             3
  9
$SHADEDIF
 70
            70
  9
$TILEMODE
 70
             1
  9
$MAXACTVP
 70
            16
  9
$PINSBASE
 10
0.0
 20
0.0
 30
0.0
  9
$PLIMCHECK
 70
             0
  9
$PEXTMIN
 10
1.00000000000000E+20
 20
1.00000000000000E+20
 30
1.00000000000000E+20
  9
$PEXTMAX
 10
-1.00000000000000E+20
 20
-1.00000000000000E+20
 30
-1.00000000000000E+20
  9
$PLIMMIN
 10
0.0
 20
0.0
  9
$PLIMMAX
 10
12.0
 20
9.0
  9
$UNITMODE
 70
             0
  9
$VISRETAIN
 70
             0
  9
$PLINEGEN
 70
             1
  9
$PSLTSCALE
 70
             0
  9
$TREEDEPTH
 70
          3020
  9
$PICKSTYLE
 70
             1
  9
$CMLSTYLE
  2
STANDARD
  9
$CMLJUST
 70
             0
  9
$CMLSCALE
 40
1.0
  9
$PROXYGRAPHICS
 70
             0
  9
$MEASUREMENT
 70
             1
  0
ENDSEC
  0
SECTION
  2
CLASSES
  0
CLASS
  1
LWPOLYLINE
  2
AcDbPolyline
  3
"AutoCAD"
 90
        0
280
             0
281
             1
  0
CLASS
  1
IMAGE
  2
AcDbRasterImage
  3
ISM
 90
      127
280
             0
281
             1
  0
CLASS
  1
OLE2FRAME
  2
AcDbOle2Frame
  3
""
 90
        0
280
             0
281
             1
  0
CLASS
  1
HATCH
  2
AcDbHatch
  3
"ACAD_SEDONA"
 90
        0
280
             0
281
             1
  0
CLASS
  1
DICTIONARYVAR
  2
AcDbDictionaryVar
  3
"AutoCAD"
 90
        0
280
             0
281
             0
  0
CLASS
  1
RASTERVARIABLES
  2
AcDbRasterVariables
  3
ISM
 90
        0
280
             0
281
             0
  0
CLASS
  1
IMAGEDEF
  2
AcDbRasterImageDef
  3
ISM
 90
        0
280
             0
281
             0
  0
CLASS
  1
IMAGEDEF_REACTOR
  2
AcDbRasterImageDefReactor
  3
ISM
 90
        1
280
             0
281
             0
  0
CLASS
  1
IDBUFFER
  2
AcDbIdBuffer
  3
"Acad"
 90
        0
280
             0
281
             0
  0
CLASS
  1
SPATIAL_FILTER
  2
AcDbSpatialFilter
  3
"Acad"
 90
        0
280
             0
281
             0
  0
CLASS
  1
XRECORD
  2
AcDbXrecord
  3
"<Built In>"
 90
        0
280
             0
281
             0
  0
CLASS
  1
SORTENTSTABLE
  2
AcDbSortentsTable
  3
"AutoCAD"
 90
        0
280
             0
281
             0
  0
CLASS
  1
LAYER_INDEX
  2
AcDbLayerIndex
  3
"Acad"
 90
        0
280
             0
281
             0
  0
CLASS
  1
SPATIAL_INDEX
  2
AcDbSpatialIndex
  3
"Acad"
 90
        0
280
             0
281
             0
  0
CLASS
  1
OBJECT_PTR
  2
CAseDLPNTableRecord
  3
"ASE-LPNTableRecord"
 90
        1
280
             0
281
             0
  0
CLASS
  1
LAYOUT
  2
AcDbLayout
  3
"AutoCAD 2000"
 90
        1
280
             0
281
             0
  0
CLASS
  1
PLOTSETTINGS
  2
AcDbPlotSettings
  3
"AutoCAD 2000"
 90
        1
280
             0
281
             0
  0
CLASS
  1
ACDBDICTIONARYWDFLT
  2
AcDbDictionaryWithDefault
  3
"AutoCAD 2000"
 90
        1
280
             0
281
             0
  0
CLASS
  1
ACDBPLACEHOLDER
  2
AcDbPlaceHolder
  3
"AutoCAD 2000"
 90
        1
280
             0
281
             0
  0
ENDSEC
  0
SECTION
  2
TABLES
  0
TABLE
  2
VPORT
  5
7
100
AcDbSymbolTable
 70
             1
  0
VPORT
  5
15
100
AcDbSymbolTableRecord
100
AcDbViewportTableRecord
  2
*ACTIVE
 70
             0
 10
0.0
 20
0.0
 11
1.0
 21
1.0
 12
82.72840364713154
 22
77.45976939239452
 13
0.0
 23
0.0
 14
1.0
 24
1.0
 15
0.0
 25
0.0
 16
0.0
 26
0.0
 36
1.0
 17
0.0
 27
0.0
 37
0.0
 40
108.96071099743841
 41
1.60267857142857
 42
50.0
 43
0.0
 44
0.0
 50
0.0
 51
0.0
 71
             0
 72
           100
 73
             1
 74
             1
 75
             0
 76
             0
 77
             0
 78
             0
  0
ENDTAB
  0
TABLE
  2
LTYPE
  5
4
100
AcDbSymbolTable
 70
            10
  0
LTYPE
  5
11
100
AcDbSymbolTableRecord
100
AcDbLinetypeTableRecord
  2
BYBLOCK
 70
            64
  3

 72
            65
 73
             0
 40
0.0
  0
LTYPE
  5
12
100
AcDbSymbolTableRecord
100
AcDbLinetypeTableRecord
  2
BYLAYER
 70
            64
  3

 72
            65
 73
             0
 40
0.0
  0
LTYPE
  5
13
100
AcDbSymbolTableRecord
100
AcDbLinetypeTableRecord
  2
CONTINUOUS
 70
            64
  3
Solid line
 72
            65
 73
             0
 40
0.0
  0
LTYPE
  5
1D
100
AcDbSymbolTableRecord
100
AcDbLinetypeTableRecord
  2
DASHED
 70
            64
  3
Dashed
 72
            65
 73
             2
 40
15.0
 49
12.0
 74
             0
 49
-3.0
 74
             0
  0
LTYPE
  5
1E
100
AcDbSymbolTableRecord
100
AcDbLinetypeTableRecord
  2
DOTTED
 70
            64
  3
Dotted
 72
            65
 73
             2
 40
3.5
 49
0.5
 74
             0
 49
-3.0
 74
             0
  0
LTYPE
  5
1F
100
AcDbSymbolTableRecord
100
AcDbLinetypeTableRecord
  2
DOT_CENTER
 70
            64
  3
Dot_Center
 72
            65
 73
             4
 40
2.0
 49
1.25
 74
             0
 49
-0.25
 74
             0
 49
0.25
 74
             0
 49
-0.25
 74
             0
  0
LTYPE
  5
20
100
AcDbSymbolTableRecord
100
AcDbLinetypeTableRecord
  2
LONG_DASHED
 70
            64
  3
Long_Dashed
 72
            65
 73
             2
 40
2.0
 49
1.5
 74
             0
 49
-0.5
 74
             0
  0
LTYPE
  5
21
100
AcDbSymbolTableRecord
100
AcDbLinetypeTableRecord
  2
DASH_CENTER
 70
            64
  3
Dash_Center
 72
            65
 73
             4
 40
36.0
 49
24.0
 74
             0
 49
-3.0
 74
             0
 49
6.0
 74
             0
 49
-3.0
 74
             0
  0
LTYPE
  5
22
100
AcDbSymbolTableRecord
100
AcDbLinetypeTableRecord
  2
PHANTOM
 70
            64
  3
Phantom
 72
            65
 73
             6
 40
2.5
 49
1.25
 74
             0
 49
-0.25
 74
             0
 49
0.25
 74
             0
 49
-0.25
 74
             0
 49
0.25
 74
             0
 49
-0.25
 74
             0
  0
LTYPE
  5
23
100
AcDbSymbolTableRecord
100
AcDbLinetypeTableRecord
  2
CENTER_DASH_DASH
 70
            64
  3
Center_Dash_Dash
 72
            65
 73
             6
 40
22.0
 49
12.0
 74
             0
 49
-3.0
 74
             0
 49
0.5
 74
             0
 49
-3.0
 74
             0
 49
0.5
 74
             0
 49
-3.0
 74
             0
  0
ENDTAB
  0
TABLE
  2
LAYER
  5
2
100
AcDbSymbolTable
 70
             2
  0
LAYER
  5
14
100
AcDbSymbolTableRecord
100
AcDbLayerTableRecord
  2
0
 70
             0
 62
             7
  6
CONTINUOUS
  0
LAYER
  5
24
100
AcDbSymbolTableRecord
100
AcDbLayerTableRecord
  2
WIRE
 70
             0
 62
             7
  6
CONTINUOUS
  0
ENDTAB
  0
TABLE
  2
STYLE
  5
3
100
AcDbSymbolTable
 70
             1
  0
STYLE
  5
17
100
AcDbSymbolTableRecord
100
AcDbTextStyleTableRecord
  2
STANDARD
 70
             0
 40
0.0
 41
1.0
 50
0.0
 71
             0
 42
0.0
  3
txt
  4

  0
ENDTAB
  0
TABLE
  2
VIEW
  5
5
100
AcDbSymbolTable
 70
             0
  0
ENDTAB
  0
TABLE
  2
UCS
  5
6
100
AcDbSymbolTable
 70
             0
  0
ENDTAB
  0
TABLE
  2
APPID
  5
8
100
AcDbSymbolTable
 70
             1
  0
APPID
  5
16
100
AcDbSymbolTableRecord
100
AcDbRegAppTableRecord
  2
ACAD
 70
             0
  0
ENDTAB
  0
TABLE
  2
DIMSTYLE
  5
9
100
AcDbSymbolTable
 70
             1
  0
DIMSTYLE
105
18
100
AcDbSymbolTableRecord
100
AcDbDimStyleTableRecord
  2
STANDARD
 70
             0
  3

  4

  5

  6

  7

 40
1.0
 41
0.18
 42
0.0625
 43
0.38
 44
0.18
 45
0.0
 46
0.0
 47
0.0
 48
0.0
 71
             0
 72
             0
 73
             1
 74
             1
 75
             0
 76
             0
 77
             0
 78
             0
140
0.18
141
0.09
142
0.0
143
25.4
144
1.0
145
0.0
146
1.0
147
0.09
170
             0
171
             2
172
             0
173
             0
174
             0
175
             0
176
             0
177
             0
178
             0
270
             2
271
             4
272
             4
273
             2
274
             2
275
             0
280
             0
281
             0
282
             0
283
             1
284
             0
285
             0
286
             0
287
             0
288
             0
340
17
  0
ENDTAB
  0
TABLE
  2
BLOCK_RECORD
  5
1
100
AcDbSymbolTable
 70
             0
  0
BLOCK_RECORD
  5
A
100
AcDbSymbolTableRecord
100
AcDbBlockTableRecord
  2
*MODEL_SPACE
  0
BLOCK_RECORD
  5
B
100
AcDbSymbolTableRecord
100
AcDbBlockTableRecord
  2
*PAPER_SPACE
  0
ENDTAB
  0
ENDSEC
  0
SECTION
  2
BLOCKS
  0
BLOCK
  5
D
100
AcDbEntity
  8
0
100
AcDbBlockBegin
  2
*MODEL_SPACE
 70
             0
 10
0.0
 20
0.0
 30
0.0
  3
*MODEL_SPACE
  1

  0
ENDBLK
  5
E
100
AcDbEntity
  8
0
100
AcDbBlockEnd
  0
BLOCK
  5
F
100
AcDbEntity
 67
             1
  8
0
100
AcDbBlockBegin
  2
*PAPER_SPACE
 70
             0
 10
0.0
 20
0.0
 30
0.0
  3
*PAPER_SPACE
  1

  0
ENDBLK
  5
10
100
AcDbEntity
 67
             1
  8
0
100
AcDbBlockEnd
  0
ENDSEC
  0
SECTION
  2
ENTITIES
  0
CIRCLE
  5
1BF
100
AcDbEntity
  8
WIRE
  6
CONTINUOUS
 62
             7
100
AcDbCircle
 10
16.94433580568216
 20
108.4842954172419
 40
1.74602230963018
  0
CIRCLE
  5
1BE
100
AcDbEntity
  8
WIRE
  6
CONTINUOUS
 62
             7
100
AcDbCircle
 10
16.93100882174817
 20
103.5129527418492
 40
1.74602230963017
  0
CIRCLE
  5
1BD
100
AcDbEntity
  8
WIRE
  6
CONTINUOUS
 62
             7
100
AcDbCircle
 10
16.93100882174817
 20
98.48622471210629
 40
1.74602230963017
  0
CIRCLE
  5
1BC
100
AcDbEntity
  8
WIRE
  6
CONTINUOUS
 62
             7
100
AcDbCircle
 10
16.93100882174817
 20
93.5068059304833
 40
1.74602230963017
  0
CIRCLE
  5
1BB
100
AcDbEntity
  8
WIRE
  6
CONTINUOUS
 62
             7
100
AcDbCircle
 10
16.93100882174817
 20
88.49860451715048
 40
1.74602230963017
  0
CIRCLE
  5
1BA
100
AcDbEntity
  8
WIRE
  6
CONTINUOUS
 62
             7
100
AcDbCircle
 10
16.94433580568216
 20
83.47534476189583
 40
1.74602230963018
  0
CIRCLE
  5
1B9
100
AcDbEntity
  8
WIRE
  6
CONTINUOUS
 62
             7
100
AcDbCircle
 10
16.93100882174817
 20
78.47313744583309
 40
1.74602230963017
  0
CIRCLE
  5
1B8
100
AcDbEntity
  8
WIRE
  6
CONTINUOUS
 62
             7
100
AcDbCircle
 10
16.93100882174817
 20
73.46533285427208
 40
1.74602230963017
  0
CIRCLE
  5
1B7
100
AcDbEntity
  8
WIRE
  6
CONTINUOUS
 62
             7
100
AcDbCircle
 10
16.93100882174817
 20
68.47258790996742
 40
1.74602230963017
  0
CIRCLE
  5
1B6
100
AcDbEntity
  8
WIRE
  6
CONTINUOUS
 62
             7
100
AcDbCircle
 10
16.94433580568216
 20
63.47771265931585
 40
1.74602230963018
  0
CIRCLE
  5
1B5
100
AcDbEntity
  8
WIRE
  6
CONTINUOUS
 62
             7
100
AcDbCircle
 10
13.58279095124101
 20
45.50551108673719
 40
1.7414855126641
  0
CIRCLE
  5
1B4
100
AcDbEntity
  8
WIRE
  6
CONTINUOUS
 62
             7
100
AcDbCircle
 10
25.46287034187398
 20
117.0110462868176
 40
1.44061052972872
  0
CIRCLE
  5
1B3
100
AcDbEntity
  8
WIRE
  6
CONTINUOUS
 62
             7
100
AcDbCircle
 10
24.20255043025217
 20
109.9872082702735
 40
1.49823453321074
  0
CIRCLE
  5
1B2
100
AcDbEntity
  8
WIRE
  6
CONTINUOUS
 62
             7
100
AcDbCircle
 10
24.20255043025217
 20
109.9872082702735
 40
0.99882258702883
  0
CIRCLE
  5
1B1
100
AcDbEntity
  8
WIRE
  6
CONTINUOUS
 62
             7
100
AcDbCircle
 10
24.20255043025217
 20
105.99383676427171
 40
1.22932121162662
  0
CIRCLE
  5
1B0
100
AcDbEntity
  8
WIRE
  6
CONTINUOUS
 62
             7
100
AcDbCircle
 10
24.20255043025217
 20
105.99383676427171
 40
0.76832526776596
  0
CIRCLE
  5
1AF
100
AcDbEntity
  8
WIRE
  6
CONTINUOUS
 62
             7
100
AcDbCircle
 10
24.18333818073252
 20
101.0066368820759
 40
1.26773721394798
  0
CIRCLE
  5
1AE
100
AcDbEntity
  8
WIRE
  6
CONTINUOUS
 62
             7
100
AcDbCircle
 10
24.20255043025217
 20
100.987428880915
 40
0.74911726660566
  0
CIRCLE
  5
1AD
100
AcDbEntity
  8
WIRE
  6
CONTINUOUS
 62
             7
100
AcDbCircle
 10
24.20255043025217
 20
96.0029179883488
 40
1.24852921278724
  0
CIRCLE
  5
1AC
100
AcDbEntity
  8
WIRE
  6
CONTINUOUS
 62
             7
100
AcDbCircle
 10
24.20255043025217
 20
96.0029179883488
 40
0.74911857194023
  0
CIRCLE
  5
1AB
100
AcDbEntity
  8
WIRE
  6
CONTINUOUS
 62
             7
100
AcDbCircle
 10
20.29360959568462
 20
45.50510773829276
 40
1.74148551266411
  0
ARC
  5
1AA
100
AcDbEntity
  8
WIRE
  6
CONTINUOUS
 62
             7
100
AcDbCircle
 10
16.94052180810111
 20
118.0035097383289
 40
1.55912226758726
100
AcDbArc
 50
-179.6805533139194
 51
-0.31944668608062
  0
ARC
  5
1A9
100
AcDbEntity
  8
WIRE
  6
CONTINUOUS
 62
             7
100
AcDbCircle
 10
16.94052180810111
 20
117.9849485195935
 40
2.98831665261512
100
AcDbArc
 50
179.81078756758785
 51
0.18921243241218
  0
ARC
  5
1A8
100
AcDbEntity
  8
WIRE
  6
CONTINUOUS
 62
             7
100
AcDbCircle
 10
13.48545185593913
 20
120.514804755778
 40
0.48296677532967
100
AcDbArc
 50
0.0
 51
88.95175484034135
  0
ARC
  5
1A7
100
AcDbEntity
  8
WIRE
  6
CONTINUOUS
 62
             7
100
AcDbCircle
 10
20.41416793714974
 20
120.514804755778
 40
0.48258520125399
100
AcDbArc
 50
91.15655244665132
 51
180.0
  0
ARC
  5
1A6
100
AcDbEntity
  8
WIRE
  6
CONTINUOUS
 62
             7
100
AcDbCircle
 10
16.94052180810111
 20
37.99271977524155
 40
1.57768283773662
100
AcDbArc
 50
-0.13255593125769
 51
-179.86744406874232
  0
ARC
  5
1A5
100
AcDbEntity
  8
WIRE
  6
CONTINUOUS
 62
             7
100
AcDbCircle
 10
16.94052180810111
 20
37.99271977524155
 40
3.00687787135008
100
AcDbArc
 50
-0.06955090679625
 51
-179.93044909320145
  0
ARC
  5
1A4
100
AcDbEntity
  8
WIRE
  6
CONTINUOUS
 62
             7
100
AcDbCircle
 10
5.869437601725
 20
113.59156161818851
 40
0.90948739488948
100
AcDbArc
 50
90.61365101494307
 51
178.83064221562429
  0
ARC
  5
1A3
100
AcDbEntity
  8
WIRE
  6
CONTINUOUS
 62
             7
100
AcDbCircle
 10
28.02017235893368
 20
113.57300039945309
 40
0.90948739488924
100
AcDbArc
 50
0.00000000006983
 51
89.95466915788111
  0
ARC
  5
1A2
100
AcDbEntity
  8
WIRE
  6
CONTINUOUS
 62
             7
100
AcDbCircle
 10
141.6270370621038
 20
120.47126975385071
 40
0.52494431774008
100
AcDbArc
 50
90.43674884475009
 51
176.03370412916658
  0
ARC
  5
1A1
100
AcDbEntity
  8
WIRE
  6
CONTINUOUS
 62
             7
100
AcDbCircle
 10
99.82565024907251
 20
49.39619929903348
 40
0.88235252494006
100
AcDbArc
 50
-176.31864551543993
 51
-86.79362426111206
  0
ARC
  5
1A0
100
AcDbEntity
  8
WIRE
  6
CONTINUOUS
 62
             7
100
AcDbCircle
 10
95.12514411170687
 20
108.5063065531788
 40
2.01234664880194
100
AcDbArc
 50
119.24068461111895
 51
-119.24068461113556
  0
ARC
  5
19F
100
AcDbEntity
  8
WIRE
  6
CONTINUOUS
 62
             7
100
AcDbCircle
 10
95.12514411170687
 20
103.5031864052485
 40
2.01234664880099
100
AcDbArc
 50
119.24068461113416
 51
-119.24068461111895
  0
ARC
  5
19E
100
AcDbEntity
  8
WIRE
  6
CONTINUOUS
 62
             7
100
AcDbCircle
 10
95.13441764885982
 20
98.50618760690131
 40
2.01234664880194
100
AcDbArc
 50
119.24068461111895
 51
-119.2406846110905
  0
ARC
  5
19D
100
AcDbEntity
  8
WIRE
  6
CONTINUOUS
 62
             7
100
AcDbCircle
 10
95.11587057455387
 20
93.51455974476107
 40
2.01234664880191
100
AcDbArc
 50
119.24068461111844
 51
-119.24068461111806
  0
ARC
  5
19C
100
AcDbEntity
  8
WIRE
  6
CONTINUOUS
 62
             7
100
AcDbCircle
 10
95.13441764885982
 20
88.51071447828329
 40
2.01234664880195
100
AcDbArc
 50
119.24068461111874
 51
-119.24068461109091
  0
ARC
  5
19B
100
AcDbEntity
  8
WIRE
  6
CONTINUOUS
 62
             7
100
AcDbCircle
 10
95.13441764885982
 20
83.50055393516803
 40
2.01234664880195
100
AcDbArc
 50
119.24068461111874
 51
-119.24068461110633
  0
ARC
  5
19A
100
AcDbEntity
  8
WIRE
  6
CONTINUOUS
 62
             7
100
AcDbCircle
 10
95.12514411170687
 20
78.50745054110308
 40
2.01234664880193
100
AcDbArc
 50
119.24068461111915
 51
-119.24068461111874
  0
ARC
  5
199
100
AcDbEntity
  8
WIRE
  6
CONTINUOUS
 62
             7
100
AcDbCircle
 10
95.12514411170687
 20
73.50508080655004
 40
2.01234664880195
100
AcDbArc
 50
119.24068461111874
 51
-119.24068461113457
  0
ARC
  5
198
100
AcDbEntity
  8
WIRE
  6
CONTINUOUS
 62
             7
100
AcDbCircle
 10
95.12514411170687
 20
68.51197741248552
 40
2.01234664880156
100
AcDbArc
 50
119.24068461112508
 51
-119.2406846111223
  0
ARC
  5
197
100
AcDbEntity
  8
WIRE
  6
CONTINUOUS
 62
             7
100
AcDbCircle
 10
95.12514411170687
 20
63.51497861413902
 40
2.01234664880175
100
AcDbArc
 50
119.24068461112202
 51
-119.24068461112034
  0
ARC
  5
196
100
AcDbEntity
  8
WIRE
  6
CONTINUOUS
 62
             7
100
AcDbCircle
 10
377.35401741474601
 20
82.2266737162449
 40
280.31850740672758
100
AcDbArc
 50
173.66702590685745
 51
-173.21354152637954
  0
ARC
  5
195
100
AcDbEntity
  8
WIRE
  6
CONTINUOUS
 62
             7
100
AcDbCircle
 10
141.0896740186563
 20
116.96871238936571
 40
1.58594655843975
100
AcDbArc
 50
111.6767273736412
 51
-111.67672737365579
  0
ARC
  5
194
100
AcDbEntity
  8
WIRE
  6
CONTINUOUS
 62
             7
100
AcDbCircle
 10
6.36572026258588
 20
113.13122095250471
 40
1.0144344555487
100
AcDbArc
 50
90.0
 51
180.0
  0
ARC
  5
193
100
AcDbEntity
  8
WIRE
  6
CONTINUOUS
 62
             7
100
AcDbCircle
 10
27.58310981078225
 20
113.17405094203539
 40
0.97080336724102
100
AcDbArc
 50
0.0
 51
90.0
  0
ARC
  5
192
100
AcDbEntity
  8
WIRE
  6
CONTINUOUS
 62
             7
100
AcDbCircle
 10
15.70479373850284
 20
109.7502404065487
 40
1.01275573037759
100
AcDbArc
 50
-90.0
 51
-0.75386403062751
  0
ARC
  5
191
100
AcDbEntity
  8
WIRE
  6
CONTINUOUS
 62
             7
100
AcDbCircle
 10
18.21053641180944
 20
109.7502404065487
 40
1.01275573037857
100
AcDbArc
 50
-179.24613596937257
 51
-90.75411366459551
  0
ARC
  5
190
100
AcDbEntity
  8
WIRE
  6
CONTINUOUS
 62
             7
100
AcDbCircle
 10
18.21053641180944
 20
107.2450001426275
 40
1.01275703571378
100
AcDbArc
 50
90.75411269256756
 51
-179.24613694100992
  0
ARC
  5
18F
100
AcDbEntity
  8
WIRE
  6
CONTINUOUS
 62
             7
100
AcDbCircle
 10
15.69146675456872
 20
107.2316752852818
 40
1.02608319839411
100
AcDbArc
 50
0.0
 51
89.25580946614231
  0
ARC
  5
18E
100
AcDbEntity
  8
WIRE
  6
CONTINUOUS
 62
             7
100
AcDbCircle
 10
18.19720942787545
 20
104.77889773115599
 40
1.01275573037859
100
AcDbArc
 50
-179.2461359693726
 51
-90.75411366459652
  0
ARC
  5
18D
100
AcDbEntity
  8
WIRE
  6
CONTINUOUS
 62
             7
100
AcDbCircle
 10
18.19720942787545
 20
102.2736574672348
 40
1.01275703571259
100
AcDbArc
 50
90.75411269256946
 51
-179.24613694100995
  0
ARC
  5
18C
100
AcDbEntity
  8
WIRE
  6
CONTINUOUS
 62
             7
100
AcDbCircle
 10
15.67813977063473
 20
102.260332609888
 40
1.0260831983941
100
AcDbArc
 50
0.0
 51
89.2558094661441
  0
ARC
  5
18B
100
AcDbEntity
  8
WIRE
  6
CONTINUOUS
 62
             7
100
AcDbCircle
 10
15.69146675456872
 20
104.77889773115599
 40
1.0127557303787
100
AcDbArc
 50
-90.0
 51
-0.75386403062742
  0
ARC
  5
18A
100
AcDbEntity
  8
WIRE
  6
CONTINUOUS
 62
             7
100
AcDbCircle
 10
18.19720942787545
 20
99.75216970141312
 40
1.01275573037859
100
AcDbArc
 50
-179.24613596937098
 51
-90.75411366459646
  0
ARC
  5
189
100
AcDbEntity
  8
WIRE
  6
CONTINUOUS
 62
             7
100
AcDbCircle
 10
18.19720942787545
 20
97.24692943749184
 40
1.01275703571377
100
AcDbArc
 50
90.75411269256858
 51
-179.24613694107506
  0
ARC
  5
188
100
AcDbEntity
  8
WIRE
  6
CONTINUOUS
 62
             7
100
AcDbCircle
 10
15.67813977063473
 20
97.23360458014619
 40
1.0260831983941
100
AcDbArc
 50
0.0
 51
89.2558094661441
  0
ARC
  5
187
100
AcDbEntity
  8
WIRE
  6
CONTINUOUS
 62
             7
100
AcDbCircle
 10
15.69146675456872
 20
99.75216970141312
 40
1.01275573037762
100
AcDbArc
 50
-90.0
 51
-0.75386403062903
  0
ARC
  5
186
100
AcDbEntity
  8
WIRE
  6
CONTINUOUS
 62
             7
100
AcDbCircle
 10
18.19720942787545
 20
94.77275091979013
 40
1.01275573037859
100
AcDbArc
 50
-179.24613596936939
 51
-90.75411366459646
  0
ARC
  5
185
100
AcDbEntity
  8
WIRE
  6
CONTINUOUS
 62
             7
100
AcDbCircle
 10
18.19720942787545
 20
92.26751065586771
 40
1.01275703571377
100
AcDbArc
 50
90.75411269256858
 51
-179.24613694107668
  0
ARC
  5
184
100
AcDbEntity
  8
WIRE
  6
CONTINUOUS
 62
             7
100
AcDbCircle
 10
15.67813977063473
 20
92.25418579852209
 40
1.0260831983941
100
AcDbArc
 50
0.0
 51
89.25580946614409
  0
ARC
  5
183
100
AcDbEntity
  8
WIRE
  6
CONTINUOUS
 62
             7
100
AcDbCircle
 10
15.69146675456872
 20
94.77275091979013
 40
1.01275573037876
100
AcDbArc
 50
-90.0
 51
-0.75386403063063
  0
ARC
  5
182
100
AcDbEntity
  8
WIRE
  6
CONTINUOUS
 62
             7
100
AcDbCircle
 10
18.19720942787545
 20
89.76454950645734
 40
1.01275573037859
100
AcDbArc
 50
-179.24613596936939
 51
-90.75411366459646
  0
ARC
  5
181
100
AcDbEntity
  8
WIRE
  6
CONTINUOUS
 62
             7
100
AcDbCircle
 10
18.19720942787545
 20
87.25930924253603
 40
1.01275703571377
100
AcDbArc
 50
90.75411269256858
 51
-179.24613694107668
  0
ARC
  5
180
100
AcDbEntity
  8
WIRE
  6
CONTINUOUS
 62
             7
100
AcDbCircle
 10
15.67813977063473
 20
87.24598438519041
 40
1.0260831983941
100
AcDbArc
 50
0.0
 51
89.25580946614329
  0
ARC
  5
17F
100
AcDbEntity
  8
WIRE
  6
CONTINUOUS
 62
             7
100
AcDbCircle
 10
15.69146675456872
 20
89.76454950645734
 40
1.01275573037876
100
AcDbArc
 50
-90.0
 51
-0.75386403063063
  0
ARC
  5
17E
100
AcDbEntity
  8
WIRE
  6
CONTINUOUS
 62
             7
100
AcDbCircle
 10
18.21053641180944
 20
84.74128975120269
 40
1.01275573037857
100
AcDbArc
 50
-179.24613596936936
 51
-90.75411366459544
  0
ARC
  5
17D
100
AcDbEntity
  8
WIRE
  6
CONTINUOUS
 62
             7
100
AcDbCircle
 10
18.21053641180944
 20
82.23604948728138
 40
1.01275703571377
100
AcDbArc
 50
90.75411269256757
 51
-179.24613694101234
  0
ARC
  5
17C
100
AcDbEntity
  8
WIRE
  6
CONTINUOUS
 62
             7
100
AcDbCircle
 10
15.69146675456872
 20
82.22272462993576
 40
1.02608319839411
100
AcDbArc
 50
0.0
 51
89.25580946614227
  0
ARC
  5
17B
100
AcDbEntity
  8
WIRE
  6
CONTINUOUS
 62
             7
100
AcDbCircle
 10
15.70479373850284
 20
84.74128975120269
 40
1.01275573037879
100
AcDbArc
 50
-90.0
 51
-0.75386403063073
  0
ARC
  5
17A
100
AcDbEntity
  8
WIRE
  6
CONTINUOUS
 62
             7
100
AcDbCircle
 10
18.19720942787545
 20
79.73908243514106
 40
1.0127557303786
100
AcDbArc
 50
-179.24613596930666
 51
-90.75411366459562
  0
ARC
  5
179
100
AcDbEntity
  8
WIRE
  6
CONTINUOUS
 62
             7
100
AcDbCircle
 10
18.19720942787545
 20
77.23384217121864
 40
1.01275703571377
100
AcDbArc
 50
90.75411269256858
 51
-179.24613694107506
  0
ARC
  5
178
100
AcDbEntity
  8
WIRE
  6
CONTINUOUS
 62
             7
100
AcDbCircle
 10
15.67813977063473
 20
77.22051731387299
 40
1.0260831983941
100
AcDbArc
 50
0.0
 51
89.2558094661441
  0
ARC
  5
177
100
AcDbEntity
  8
WIRE
  6
CONTINUOUS
 62
             7
100
AcDbCircle
 10
15.69146675456872
 20
79.73908243514106
 40
1.01275573037876
100
AcDbArc
 50
-90.0
 51
-0.75386403069334
  0
ARC
  5
176
100
AcDbEntity
  8
WIRE
  6
CONTINUOUS
 62
             7
100
AcDbCircle
 10
18.19720942787545
 20
74.73127784357894
 40
1.01275573037859
100
AcDbArc
 50
-179.24613596936939
 51
-90.75411366459646
  0
ARC
  5
175
100
AcDbEntity
  8
WIRE
  6
CONTINUOUS
 62
             7
100
AcDbCircle
 10
18.19720942787545
 20
72.22603757965766
 40
1.01275703571263
100
AcDbArc
 50
90.75411269256944
 51
-179.24613694101237
  0
ARC
  5
174
100
AcDbEntity
  8
WIRE
  6
CONTINUOUS
 62
             7
100
AcDbCircle
 10
15.67813977063473
 20
72.2127127223109
 40
1.0260831983941
100
AcDbArc
 50
0.0
 51
89.25580946614409
  0
ARC
  5
173
100
AcDbEntity
  8
WIRE
  6
CONTINUOUS
 62
             7
100
AcDbCircle
 10
15.69146675456872
 20
74.73127784357894
 40
1.01275573037876
100
AcDbArc
 50
-90.0
 51
-0.75386403063063
  0
ARC
  5
172
100
AcDbEntity
  8
WIRE
  6
CONTINUOUS
 62
             7
100
AcDbCircle
 10
18.19720942787545
 20
69.73853289927448
 40
1.01275573037859
100
AcDbArc
 50
-179.24613596937098
 51
-90.7541136645962
  0
ARC
  5
171
100
AcDbEntity
  8
WIRE
  6
CONTINUOUS
 62
             7
100
AcDbCircle
 10
18.19720942787545
 20
67.23329263535285
 40
1.01275703571331
100
AcDbArc
 50
90.75411269256892
 51
-179.24613694104451
  0
ARC
  5
170
100
AcDbEntity
  8
WIRE
  6
CONTINUOUS
 62
             7
100
AcDbCircle
 10
15.67813977063473
 20
67.21996777800666
 40
1.0260831983941
100
AcDbArc
 50
0.0
 51
89.25580946614393
  0
ARC
  5
16F
100
AcDbEntity
  8
WIRE
  6
CONTINUOUS
 62
             7
100
AcDbCircle
 10
15.69146675456872
 20
69.73853289927448
 40
1.01275573037876
100
AcDbArc
 50
-90.0
 51
-0.75386403062903
  0
ARC
  5
16E
100
AcDbEntity
  8
WIRE
  6
CONTINUOUS
 62
             7
100
AcDbCircle
 10
18.21053641180944
 20
64.74365764862279
 40
1.01275573037857
100
AcDbArc
 50
-179.24613596935811
 51
-90.75411366459537
  0
ARC
  5
16D
100
AcDbEntity
  8
WIRE
  6
CONTINUOUS
 62
             7
100
AcDbCircle
 10
18.21053641180944
 20
62.23841738470129
 40
1.01275703571332
100
AcDbArc
 50
90.75411269256792
 51
-179.24613694104451
  0
ARC
  5
16C
100
AcDbEntity
  8
WIRE
  6
CONTINUOUS
 62
             7
100
AcDbCircle
 10
15.69146675456872
 20
62.2250925273551
 40
1.02608319839411
100
AcDbArc
 50
0.0
 51
89.25580946614292
  0
ARC
  5
16B
100
AcDbEntity
  8
WIRE
  6
CONTINUOUS
 62
             7
100
AcDbCircle
 10
15.70479373850284
 20
64.74365764862279
 40
1.01275573037853
100
AcDbArc
 50
-90.0
 51
-0.75386403064198
  0
ARC
  5
16A
100
AcDbEntity
  8
WIRE
  6
CONTINUOUS
 62
             7
100
AcDbCircle
 10
6.40720316995312
 20
49.55360744769404
 40
1.05815135772251
100
AcDbArc
 50
176.87325992262802
 51
-89.47898316921179
  0
ARC
  5
169
100
AcDbEntity
  8
WIRE
  6
CONTINUOUS
 62
             7
100
AcDbCircle
 10
5.96461748467209
 20
49.50550977737363
 40
1.010053687402
100
AcDbArc
 50
173.98659632955503
 51
-88.36244800865568
  0
ARC
  5
168
100
AcDbEntity
  8
WIRE
  6
CONTINUOUS
 62
             7
100
AcDbCircle
 10
27.560008739114
 20
49.49615313773231
 40
1.00043337013685
100
AcDbArc
 50
-89.44892325126993
 51
0.0
  0
ARC
  5
167
100
AcDbEntity
  8
WIRE
  6
CONTINUOUS
 62
             7
100
AcDbCircle
 10
27.89676020761473
 20
49.53463179612276
 40
1.03891202852729
100
AcDbArc
 50
-90.0
 51
-2.12257537493547
  0
ARC
  5
166
100
AcDbEntity
  8
WIRE
  6
CONTINUOUS
 62
             7
100
AcDbCircle
 10
12.33199945601777
 20
46.76567213767215
 40
1.01967139399722
100
AcDbArc
 50
-90.0
 51
-0.08566971223874
  0
ARC
  5
165
100
AcDbEntity
  8
WIRE
  6
CONTINUOUS
 62
             7
100
AcDbCircle
 10
14.84320457000386
 20
46.76567213767215
 40
1.0196713939972
100
AcDbArc
 50
-179.91433028776126
 51
-90.0
  0
ARC
  5
164
100
AcDbEntity
  8
WIRE
  6
CONTINUOUS
 62
             7
100
AcDbCircle
 10
14.84320457000386
 20
44.25497035306731
 40
1.00043337013685
100
AcDbArc
 50
90.0
 51
-179.91268288445892
  0
ARC
  5
163
100
AcDbEntity
  8
WIRE
  6
CONTINUOUS
 62
             7
100
AcDbCircle
 10
12.33199945601777
 20
44.26458936499738
 40
0.99101015842252
100
AcDbArc
 50
-0.64428922325348
 51
90.0
  0
ARC
  5
162
100
AcDbEntity
  8
WIRE
  6
CONTINUOUS
 62
             7
100
AcDbCircle
 10
22.89613574723963
 20
89.79580966356224
 40
0.94119858354659
100
AcDbArc
 50
90.0
 51
180.0
  0
ARC
  5
161
100
AcDbEntity
  8
WIRE
  6
CONTINUOUS
 62
             7
100
AcDbCircle
 10
22.89594683736139
 20
87.20253395230876
 40
0.9411985835469
100
AcDbArc
 50
180.0
 51
-90.0
  0
ARC
  5
160
100
AcDbEntity
  8
WIRE
  6
CONTINUOUS
 62
             7
100
AcDbCircle
 10
25.50915729129714
 20
89.79599021881722
 40
0.94119858354691
100
AcDbArc
 50
0.0
 51
90.0
  0
ARC
  5
15F
100
AcDbEntity
  8
WIRE
  6
CONTINUOUS
 62
             7
100
AcDbCircle
 10
25.48994027802787
 20
87.18350192568863
 40
0.94119858354657
100
AcDbArc
 50
-89.99999999999265
 51
0.0
  0
ARC
  5
15E
100
AcDbEntity
  8
WIRE
  6
CONTINUOUS
 62
             7
100
AcDbCircle
 10
22.93455796073886
 20
89.75739235590586
 40
0.46099594386018
100
AcDbArc
 50
90.0
 51
180.0
  0
ARC
  5
15D
100
AcDbEntity
  8
WIRE
  6
CONTINUOUS
 62
             7
100
AcDbCircle
 10
22.9337828399465
 20
87.23459804872212
 40
0.46099594386042
100
AcDbArc
 50
180.0
 51
-90.0
  0
ARC
  5
15C
100
AcDbEntity
  8
WIRE
  6
CONTINUOUS
 62
             7
100
AcDbCircle
 10
25.43796252659098
 20
87.23420373887845
 40
0.46099594386018
100
AcDbArc
 50
-90.0
 51
0.0
  0
ARC
  5
15B
100
AcDbEntity
  8
WIRE
  6
CONTINUOUS
 62
             7
100
AcDbCircle
 10
25.4321161151863
 20
89.75739128418275
 40
0.46099594386043
100
AcDbArc
 50
0.0
 51
90.0
  0
ARC
  5
15A
100
AcDbEntity
  8
WIRE
  6
CONTINUOUS
 62
             7
100
AcDbCircle
 10
23.69766778028465
 20
89.12481668302311
 40
0.35275497394851
100
AcDbArc
 50
91.06139567621821
 51
-91.06139567621479
  0
ARC
  5
159
100
AcDbEntity
  8
WIRE
  6
CONTINUOUS
 62
             7
100
AcDbCircle
 10
23.7042021392396
 20
87.85097963968866
 40
0.35275497394914
100
AcDbArc
 50
92.12315581051549
 51
-92.12315581051566
  0
ARC
  5
158
100
AcDbEntity
  8
WIRE
  6
CONTINUOUS
 62
             7
100
AcDbCircle
 10
24.70387449438806
 20
89.12481668302311
 40
0.35275497394894
100
AcDbArc
 50
-88.93897561339772
 51
88.93897561339772
  0
ARC
  5
157
100
AcDbEntity
  8
WIRE
  6
CONTINUOUS
 62
             7
100
AcDbCircle
 10
24.69734013543288
 20
87.85098094502334
 40
0.35275497394962
100
AcDbArc
 50
-87.87721567035744
 51
87.87721567035078
  0
ARC
  5
156
100
AcDbEntity
  8
WIRE
  6
CONTINUOUS
 62
             7
100
AcDbCircle
 10
24.20319038146155
 20
105.9900826214698
 40
1.73774100426575
100
AcDbArc
 50
30.61718541159571
 51
149.94907816633193
  0
ARC
  5
155
100
AcDbEntity
  8
WIRE
  6
CONTINUOUS
 62
             7
100
AcDbCircle
 10
24.51620651671679
 20
105.59573446036541
 40
2.4462676925882
100
AcDbArc
 50
42.28959380850561
 51
145.62152209285182
  0
ARC
  5
154
100
AcDbEntity
  8
WIRE
  6
CONTINUOUS
 62
             7
100
AcDbCircle
 10
24.19136956840968
 20
100.9921032847315
 40
1.73774100426565
100
AcDbArc
 50
30.61718541159756
 51
149.94907816630086
  0
ARC
  5
153
100
AcDbEntity
  8
WIRE
  6
CONTINUOUS
 62
             7
100
AcDbCircle
 10
24.50438570366491
 20
100.59775512362719
 40
2.44626769258814
100
AcDbArc
 50
42.28959380850414
 51
145.6215220928535
  0
ARC
  5
152
100
AcDbEntity
  8
WIRE
  6
CONTINUOUS
 62
             7
100
AcDbCircle
 10
24.22682972202568
 20
95.96372270116834
 40
1.7377410042662
100
AcDbArc
 50
30.61718541162821
 51
149.94907816629947
  0
ARC
  5
151
100
AcDbEntity
  8
WIRE
  6
CONTINUOUS
 62
             7
100
AcDbCircle
 10
24.53984585728092
 20
95.56937454006399
 40
2.44626769258814
100
AcDbArc
 50
42.28959380850377
 51
145.62152209285264
  0
ARC
  5
150
100
AcDbEntity
  8
WIRE
  6
CONTINUOUS
 62
             7
100
AcDbCircle
 10
19.04281810046149
 20
44.26418601655295
 40
0.99101015842252
100
AcDbArc
 50
-0.6442892232469
 51
90.0
  0
ARC
  5
14F
100
AcDbEntity
  8
WIRE
  6
CONTINUOUS
 62
             7
100
AcDbCircle
 10
19.04281810046149
 20
46.76526878922783
 40
1.01967139399722
100
AcDbArc
 50
-90.0
 51
-0.08566971223834
  0
ARC
  5
14E
100
AcDbEntity
  8
WIRE
  6
CONTINUOUS
 62
             7
100
AcDbCircle
 10
21.55402321444758
 20
44.25456700462288
 40
1.00043337013694
100
AcDbArc
 50
90.0
 51
-179.91268288446543
  0
ARC
  5
14D
100
AcDbEntity
  8
WIRE
  6
CONTINUOUS
 62
             7
100
AcDbCircle
 10
21.55402321444758
 20
46.76526878922783
 40
1.0196713939972
100
AcDbArc
 50
-179.91433028775566
 51
-90.0
  0
ARC
  5
14C
100
AcDbEntity
  8
WIRE
  6
CONTINUOUS
 62
             7
100
AcDbCircle
 10
25.41814918004317
 20
49.75919245284548
 40
1.92684147024279
100
AcDbArc
 50
-139.0255679890866
 51
-40.97443201091383
  0
ARC
  5
14B
100
AcDbEntity
  8
WIRE
  6
CONTINUOUS
 62
             7
100
AcDbCircle
 10
25.41814918004317
 20
49.75919245284548
 40
2.16067371308619
100
AcDbArc
 50
-144.21405706589118
 51
-35.7859429341091
  0
ARC
  5
14A
100
AcDbEntity
  8
WIRE
  6
CONTINUOUS
 62
             7
100
AcDbCircle
 10
25.41814918004317
 20
49.75919245284548
 40
2.37757182458763
100
AcDbArc
 50
-147.89902154642158
 51
-90.0
  0
ARC
  5
149
100
AcDbEntity
  8
WIRE
  6
CONTINUOUS
 62
             7
100
AcDbCircle
 10
8.43708726617449
 20
49.73296436128407
 40
1.92684147024271
100
AcDbArc
 50
-140.05064638951671
 51
-39.94935361048081
  0
ARC
  5
148
100
AcDbEntity
  8
WIRE
  6
CONTINUOUS
 62
             7
100
AcDbCircle
 10
8.43708726617449
 20
49.73296436128407
 40
2.1606737130861
100
AcDbArc
 50
-145.06688339991084
 51
-34.93311660009094
  0
ARC
  5
147
100
AcDbEntity
  8
WIRE
  6
CONTINUOUS
 62
             7
100
AcDbCircle
 10
8.42050110215321
 20
49.73296436128407
 40
2.37757182458746
100
AcDbArc
 50
-89.99999999999726
 51
-31.35785092159853
  0
ARC
  5
146
100
AcDbEntity
  8
WIRE
  6
CONTINUOUS
 62
             7
100
AcDbCircle
 10
140.3162506645007
 20
49.49574065194454
 40
2.30748691122559
100
AcDbArc
 50
131.43685001266144
 51
-131.0443494541106
  0
ARC
  5
145
100
AcDbEntity
  8
WIRE
  6
CONTINUOUS
 62
             7
100
AcDbCircle
 10
99.75573847763587
 20
113.1475777812575
 40
0.99467814913001
100
AcDbArc
 50
90.0
 51
180.0
  0
LINE
  5
144
100
AcDbEntity
  8
WIRE
  6
CONTINUOUS
 62
             7
100
AcDbLine
 10
19.93120116182007
 20
117.990512085682
 11
19.93120116182007
 21
120.99738995703299
  0
LINE
  5
143
100
AcDbEntity
  8
WIRE
  6
CONTINUOUS
 62
             7
100
AcDbLine
 10
18.5194517344751
 20
117.990512085682
 11
18.5194517344751
 21
120.99738995703299
  0
LINE
  5
142
100
AcDbEntity
  8
WIRE
  6
CONTINUOUS
 62
             7
100
AcDbLine
 10
18.5194517344751
 20
120.99738995703299
 11
28.94038793892784
 21
120.99738995703299
  0
LINE
  5
141
100
AcDbEntity
  8
WIRE
  6
CONTINUOUS
 62
             7
100
AcDbLine
 10
28.94038793892784
 20
120.99738995703299
 11
28.94038793892784
 21
34.99512316184433
  0
LINE
  5
140
100
AcDbEntity
  8
WIRE
  6
CONTINUOUS
 62
             7
100
AcDbLine
 10
28.94038793892784
 20
34.99512316184433
 11
19.94977661114227
 21
34.99512316184433
  0
LINE
  5
13F
100
AcDbEntity
  8
WIRE
  6
CONTINUOUS
 62
             7
100
AcDbLine
 10
19.94977661114227
 20
35.00440312262638
 11
19.94977661114227
 21
37.99271977524155
  0
LINE
  5
13E
100
AcDbEntity
  8
WIRE
  6
CONTINUOUS
 62
             7
100
AcDbLine
 10
19.94977661114227
 20
35.00440312262638
 11
18.5194517344751
 21
35.00440312262638
  0
LINE
  5
13D
100
AcDbEntity
  8
WIRE
  6
CONTINUOUS
 62
             7
100
AcDbLine
 10
18.5194517344751
 20
35.00440312262638
 11
18.5194517344751
 21
37.99271977524155
  0
LINE
  5
13C
100
AcDbEntity
  8
WIRE
  6
CONTINUOUS
 62
             7
100
AcDbLine
 10
15.36159188172701
 20
37.99271977524155
 11
15.36159188172701
 21
35.00440312262638
  0
LINE
  5
13B
100
AcDbEntity
  8
WIRE
  6
CONTINUOUS
 62
             7
100
AcDbLine
 10
15.36159188172701
 20
35.00440312262638
 11
4.95923185416105
 21
35.00440312262638
  0
LINE
  5
13A
100
AcDbEntity
  8
WIRE
  6
CONTINUOUS
 62
             7
100
AcDbLine
 10
4.95923185416105
 20
35.00440312262638
 11
4.95923185416105
 21
120.99738995703299
  0
LINE
  5
139
100
AcDbEntity
  8
WIRE
  6
CONTINUOUS
 62
             7
100
AcDbLine
 10
4.95923185416105
 20
120.99738995703299
 11
15.37042742504963
 21
120.99738995703299
  0
LINE
  5
138
100
AcDbEntity
  8
WIRE
  6
CONTINUOUS
 62
             7
100
AcDbLine
 10
15.3708806977349
 20
120.99738995703299
 11
15.3708806977349
 21
117.990512085682
  0
LINE
  5
137
100
AcDbEntity
  8
WIRE
  6
CONTINUOUS
 62
             7
100
AcDbLine
 10
13.94055582106786
 20
117.990512085682
 11
13.94055582106786
 21
120.99738995703299
  0
LINE
  5
136
100
AcDbEntity
  8
WIRE
  6
CONTINUOUS
 62
             7
100
AcDbLine
 10
5.84112151883863
 20
114.5010490130782
 11
28.05759172887966
 21
114.5010490130782
  0
LINE
  5
135
100
AcDbEntity
  8
WIRE
  6
CONTINUOUS
 62
             7
100
AcDbLine
 10
24.2124329755638
 20
114.5010490130782
 11
24.2124329755638
 21
114.2597564124507
  0
LINE
  5
134
100
AcDbEntity
  8
WIRE
  6
CONTINUOUS
 62
             7
100
AcDbLine
 10
24.2124329755638
 20
114.2597564124507
 11
25.95854412853139
 21
114.2597564124507
  0
LINE
  5
133
100
AcDbEntity
  8
WIRE
  6
CONTINUOUS
 62
             7
100
AcDbLine
 10
25.95854412853139
 20
114.2597564124507
 11
25.95854412853139
 21
114.5010490130782
  0
LINE
  5
132
100
AcDbEntity
  8
WIRE
  6
CONTINUOUS
 62
             7
100
AcDbLine
 10
20.94311969931762
 20
114.5010490130782
 11
20.94311969931762
 21
114.2597564124507
  0
LINE
  5
131
100
AcDbEntity
  8
WIRE
  6
CONTINUOUS
 62
             7
100
AcDbLine
 10
20.94311969931762
 20
114.2597564124507
 11
22.70780557404316
 21
114.2597564124507
  0
LINE
  5
130
100
AcDbEntity
  8
WIRE
  6
CONTINUOUS
 62
             7
100
AcDbLine
 10
22.70780557404316
 20
114.2597564124507
 11
22.70780557404316
 21
114.5010490130782
  0
LINE
  5
12F
100
AcDbEntity
  8
WIRE
  6
CONTINUOUS
 62
             7
100
AcDbLine
 10
17.71095732171615
 20
114.5010490130782
 11
17.71095732171615
 21
114.2597564124507
  0
LINE
  5
12E
100
AcDbEntity
  8
WIRE
  6
CONTINUOUS
 62
             7
100
AcDbLine
 10
17.71095732171615
 20
114.2597564124507
 11
19.45706774711928
 21
114.2597564124507
  0
LINE
  5
12D
100
AcDbEntity
  8
WIRE
  6
CONTINUOUS
 62
             7
100
AcDbLine
 10
19.45706774711928
 20
114.2597564124507
 11
19.45706774711928
 21
114.5010490130782
  0
LINE
  5
12C
100
AcDbEntity
  8
WIRE
  6
CONTINUOUS
 62
             7
100
AcDbLine
 10
14.46022094992134
 20
114.5010490130782
 11
14.46022094992134
 21
114.2597564124507
  0
LINE
  5
12B
100
AcDbEntity
  8
WIRE
  6
CONTINUOUS
 62
             7
100
AcDbLine
 10
14.46022094992134
 20
114.2597564124507
 11
16.20633210288904
 21
114.2597564124507
  0
LINE
  5
12A
100
AcDbEntity
  8
WIRE
  6
CONTINUOUS
 62
             7
100
AcDbLine
 10
16.20633210288904
 20
114.2597564124507
 11
16.20633210288904
 21
114.5010490130782
  0
LINE
  5
129
100
AcDbEntity
  8
WIRE
  6
CONTINUOUS
 62
             7
100
AcDbLine
 10
11.20948312299746
 20
114.5010490130782
 11
11.20948312299746
 21
114.2597564124507
  0
LINE
  5
128
100
AcDbEntity
  8
WIRE
  6
CONTINUOUS
 62
             7
100
AcDbLine
 10
11.20948312299746
 20
114.2597564124507
 11
12.95559354840069
 21
114.2597564124507
  0
LINE
  5
127
100
AcDbEntity
  8
WIRE
  6
CONTINUOUS
 62
             7
100
AcDbLine
 10
12.95559354840069
 20
114.2597564124507
 11
12.95559354840069
 21
114.5010490130782
  0
LINE
  5
126
100
AcDbEntity
  8
WIRE
  6
CONTINUOUS
 62
             7
100
AcDbLine
 10
7.95874529607359
 20
114.5010490130782
 11
7.95874529607359
 21
114.2597564124507
  0
LINE
  5
125
100
AcDbEntity
  8
WIRE
  6
CONTINUOUS
 62
             7
100
AcDbLine
 10
7.95874529607359
 20
114.2597564124507
 11
9.72343189836359
 21
114.2597564124507
  0
LINE
  5
124
100
AcDbEntity
  8
WIRE
  6
CONTINUOUS
 62
             7
100
AcDbLine
 10
9.72343189836359
 20
114.2597564124507
 11
9.72343189836359
 21
114.5010490130782
  0
LINE
  5
123
100
AcDbEntity
  8
WIRE
  6
CONTINUOUS
 62
             7
100
AcDbLine
 10
7.4541807684769
 20
110.772104190455
 11
8.47636014815818
 21
110.772104190455
  0
LINE
  5
122
100
AcDbEntity
  8
WIRE
  6
CONTINUOUS
 62
             7
100
AcDbLine
 10
8.47636014815818
 20
110.772104190455
 11
8.47636014815818
 21
111.75633522250379
  0
LINE
  5
121
100
AcDbEntity
  8
WIRE
  6
CONTINUOUS
 62
             7
100
AcDbLine
 10
8.47636014815818
 20
111.75633522250379
 11
8.9409864775001
 21
111.75633522250379
  0
LINE
  5
120
100
AcDbEntity
  8
WIRE
  6
CONTINUOUS
 62
             7
100
AcDbLine
 10
8.9409864775001
 20
111.75633522250379
 11
7.93739273304406
 21
112.7219953070358
  0
LINE
  5
11F
100
AcDbEntity
  8
WIRE
  6
CONTINUOUS
 62
             7
100
AcDbLine
 10
7.93739273304406
 20
112.7219953070358
 11
6.98955371157028
 21
111.75633522250379
  0
LINE
  5
11E
100
AcDbEntity
  8
WIRE
  6
CONTINUOUS
 62
             7
100
AcDbLine
 10
6.98955371157028
 20
111.75633522250379
 11
7.4541807684769
 21
111.75633522250379
  0
LINE
  5
11D
100
AcDbEntity
  8
WIRE
  6
CONTINUOUS
 62
             7
100
AcDbLine
 10
7.4541807684769
 20
111.75633522250379
 11
7.4541807684769
 21
110.772104190455
  0
LINE
  5
11C
100
AcDbEntity
  8
WIRE
  6
CONTINUOUS
 62
             7
100
AcDbLine
 10
13.45715978268126
 20
112.003886024248
 11
13.45715978268126
 21
59.24539500278049
  0
LINE
  5
11B
100
AcDbEntity
  8
WIRE
  6
CONTINUOUS
 62
             7
100
AcDbLine
 10
13.45715978268126
 20
59.24539500278049
 11
20.46373326890645
 21
59.24539500278049
  0
LINE
  5
11A
100
AcDbEntity
  8
WIRE
  6
CONTINUOUS
 62
             7
100
AcDbLine
 10
20.46373326890645
 20
59.24539500278049
 11
20.46373326890645
 21
112.003886024248
  0
LINE
  5
119
100
AcDbEntity
  8
WIRE
  6
CONTINUOUS
 62
             7
100
AcDbLine
 10
20.46373326890645
 20
112.003886024248
 11
13.45715978268126
 21
112.003886024248
  0
LINE
  5
118
100
AcDbEntity
  8
WIRE
  6
CONTINUOUS
 62
             7
100
AcDbLine
 10
13.71735067262571
 20
111.75318504291749
 11
13.71735067262571
 21
60.2481963337608
  0
LINE
  5
117
100
AcDbEntity
  8
WIRE
  6
CONTINUOUS
 62
             7
100
AcDbLine
 10
13.71735067262571
 20
60.2481963337608
 11
20.20354165139754
 21
60.2481963337608
  0
LINE
  5
116
100
AcDbEntity
  8
WIRE
  6
CONTINUOUS
 62
             7
100
AcDbLine
 10
20.20354165139754
 20
60.2481963337608
 11
20.20354165139754
 21
111.75318504291749
  0
LINE
  5
115
100
AcDbEntity
  8
WIRE
  6
CONTINUOUS
 62
             7
100
AcDbLine
 10
20.20354165139754
 20
111.75318504291749
 11
13.71735067262571
 21
111.75318504291749
  0
LINE
  5
114
100
AcDbEntity
  8
WIRE
  6
CONTINUOUS
 62
             7
100
AcDbLine
 10
13.95895665490939
 20
112.003886024248
 11
13.95895665490939
 21
111.75318504291749
  0
LINE
  5
113
100
AcDbEntity
  8
WIRE
  6
CONTINUOUS
 62
             7
100
AcDbLine
 10
15.44576309149717
 20
112.003886024248
 11
15.44576309149717
 21
111.75318504291749
  0
LINE
  5
112
100
AcDbEntity
  8
WIRE
  6
CONTINUOUS
 62
             7
100
AcDbLine
 10
18.45654505242989
 20
112.003886024248
 11
18.45654505242989
 21
111.75318504291749
  0
LINE
  5
111
100
AcDbEntity
  8
WIRE
  6
CONTINUOUS
 62
             7
100
AcDbLine
 10
19.9433507614531
 20
112.003886024248
 11
19.9433507614531
 21
111.75318504291749
  0
LINE
  5
110
100
AcDbEntity
  8
WIRE
  6
CONTINUOUS
 62
             7
100
AcDbLine
 10
13.71735067262571
 20
111.40034741746329
 11
20.20354165139754
 21
111.40034741746329
  0
LINE
  5
10F
100
AcDbEntity
  8
WIRE
  6
CONTINUOUS
 62
             7
100
AcDbLine
 10
13.71735067262571
 20
110.58325037296861
 11
20.20354165139754
 21
110.58325037296861
  0
LINE
  5
10E
100
AcDbEntity
  8
WIRE
  6
CONTINUOUS
 62
             7
100
AcDbLine
 10
13.71735067262571
 20
106.3956259120278
 11
20.20354165139754
 21
106.3956259120278
  0
LINE
  5
10D
100
AcDbEntity
  8
WIRE
  6
CONTINUOUS
 62
             7
100
AcDbLine
 10
13.73593630785094
 20
105.597099166465
 11
20.20354165139754
 21
105.597099166465
  0
LINE
  5
10C
100
AcDbEntity
  8
WIRE
  6
CONTINUOUS
 62
             7
100
AcDbLine
 10
13.71735067262571
 20
101.41207618181009
 11
20.20354165139754
 21
101.41207618181009
  0
LINE
  5
10B
100
AcDbEntity
  8
WIRE
  6
CONTINUOUS
 62
             7
100
AcDbLine
 10
13.71735067262571
 20
100.5949784887295
 11
20.20354165139754
 21
100.5949784887295
  0
LINE
  5
10A
100
AcDbEntity
  8
WIRE
  6
CONTINUOUS
 62
             7
100
AcDbLine
 10
13.71735067262571
 20
96.40735467637447
 11
20.20354165139754
 21
96.40735467637447
  0
LINE
  5
109
100
AcDbEntity
  8
WIRE
  6
CONTINUOUS
 62
             7
100
AcDbLine
 10
13.71735067262571
 20
95.60882728222475
 11
20.20354165139754
 21
95.60882728222475
  0
LINE
  5
108
100
AcDbEntity
  8
WIRE
  6
CONTINUOUS
 62
             7
100
AcDbLine
 10
13.71735067262571
 20
91.38406287200692
 11
20.20354165139754
 21
91.38406287200692
  0
LINE
  5
107
100
AcDbEntity
  8
WIRE
  6
CONTINUOUS
 62
             7
100
AcDbLine
 10
13.71735067262571
 20
90.60410642537505
 11
20.20354165139754
 21
90.60410642537505
  0
LINE
  5
106
100
AcDbEntity
  8
WIRE
  6
CONTINUOUS
 62
             7
100
AcDbLine
 10
13.71735067262571
 20
86.39791166550222
 11
20.20354165139754
 21
86.39791166550222
  0
LINE
  5
105
100
AcDbEntity
  8
WIRE
  6
CONTINUOUS
 62
             7
100
AcDbLine
 10
13.71735067262571
 20
85.5993849199395
 11
20.20354165139754
 21
85.5993849199395
  0
LINE
  5
104
100
AcDbEntity
  8
WIRE
  6
CONTINUOUS
 62
             7
100
AcDbLine
 10
13.71735067262571
 20
81.41176110758451
 11
20.20354165139754
 21
81.41176110758451
  0
LINE
  5
103
100
AcDbEntity
  8
WIRE
  6
CONTINUOUS
 62
             7
100
AcDbLine
 10
13.71735067262571
 20
80.59466341450391
 11
20.20354165139754
 21
80.59466341450391
  0
LINE
  5
102
100
AcDbEntity
  8
WIRE
  6
CONTINUOUS
 62
             7
100
AcDbLine
 10
13.71735067262571
 20
76.40703960214896
 11
20.20354165139754
 21
76.40703960214896
  0
LINE
  5
101
100
AcDbEntity
  8
WIRE
  6
CONTINUOUS
 62
             7
100
AcDbLine
 10
13.71735067262571
 20
75.60851285658509
 11
20.20354165139754
 21
75.60851285658509
  0
LINE
  5
100
100
AcDbEntity
  8
WIRE
  6
CONTINUOUS
 62
             7
100
AcDbLine
 10
13.71735067262571
 20
71.38374779778138
 11
20.20354165139754
 21
71.38374779778138
  0
LINE
  5
FF
100
AcDbEntity
  8
WIRE
  6
CONTINUOUS
 62
             7
100
AcDbLine
 10
13.71735067262571
 20
70.6037913511484
 11
20.20354165139754
 21
70.6037913511484
  0
LINE
  5
FE
100
AcDbEntity
  8
WIRE
  6
CONTINUOUS
 62
             7
100
AcDbLine
 10
13.71735067262571
 20
66.39759723986279
 11
20.20354165139754
 21
66.39759723986279
  0
LINE
  5
FD
100
AcDbEntity
  8
WIRE
  6
CONTINUOUS
 62
             7
100
AcDbLine
 10
13.71735067262571
 20
65.5990698457135
 11
20.20354165139754
 21
65.5990698457135
  0
LINE
  5
FC
100
AcDbEntity
  8
WIRE
  6
CONTINUOUS
 62
             7
100
AcDbLine
 10
13.71735067262571
 20
61.39287573442712
 11
20.20354165139754
 21
61.39287573442712
  0
LINE
  5
FB
100
AcDbEntity
  8
WIRE
  6
CONTINUOUS
 62
             7
100
AcDbLine
 10
20.20354165139754
 20
60.59434898886327
 11
13.71735067262571
 21
60.59434898886327
  0
LINE
  5
FA
100
AcDbEntity
  8
WIRE
  6
CONTINUOUS
 62
             7
100
AcDbLine
 10
141.61465400620321
 20
120.9962140715911
 11
162.0924611410922
 21
120.9962140715911
  0
LINE
  5
F9
100
AcDbEntity
  8
WIRE
  6
CONTINUOUS
 62
             7
100
AcDbLine
 10
162.0924611410922
 20
120.9962140715911
 11
162.0924611410922
 21
35.01153821128755
  0
LINE
  5
F8
100
AcDbEntity
  8
WIRE
  6
CONTINUOUS
 62
             7
100
AcDbLine
 10
162.0924611410922
 20
35.01153821128755
 11
142.60947696057801
 21
35.01153821128755
  0
LINE
  5
F7
100
AcDbEntity
  8
WIRE
  6
CONTINUOUS
 62
             7
100
AcDbLine
 10
142.60947696057801
 20
35.01153821128755
 11
142.60947696057801
 21
59.00817097875277
  0
LINE
  5
F6
100
AcDbEntity
  8
WIRE
  6
CONTINUOUS
 62
             7
100
AcDbLine
 10
142.60947696057801
 20
59.00817097875277
 11
143.34721499786929
 21
59.00817097875277
  0
LINE
  5
F5
100
AcDbEntity
  8
WIRE
  6
CONTINUOUS
 62
             7
100
AcDbLine
 10
143.34721499786929
 20
59.00817097875277
 11
143.34721499786929
 21
120.9962140715911
  0
LINE
  5
F4
100
AcDbEntity
  8
WIRE
  6
CONTINUOUS
 62
             7
100
AcDbLine
 10
143.41428189374221
 20
120.9962140715911
 11
143.41428189374221
 21
35.00595389046462
  0
LINE
  5
F3
100
AcDbEntity
  8
WIRE
  6
CONTINUOUS
 62
             7
100
AcDbLine
 10
146.096965004293
 20
35.00595389046462
 11
146.096965004293
 21
121.00179774382811
  0
LINE
  5
F2
100
AcDbEntity
  8
WIRE
  6
CONTINUOUS
 62
             7
100
AcDbLine
 10
148.8467135555866
 20
121.00179774382811
 11
148.8467135555866
 21
35.00595389046462
  0
LINE
  5
F1
100
AcDbEntity
  8
WIRE
  6
CONTINUOUS
 62
             7
100
AcDbLine
 10
149.8638974773917
 20
35.00595389046462
 11
149.8638974773917
 21
121.00179774382811
  0
LINE
  5
F0
100
AcDbEntity
  8
WIRE
  6
CONTINUOUS
 62
             7
100
AcDbLine
 10
152.61364748381419
 20
121.00179774382811
 11
152.61364748381419
 21
35.00595389046462
  0
LINE
  5
EF
100
AcDbEntity
  8
WIRE
  6
CONTINUOUS
 62
             7
100
AcDbLine
 10
153.60847553114019
 20
35.00595389046462
 11
153.60847553114019
 21
121.00179774382811
  0
LINE
  5
EE
100
AcDbEntity
  8
WIRE
  6
CONTINUOUS
 62
             7
100
AcDbLine
 10
156.35822553756381
 20
121.00179774382811
 11
156.35822553756381
 21
35.01153821128755
  0
LINE
  5
ED
100
AcDbEntity
  8
WIRE
  6
CONTINUOUS
 62
             7
100
AcDbLine
 10
157.35305358488981
 20
35.01153821128755
 11
157.35305358488981
 21
121.00179774382811
  0
LINE
  5
EC
100
AcDbEntity
  8
WIRE
  6
CONTINUOUS
 62
             7
100
AcDbLine
 10
160.10280359131241
 20
121.00179774382811
 11
160.10280359131241
 21
35.00595389046462
  0
LINE
  5
EB
100
AcDbEntity
  8
WIRE
  6
CONTINUOUS
 62
             7
100
AcDbLine
 10
142.6088505275406
 20
59.00713843069828
 11
130.11202000791431
 21
59.00713843069828
  0
LINE
  5
EA
100
AcDbEntity
  8
WIRE
  6
CONTINUOUS
 62
             7
100
AcDbLine
 10
130.11202000791431
 20
59.00713843069828
 11
108.3655229987461
 21
49.507889607003
  0
LINE
  5
E9
100
AcDbEntity
  8
WIRE
  6
CONTINUOUS
 62
             7
100
AcDbLine
 10
108.3655229987461
 20
49.507889607003
 11
108.3655229987461
 21
48.51384677409391
  0
LINE
  5
E8
100
AcDbEntity
  8
WIRE
  6
CONTINUOUS
 62
             7
100
AcDbLine
 10
108.3655229987461
 20
48.51384677409391
 11
99.81447267561464
 21
48.51384677409391
  0
LINE
  5
E7
100
AcDbEntity
  8
WIRE
  6
CONTINUOUS
 62
             7
100
AcDbLine
 10
97.89745520941872
 20
60.26089498850995
 11
90.60895698279958
 21
60.26089498850995
  0
LINE
  5
E6
100
AcDbEntity
  8
WIRE
  6
CONTINUOUS
 62
             7
100
AcDbLine
 10
90.60895698279958
 20
60.26089498850995
 11
90.60895698279958
 21
111.751783449735
  0
LINE
  5
E5
100
AcDbEntity
  8
WIRE
  6
CONTINUOUS
 62
             7
100
AcDbLine
 10
90.60895698279958
 20
111.751783449735
 11
98.59474225074146
 21
111.751783449735
  0
LINE
  5
E4
100
AcDbEntity
  8
WIRE
  6
CONTINUOUS
 62
             7
100
AcDbLine
 10
91.36938266398477
 20
111.751783449735
 11
91.36938266398477
 21
60.26095465837252
  0
LINE
  5
E3
100
AcDbEntity
  8
WIRE
  6
CONTINUOUS
 62
             7
100
AcDbLine
 10
95.36625462256424
 20
60.26095465837252
 11
95.36625462256424
 21
111.7529937102067
  0
LINE
  5
E2
100
AcDbEntity
  8
WIRE
  6
CONTINUOUS
 62
             7
100
AcDbLine
 10
91.36938266398477
 20
111.39161356564119
 11
95.36625462256424
 21
111.39161356564119
  0
LINE
  5
E1
100
AcDbEntity
  8
WIRE
  6
CONTINUOUS
 62
             7
100
AcDbLine
 10
95.36625462256424
 20
110.5854575092938
 11
91.36938266398477
 21
110.5854575092938
  0
LINE
  5
E0
100
AcDbEntity
  8
WIRE
  6
CONTINUOUS
 62
             7
100
AcDbLine
 10
94.85621298939054
 20
110.58250644544439
 11
94.85621298939054
 21
106.39904136306821
  0
LINE
  5
DF
100
AcDbEntity
  8
WIRE
  6
CONTINUOUS
 62
             7
100
AcDbLine
 10
95.36625462256424
 20
106.39904136306821
 11
91.36938266398477
 21
106.39904136306821
  0
LINE
  5
DE
100
AcDbEntity
  8
WIRE
  6
CONTINUOUS
 62
             7
100
AcDbLine
 10
95.36625462256424
 20
105.59624951951
 11
91.36938266398477
 21
105.59624951951
  0
LINE
  5
DD
100
AcDbEntity
  8
WIRE
  6
CONTINUOUS
 62
             7
100
AcDbLine
 10
95.36625462256424
 20
101.4029869051537
 11
91.36938266398477
 21
101.4029869051537
  0
LINE
  5
DC
100
AcDbEntity
  8
WIRE
  6
CONTINUOUS
 62
             7
100
AcDbLine
 10
91.36938266398477
 20
100.5968308488075
 11
95.36625462256424
 21
100.5968308488075
  0
LINE
  5
DB
100
AcDbEntity
  8
WIRE
  6
CONTINUOUS
 62
             7
100
AcDbLine
 10
91.36938266398477
 20
96.40451257488184
 11
95.36625462256424
 21
96.40451257488184
  0
LINE
  5
DA
100
AcDbEntity
  8
WIRE
  6
CONTINUOUS
 62
             7
100
AcDbLine
 10
95.36625462256424
 20
95.6076222104378
 11
91.36938266398477
 21
95.6076222104378
  0
LINE
  5
D9
100
AcDbEntity
  8
WIRE
  6
CONTINUOUS
 62
             7
100
AcDbLine
 10
95.36625462256424
 20
91.39417496793593
 11
91.36938266398477
 21
91.39417496793593
  0
LINE
  5
D8
100
AcDbEntity
  8
WIRE
  6
CONTINUOUS
 62
             7
100
AcDbLine
 10
91.36938266398477
 20
90.60655094397882
 11
95.36625462256424
 21
90.60655094397882
  0
LINE
  5
D7
100
AcDbEntity
  8
WIRE
  6
CONTINUOUS
 62
             7
100
AcDbLine
 10
95.36625462256424
 20
86.40139716377303
 11
91.36938266398477
 21
86.40139716377303
  0
LINE
  5
D6
100
AcDbEntity
  8
WIRE
  6
CONTINUOUS
 62
             7
100
AcDbLine
 10
91.36938266398477
 20
85.59524110742677
 11
95.36625462256424
 21
85.59524110742677
  0
LINE
  5
D5
100
AcDbEntity
  8
WIRE
  6
CONTINUOUS
 62
             7
100
AcDbLine
 10
95.36625462256424
 20
81.40693822609319
 11
91.36938266398477
 21
81.40693822609319
  0
LINE
  5
D4
100
AcDbEntity
  8
WIRE
  6
CONTINUOUS
 62
             7
100
AcDbLine
 10
91.36938266398477
 20
80.60078216974583
 11
95.36625462256424
 21
80.60078216974583
  0
LINE
  5
D3
100
AcDbEntity
  8
WIRE
  6
CONTINUOUS
 62
             7
100
AcDbLine
 10
95.36625462256424
 20
76.40321294792645
 11
91.36938266398477
 21
76.40321294792645
  0
LINE
  5
D2
100
AcDbEntity
  8
WIRE
  6
CONTINUOUS
 62
             7
100
AcDbLine
 10
91.36938266398477
 20
75.60632323206716
 11
95.36625462256424
 21
75.60632323206716
  0
LINE
  5
D1
100
AcDbEntity
  8
WIRE
  6
CONTINUOUS
 62
             7
100
AcDbLine
 10
95.36625462256424
 20
71.39022132927161
 11
91.36938266398477
 21
71.39022132927161
  0
LINE
  5
D0
100
AcDbEntity
  8
WIRE
  6
CONTINUOUS
 62
             7
100
AcDbLine
 10
91.36938266398477
 20
70.61186429438735
 11
95.36625462256424
 21
70.61186429438735
  0
LINE
  5
CF
100
AcDbEntity
  8
WIRE
  6
CONTINUOUS
 62
             7
100
AcDbLine
 10
95.36625462256424
 20
66.3911301942268
 11
91.36938266398477
 21
66.3911301942268
  0
LINE
  5
CE
100
AcDbEntity
  8
WIRE
  6
CONTINUOUS
 62
             7
100
AcDbLine
 10
91.36938266398477
 20
65.58497413788044
 11
95.36625462256424
 21
65.58497413788044
  0
LINE
  5
CD
100
AcDbEntity
  8
WIRE
  6
CONTINUOUS
 62
             7
100
AcDbLine
 10
95.36625462256424
 20
61.40130345391278
 11
91.36938266398477
 21
61.40130345391278
  0
LINE
  5
CC
100
AcDbEntity
  8
WIRE
  6
CONTINUOUS
 62
             7
100
AcDbLine
 10
91.36938266398477
 20
60.59514739756633
 11
95.36625462256424
 21
60.59514739756633
  0
LINE
  5
CB
100
AcDbEntity
  8
WIRE
  6
CONTINUOUS
 62
             7
100
AcDbLine
 10
94.85621298939054
 20
61.40130345391278
 11
94.85621298939054
 21
65.5835589244036
  0
LINE
  5
CA
100
AcDbEntity
  8
WIRE
  6
CONTINUOUS
 62
             7
100
AcDbLine
 10
94.85621298939054
 20
66.39198762420679
 11
94.85621298939054
 21
70.60809017558788
  0
LINE
  5
C9
100
AcDbEntity
  8
WIRE
  6
CONTINUOUS
 62
             7
100
AcDbLine
 10
94.85621298939054
 20
71.38898642255364
 11
94.85621298939054
 21
75.60508897393393
  0
LINE
  5
C8
100
AcDbEntity
  8
WIRE
  6
CONTINUOUS
 62
             7
100
AcDbLine
 10
94.85621298939054
 20
76.40330764140305
 11
94.85621298939054
 21
80.60087816039533
  0
LINE
  5
C7
100
AcDbEntity
  8
WIRE
  6
CONTINUOUS
 62
             7
100
AcDbLine
 10
94.85621298939054
 20
81.41225792404774
 11
94.85621298939054
 21
85.59129576206385
  0
LINE
  5
C6
100
AcDbEntity
  8
WIRE
  6
CONTINUOUS
 62
             7
100
AcDbLine
 10
94.85621298939054
 20
86.40536131811271
 11
94.85621298939054
 21
90.60293183710385
  0
LINE
  5
C5
100
AcDbEntity
  8
WIRE
  6
CONTINUOUS
 62
             7
100
AcDbLine
 10
94.85621298939054
 20
91.4023601164599
 11
94.85621298939054
 21
95.59993063545105
  0
LINE
  5
C4
100
AcDbEntity
  8
WIRE
  6
CONTINUOUS
 62
             7
100
AcDbLine
 10
94.85621298939054
 20
96.41010078721766
 11
94.85621298939054
 21
100.5891386252349
  0
LINE
  5
C3
100
AcDbEntity
  8
WIRE
  6
CONTINUOUS
 62
             7
100
AcDbLine
 10
94.85621298939054
 20
101.4044137931684
 11
94.85621298939054
 21
105.59271862025849
  0
LINE
  5
C2
100
AcDbEntity
  8
WIRE
  6
CONTINUOUS
 62
             7
100
AcDbLine
 10
94.85621298939054
 20
110.24834483835301
 11
94.14215426640692
 21
110.24834483835301
  0
LINE
  5
C1
100
AcDbEntity
  8
WIRE
  6
CONTINUOUS
 62
             7
100
AcDbLine
 10
94.85621298939054
 20
106.75500257610361
 11
94.14215426640692
 21
106.75500257610361
  0
LINE
  5
C0
100
AcDbEntity
  8
WIRE
  6
CONTINUOUS
 62
             7
100
AcDbLine
 10
94.34617135621573
 20
110.24834483835301
 11
94.34617135621573
 21
106.7735346084928
  0
LINE
  5
BF
100
AcDbEntity
  8
WIRE
  6
CONTINUOUS
 62
             7
100
AcDbLine
 10
94.34617135621573
 20
108.0152002361328
 11
94.85621298939054
 21
108.9974135188107
  0
LINE
  5
BE
100
AcDbEntity
  8
WIRE
  6
CONTINUOUS
 62
             7
100
AcDbLine
 10
94.85621298939054
 20
61.75999845466817
 11
94.14215426640692
 21
61.75999845466817
  0
LINE
  5
BD
100
AcDbEntity
  8
WIRE
  6
CONTINUOUS
 62
             7
100
AcDbLine
 10
94.34617135621573
 20
61.75999845466817
 11
94.34617135621573
 21
65.27092905746008
  0
LINE
  5
BC
100
AcDbEntity
  8
WIRE
  6
CONTINUOUS
 62
             7
100
AcDbLine
 10
94.85621298939054
 20
65.27092905746008
 11
94.15142780355987
 21
65.27092905746008
  0
LINE
  5
BB
100
AcDbEntity
  8
WIRE
  6
CONTINUOUS
 62
             7
100
AcDbLine
 10
94.85621298939054
 20
66.74888085455044
 11
94.15142780355987
 21
66.74888085455044
  0
LINE
  5
BA
100
AcDbEntity
  8
WIRE
  6
CONTINUOUS
 62
             7
100
AcDbLine
 10
94.34617135621573
 20
66.74888085455044
 11
94.34617135621573
 21
70.26665792547311
  0
LINE
  5
B9
100
AcDbEntity
  8
WIRE
  6
CONTINUOUS
 62
             7
100
AcDbLine
 10
94.85621298939054
 20
70.26665792547311
 11
94.14215426640692
 21
70.26665792547311
  0
LINE
  5
B8
100
AcDbEntity
  8
WIRE
  6
CONTINUOUS
 62
             7
100
AcDbLine
 10
94.85621298939054
 20
71.7488592545069
 11
94.14215426640692
 21
71.7488592545069
  0
LINE
  5
B7
100
AcDbEntity
  8
WIRE
  6
CONTINUOUS
 62
             7
100
AcDbLine
 10
94.34617135621573
 20
71.7488592545069
 11
94.34617135621573
 21
75.26489487346541
  0
LINE
  5
B6
100
AcDbEntity
  8
WIRE
  6
CONTINUOUS
 62
             7
100
AcDbLine
 10
94.85621298939054
 20
75.26489487346541
 11
94.14215426640692
 21
75.26489487346541
  0
LINE
  5
B5
100
AcDbEntity
  8
WIRE
  6
CONTINUOUS
 62
             7
100
AcDbLine
 10
94.85621298939054
 20
76.75674520840892
 11
94.13288072925394
 21
76.75674520840892
  0
LINE
  5
B4
100
AcDbEntity
  8
WIRE
  6
CONTINUOUS
 62
             7
100
AcDbLine
 10
94.34617135621573
 20
76.75674520840892
 11
94.34617135621573
 21
80.25935381114522
  0
LINE
  5
B3
100
AcDbEntity
  8
WIRE
  6
CONTINUOUS
 62
             7
100
AcDbLine
 10
94.85621298939054
 20
80.250088119243
 11
94.13288072925394
 21
80.250088119243
  0
LINE
  5
B2
100
AcDbEntity
  8
WIRE
  6
CONTINUOUS
 62
             7
100
AcDbLine
 10
94.85621298939054
 20
81.74480066182775
 11
94.15142780355987
 21
81.74480066182775
  0
LINE
  5
B1
100
AcDbEntity
  8
WIRE
  6
CONTINUOUS
 62
             7
100
AcDbLine
 10
94.34617135621573
 20
81.74480066182775
 11
94.34617135621573
 21
85.25667560505096
  0
LINE
  5
B0
100
AcDbEntity
  8
WIRE
  6
CONTINUOUS
 62
             7
100
AcDbLine
 10
94.85621298939054
 20
85.25667560505096
 11
94.15142780355987
 21
85.25667560505096
  0
LINE
  5
AF
100
AcDbEntity
  8
WIRE
  6
CONTINUOUS
 62
             7
100
AcDbLine
 10
94.85621298939054
 20
86.75779228048145
 11
94.14215426640692
 21
86.75779228048145
  0
LINE
  5
AE
100
AcDbEntity
  8
WIRE
  6
CONTINUOUS
 62
             7
100
AcDbLine
 10
94.34617135621573
 20
86.75779228048145
 11
94.34617135621573
 21
90.26040088321884
  0
LINE
  5
AD
100
AcDbEntity
  8
WIRE
  6
CONTINUOUS
 62
             7
100
AcDbLine
 10
94.85621298939054
 20
90.26040088321884
 11
94.15142780355987
 21
90.26040088321884
  0
LINE
  5
AC
100
AcDbEntity
  8
WIRE
  6
CONTINUOUS
 62
             7
100
AcDbLine
 10
94.85621298939054
 20
91.75225121816123
 11
94.13288072925394
 21
91.75225121816123
  0
LINE
  5
AB
100
AcDbEntity
  8
WIRE
  6
CONTINUOUS
 62
             7
100
AcDbLine
 10
94.34617135621573
 20
91.75225121816123
 11
94.34617135621573
 21
95.26412616138561
  0
LINE
  5
AA
100
AcDbEntity
  8
WIRE
  6
CONTINUOUS
 62
             7
100
AcDbLine
 10
94.85621298939054
 20
95.26412616138561
 11
94.14215426640692
 21
95.26412616138561
  0
LINE
  5
A9
100
AcDbEntity
  8
WIRE
  6
CONTINUOUS
 62
             7
100
AcDbLine
 10
94.85621298939054
 20
96.74671015584104
 11
94.15142780355987
 21
96.74671015584104
  0
LINE
  5
A8
100
AcDbEntity
  8
WIRE
  6
CONTINUOUS
 62
             7
100
AcDbLine
 10
94.34617135621573
 20
96.74671015584104
 11
94.34617135621573
 21
100.2493187585773
  0
LINE
  5
A7
100
AcDbEntity
  8
WIRE
  6
CONTINUOUS
 62
             7
100
AcDbLine
 10
94.85621298939054
 20
100.2493187585773
 11
94.15142780355987
 21
100.2493187585773
  0
LINE
  5
A6
100
AcDbEntity
  8
WIRE
  6
CONTINUOUS
 62
             7
100
AcDbLine
 10
94.85621298939054
 20
101.7411690935209
 11
94.15142780355987
 21
101.7411690935209
  0
LINE
  5
A5
100
AcDbEntity
  8
WIRE
  6
CONTINUOUS
 62
             7
100
AcDbLine
 10
94.34617135621573
 20
101.7411690935209
 11
94.34617135621573
 21
105.2530440367441
  0
LINE
  5
A4
100
AcDbEntity
  8
WIRE
  6
CONTINUOUS
 62
             7
100
AcDbLine
 10
94.85621298939054
 20
105.2530440367441
 11
94.13288072925394
 21
105.2530440367441
  0
LINE
  5
A3
100
AcDbEntity
  8
WIRE
  6
CONTINUOUS
 62
             7
100
AcDbLine
 10
94.34617135621573
 20
102.9895326632212
 11
94.85621298939054
 21
104.00881001067739
  0
LINE
  5
A2
100
AcDbEntity
  8
WIRE
  6
CONTINUOUS
 62
             7
100
AcDbLine
 10
94.34606076641083
 20
97.98520549774517
 11
94.85636141254858
 21
98.97718777464382
  0
LINE
  5
A1
100
AcDbEntity
  8
WIRE
  6
CONTINUOUS
 62
             7
100
AcDbLine
 10
94.34606076641083
 20
93.00527163147424
 11
94.85636141254858
 21
94.00652478895756
  0
LINE
  5
A0
100
AcDbEntity
  8
WIRE
  6
CONTINUOUS
 62
             7
100
AcDbLine
 10
94.34606076641083
 20
88.00827737322589
 11
94.85636141254858
 21
89.00953053071035
  0
LINE
  5
9F
100
AcDbEntity
  8
WIRE
  6
CONTINUOUS
 62
             7
100
AcDbLine
 10
94.34606076641083
 20
83.00201223439174
 11
94.85636141254858
 21
83.9939945112904
  0
LINE
  5
9E
100
AcDbEntity
  8
WIRE
  6
CONTINUOUS
 62
             7
100
AcDbLine
 10
94.34606076641083
 20
78.00501797614453
 11
94.85636141254858
 21
79.00627113362785
  0
LINE
  5
9D
100
AcDbEntity
  8
WIRE
  6
CONTINUOUS
 62
             7
100
AcDbLine
 10
94.34606076641083
 20
72.9894819567246
 11
94.85636141254858
 21
74.00000599479373
  0
LINE
  5
9C
100
AcDbEntity
  8
WIRE
  6
CONTINUOUS
 62
             7
100
AcDbLine
 10
94.34606076641083
 20
68.00175857906194
 11
94.85636141254858
 21
68.98446997537377
  0
LINE
  5
9B
100
AcDbEntity
  8
WIRE
  6
CONTINUOUS
 62
             7
100
AcDbLine
 10
94.34606076641083
 20
63.01403455281375
 11
94.85636141254858
 21
64.01528835888306
  0
LINE
  5
9A
100
AcDbEntity
  8
WIRE
  6
CONTINUOUS
 62
             7
100
AcDbLine
 10
141.09422857244411
 20
114.4658340654497
 11
141.09422857244411
 21
120.5075799668071
  0
LINE
  5
99
100
AcDbEntity
  8
WIRE
  6
CONTINUOUS
 62
             7
100
AcDbLine
 10
141.09422857244411
 20
114.4658340654497
 11
99.71428563805191
 21
114.151007246064
  0
LINE
  5
98
100
AcDbEntity
  8
WIRE
  6
CONTINUOUS
 62
             7
100
AcDbLine
 10
140.50387400405859
 20
118.5676824505324
 11
140.50387400405859
 21
115.38401834279151
  0
LINE
  5
97
100
AcDbEntity
  8
WIRE
  6
CONTINUOUS
 62
             7
100
AcDbLine
 10
140.50387400405859
 20
115.38401834279151
 11
140.84678170233249
 21
115.38401834279151
  0
LINE
  5
96
100
AcDbEntity
  8
WIRE
  6
CONTINUOUS
 62
             7
100
AcDbLine
 10
140.84678170233249
 20
115.38401834279151
 11
140.84678170233249
 21
118.5676824505324
  0
LINE
  5
95
100
AcDbEntity
  8
WIRE
  6
CONTINUOUS
 62
             7
100
AcDbLine
 10
140.84678170233249
 20
118.5676824505324
 11
140.50387400405859
 21
118.5676824505324
  0
LINE
  5
94
100
AcDbEntity
  8
WIRE
  6
CONTINUOUS
 62
             7
100
AcDbLine
 10
141.0896740186563
 20
118.6390651178305
 11
140.84678170233249
 21
118.6390651178305
  0
LINE
  5
93
100
AcDbEntity
  8
WIRE
  6
CONTINUOUS
 62
             7
100
AcDbLine
 10
140.84678170233249
 20
118.6390651178305
 11
140.84678170233249
 21
118.5676824505324
  0
LINE
  5
92
100
AcDbEntity
  8
WIRE
  6
CONTINUOUS
 62
             7
100
AcDbLine
 10
141.0896740186563
 20
115.2840829977247
 11
140.84678170233249
 21
115.2840829977247
  0
LINE
  5
91
100
AcDbEntity
  8
WIRE
  6
CONTINUOUS
 62
             7
100
AcDbLine
 10
140.84678170233249
 20
115.2840829977247
 11
140.84678170233249
 21
115.38401834279151
  0
LINE
  5
90
100
AcDbEntity
  8
WIRE
  6
CONTINUOUS
 62
             7
100
AcDbLine
 10
5.34884271783069
 20
113.1357383948814
 11
5.34884271783069
 21
49.50550977737363
  0
LINE
  5
8F
100
AcDbEntity
  8
WIRE
  6
CONTINUOUS
 62
             7
100
AcDbLine
 10
5.97423960821217
 20
48.49571976759547
 11
27.93524641623485
 21
48.49571976759547
  0
LINE
  5
8E
100
AcDbEntity
  8
WIRE
  6
CONTINUOUS
 62
             7
100
AcDbLine
 10
28.56064102107625
 20
49.486534125802
 11
28.56064102107625
 21
113.1775299929221
  0
LINE
  5
8D
100
AcDbEntity
  8
WIRE
  6
CONTINUOUS
 62
             7
100
AcDbLine
 10
27.57925070065394
 20
114.1394860100031
 11
6.35909712333302
 21
114.1394860100031
  0
LINE
  5
8C
100
AcDbEntity
  8
WIRE
  6
CONTINUOUS
 62
             7
100
AcDbLine
 10
5.45467922015095
 20
48.63945540060976
 11
5.45467922015095
 21
35.00630539352144
  0
LINE
  5
8B
100
AcDbEntity
  8
WIRE
  6
CONTINUOUS
 62
             7
100
AcDbLine
 10
6.95562992863448
 20
41.55343254089265
 11
6.95562992863448
 21
35.0095582877719
  0
LINE
  5
8A
100
AcDbEntity
  8
WIRE
  6
CONTINUOUS
 62
             7
100
AcDbLine
 10
5.96461748467209
 20
41.55522084952929
 11
27.94486853977493
 21
41.55522084952929
  0
LINE
  5
89
100
AcDbEntity
  8
WIRE
  6
CONTINUOUS
 62
             7
100
AcDbLine
 10
27.94486853977493
 20
41.55522084952929
 11
27.94486853977493
 21
48.26004287995975
  0
LINE
  5
88
100
AcDbEntity
  8
WIRE
  6
CONTINUOUS
 62
             7
100
AcDbLine
 10
27.94486853977493
 20
48.26004287995975
 11
26.97412522501878
 21
48.26004287995975
  0
LINE
  5
87
100
AcDbEntity
  8
WIRE
  6
CONTINUOUS
 62
             7
100
AcDbLine
 10
28.45480680429597
 20
48.65714268676204
 11
28.45480680429597
 21
34.99738995703296
  0
LINE
  5
86
100
AcDbEntity
  8
WIRE
  6
CONTINUOUS
 62
             7
100
AcDbLine
 10
26.95385609581255
 20
34.99738995703296
 11
26.95385609581255
 21
41.55311142853889
  0
LINE
  5
85
100
AcDbEntity
  8
WIRE
  6
CONTINUOUS
 62
             7
100
AcDbLine
 10
23.94714590261538
 20
41.55311142853889
 11
23.94714590261538
 21
34.99738995703296
  0
LINE
  5
84
100
AcDbEntity
  8
WIRE
  6
CONTINUOUS
 62
             7
100
AcDbLine
 10
13.9360051646012
 20
37.99868876210901
 11
13.9360051646012
 21
35.00700896896326
  0
LINE
  5
83
100
AcDbEntity
  8
WIRE
  6
CONTINUOUS
 62
             7
100
AcDbLine
 10
9.9603059912023
 20
35.00422338456119
 11
9.9603059912023
 21
41.55032453880214
  0
LINE
  5
82
100
AcDbEntity
  8
WIRE
  6
CONTINUOUS
 62
             7
100
AcDbLine
 10
10.87434601792444
 20
41.55032453880214
 11
10.87434601792444
 21
47.75011907286417
  0
LINE
  5
81
100
AcDbEntity
  8
WIRE
  6
CONTINUOUS
 62
             7
100
AcDbLine
 10
10.87434601792444
 20
47.75011907286417
 11
16.27680269924726
 21
47.75011907286417
  0
LINE
  5
80
100
AcDbEntity
  8
WIRE
  6
CONTINUOUS
 62
             7
100
AcDbLine
 10
16.27680269924726
 20
47.75011907286417
 11
16.27680269924726
 21
41.55513339209978
  0
LINE
  5
7F
100
AcDbEntity
  8
WIRE
  6
CONTINUOUS
 62
             7
100
AcDbLine
 10
16.27680269924726
 20
42.75757645544912
 11
10.87434601792444
 21
42.75757645544912
  0
LINE
  5
7E
100
AcDbEntity
  8
WIRE
  6
CONTINUOUS
 62
             7
100
AcDbLine
 10
25.25154016823834
 20
117.8562048645621
 11
25.65499055152972
 21
117.8562048645621
  0
LINE
  5
7D
100
AcDbEntity
  8
WIRE
  6
CONTINUOUS
 62
             7
100
AcDbLine
 10
25.65499055152972
 20
117.8562048645621
 11
25.65499055152972
 21
117.18391960259891
  0
LINE
  5
7C
100
AcDbEntity
  8
WIRE
  6
CONTINUOUS
 62
             7
100
AcDbLine
 10
25.65499055152972
 20
117.18391960259891
 11
26.30819789303605
 21
117.18391960259891
  0
LINE
  5
7B
100
AcDbEntity
  8
WIRE
  6
CONTINUOUS
 62
             7
100
AcDbLine
 10
26.30819789303605
 20
117.18391960259891
 11
26.30819789303605
 21
116.78054896755479
  0
LINE
  5
7A
100
AcDbEntity
  8
WIRE
  6
CONTINUOUS
 62
             7
100
AcDbLine
 10
26.30819789303605
 20
116.78054896755479
 11
25.65499055152972
 21
116.78054896755479
  0
LINE
  5
79
100
AcDbEntity
  8
WIRE
  6
CONTINUOUS
 62
             7
100
AcDbLine
 10
25.65499055152972
 20
116.78054896755479
 11
25.65499055152972
 21
116.14667970791329
  0
LINE
  5
78
100
AcDbEntity
  8
WIRE
  6
CONTINUOUS
 62
             7
100
AcDbLine
 10
25.65499055152972
 20
116.14667970791329
 11
25.25154016823834
 21
116.14667970791329
  0
LINE
  5
77
100
AcDbEntity
  8
WIRE
  6
CONTINUOUS
 62
             7
100
AcDbLine
 10
25.25154016823834
 20
116.14667970791329
 11
25.25154016823834
 21
116.78054896755479
  0
LINE
  5
76
100
AcDbEntity
  8
WIRE
  6
CONTINUOUS
 62
             7
100
AcDbLine
 10
25.25154016823834
 20
116.78054896755479
 11
24.59833282673201
 21
116.78054896755479
  0
LINE
  5
75
100
AcDbEntity
  8
WIRE
  6
CONTINUOUS
 62
             7
100
AcDbLine
 10
24.59833282673201
 20
116.78054896755479
 11
24.59833282673201
 21
117.18391960259891
  0
LINE
  5
74
100
AcDbEntity
  8
WIRE
  6
CONTINUOUS
 62
             7
100
AcDbLine
 10
24.59833282673201
 20
117.18391960259891
 11
25.25154016823834
 21
117.18391960259891
  0
LINE
  5
73
100
AcDbEntity
  8
WIRE
  6
CONTINUOUS
 62
             7
100
AcDbLine
 10
25.25154016823834
 20
117.18391960259891
 11
25.25154016823834
 21
117.8562048645621
  0
LINE
  5
72
100
AcDbEntity
  8
WIRE
  6
CONTINUOUS
 62
             7
100
AcDbLine
 10
22.89613574723963
 20
90.73700694177413
 11
25.50896511326472
 21
90.73700694177413
  0
LINE
  5
71
100
AcDbEntity
  8
WIRE
  6
CONTINUOUS
 62
             7
100
AcDbLine
 10
26.45035162648492
 20
89.81501635938844
 11
26.45035162648492
 21
87.18350062035395
  0
LINE
  5
70
100
AcDbEntity
  8
WIRE
  6
CONTINUOUS
 62
             7
100
AcDbLine
 10
25.47054061422564
 20
86.24230203680739
 11
22.89613574723963
 21
86.24230203680739
  0
LINE
  5
6F
100
AcDbEntity
  8
WIRE
  6
CONTINUOUS
 62
             7
100
AcDbLine
 10
21.95474694847957
 20
87.18350062035395
 11
21.95474694847957
 21
89.81501635938844
  0
LINE
  5
6E
100
AcDbEntity
  8
WIRE
  6
CONTINUOUS
 62
             7
100
AcDbLine
 10
22.93044627421907
 20
86.77567357240125
 11
25.47536310369574
 21
86.77567357240125
  0
LINE
  5
6D
100
AcDbEntity
  8
WIRE
  6
CONTINUOUS
 62
             7
100
AcDbLine
 10
22.9326266794108
 20
90.21678534866715
 11
25.43507360398945
 21
90.21678534866715
  0
LINE
  5
6C
100
AcDbEntity
  8
WIRE
  6
CONTINUOUS
 62
             7
100
AcDbLine
 10
22.46872604777971
 20
89.7529777137093
 11
22.46872604777971
 21
87.2443096406783
  0
LINE
  5
6B
100
AcDbEntity
  8
WIRE
  6
CONTINUOUS
 62
             7
100
AcDbLine
 10
25.89302726045412
 20
87.22471134442128
 11
25.89302726045412
 21
89.75676579521632
  0
LINE
  5
6A
100
AcDbEntity
  8
WIRE
  6
CONTINUOUS
 62
             7
100
AcDbLine
 10
22.6130556153399
 20
90.08992247290826
 11
25.74274843218704
 21
90.08992247290826
  0
LINE
  5
69
100
AcDbEntity
  8
WIRE
  6
CONTINUOUS
 62
             7
100
AcDbLine
 10
25.74274843218704
 20
90.08992247290826
 11
25.74274843218704
 21
86.89998060267834
  0
LINE
  5
68
100
AcDbEntity
  8
WIRE
  6
CONTINUOUS
 62
             7
100
AcDbLine
 10
25.74274843218704
 20
86.89998060267834
 11
22.61958997429497
 21
86.89998060267834
  0
LINE
  5
67
100
AcDbEntity
  8
WIRE
  6
CONTINUOUS
 62
             7
100
AcDbLine
 10
22.61958997429497
 20
86.89998060267834
 11
22.61958997429497
 21
90.08509403958905
  0
LINE
  5
66
100
AcDbEntity
  8
WIRE
  6
CONTINUOUS
 62
             7
100
AcDbLine
 10
23.7042021392396
 20
89.47757165697206
 11
24.71040656780318
 21
89.47757165697206
  0
LINE
  5
65
100
AcDbEntity
  8
WIRE
  6
CONTINUOUS
 62
             7
100
AcDbLine
 10
23.69766778028465
 20
88.77206170907417
 11
24.70387449438806
 21
88.77206170907417
  0
LINE
  5
64
100
AcDbEntity
  8
WIRE
  6
CONTINUOUS
 62
             7
100
AcDbLine
 10
23.71073421265471
 20
88.20373461363761
 11
24.69734013543288
 21
88.20373461363761
  0
LINE
  5
63
100
AcDbEntity
  8
WIRE
  6
CONTINUOUS
 62
             7
100
AcDbLine
 10
23.7042021392396
 20
87.49822466573971
 11
24.70387449438806
 21
87.49822466573971
  0
LINE
  5
62
100
AcDbEntity
  8
WIRE
  6
CONTINUOUS
 62
             7
100
AcDbLine
 10
23.69766778028465
 20
89.47757165697206
 11
23.69766778028465
 21
88.77206170907417
  0
LINE
  5
61
100
AcDbEntity
  8
WIRE
  6
CONTINUOUS
 62
             7
100
AcDbLine
 10
23.69766778028465
 20
88.20373461363761
 11
23.69766778028465
 21
87.49822466573971
  0
LINE
  5
60
100
AcDbEntity
  8
WIRE
  6
CONTINUOUS
 62
             7
100
AcDbLine
 10
24.20730435352155
 20
89.47757165697206
 11
24.20730435352155
 21
88.77206170907417
  0
LINE
  5
5F
100
AcDbEntity
  8
WIRE
  6
CONTINUOUS
 62
             7
100
AcDbLine
 10
24.20730435352155
 20
88.20373461363761
 11
24.20730435352155
 21
87.49822466573971
  0
LINE
  5
5E
100
AcDbEntity
  8
WIRE
  6
CONTINUOUS
 62
             7
100
AcDbLine
 10
22.49499604492185
 20
106.9783343398596
 11
22.70775468107829
 21
106.8552458344795
  0
LINE
  5
5D
100
AcDbEntity
  8
WIRE
  6
CONTINUOUS
 62
             7
100
AcDbLine
 10
26.32465835235566
 20
107.241083084976
 11
25.69820097139858
 21
106.8748381554808
  0
LINE
  5
5C
100
AcDbEntity
  8
WIRE
  6
CONTINUOUS
 62
             7
100
AcDbLine
 10
26.31283753930364
 20
102.2431037482378
 11
25.68638015834669
 21
101.87685881874251
  0
LINE
  5
5B
100
AcDbEntity
  8
WIRE
  6
CONTINUOUS
 62
             7
100
AcDbLine
 10
22.48317523186995
 20
101.9803550031213
 11
22.69593386802639
 21
101.85726649774119
  0
LINE
  5
5A
100
AcDbEntity
  8
WIRE
  6
CONTINUOUS
 62
             7
100
AcDbLine
 10
26.34829769291967
 20
97.21472316467455
 11
25.7218403119626
 21
96.84847823518049
  0
LINE
  5
59
100
AcDbEntity
  8
WIRE
  6
CONTINUOUS
 62
             7
100
AcDbLine
 10
22.51863538548598
 20
96.95197441955926
 11
22.7313940216423
 21
96.82888591417915
  0
LINE
  5
58
100
AcDbEntity
  8
WIRE
  6
CONTINUOUS
 62
             7
100
AcDbLine
 10
22.98762134369098
 20
42.75717310700481
 11
17.58516466236806
 21
42.75717310700481
  0
LINE
  5
57
100
AcDbEntity
  8
WIRE
  6
CONTINUOUS
 62
             7
100
AcDbLine
 10
17.58516466236806
 20
47.74971572441985
 11
22.98762134369098
 21
47.74971572441985
  0
LINE
  5
56
100
AcDbEntity
  8
WIRE
  6
CONTINUOUS
 62
             7
100
AcDbLine
 10
17.58516466236806
 20
41.5499211903577
 11
17.58516466236806
 21
47.74971572441985
  0
LINE
  5
55
100
AcDbEntity
  8
WIRE
  6
CONTINUOUS
 62
             7
100
AcDbLine
 10
22.98762134369098
 20
47.74971572441985
 11
22.98762134369098
 21
41.55473004365546
  0
LINE
  5
54
100
AcDbEntity
  8
WIRE
  6
CONTINUOUS
 62
             7
100
AcDbLine
 10
25.41814918004317
 20
47.38195462193882
 11
27.94197961717275
 21
47.38195462193882
  0
LINE
  5
53
100
AcDbEntity
  8
WIRE
  6
CONTINUOUS
 62
             7
100
AcDbLine
 10
6.84807927128948
 20
48.2584777835689
 11
5.95809683895723
 21
48.2584777835689
  0
LINE
  5
52
100
AcDbEntity
  8
WIRE
  6
CONTINUOUS
 62
             7
100
AcDbLine
 10
5.95809683895723
 20
48.2584777835689
 11
5.95809683895723
 21
41.55838628635002
  0
LINE
  5
51
100
AcDbEntity
  8
WIRE
  6
CONTINUOUS
 62
             7
100
AcDbLine
 10
8.4553601587405
 20
47.35539236467628
 11
5.95809683895723
 21
47.35539236467628
  0
LINE
  5
50
100
AcDbEntity
  8
WIRE
  6
CONTINUOUS
 62
             7
100
AcDbLine
 10
142.5894304972619
 20
57.45295829675506
 11
131.4014789093616
 21
57.45295829675506
  0
LINE
  5
4F
100
AcDbEntity
  8
WIRE
  6
CONTINUOUS
 62
             7
100
AcDbLine
 10
131.4014789093616
 20
57.45295829675506
 11
131.4014789093616
 21
41.55341426620574
  0
LINE
  5
4E
100
AcDbEntity
  8
WIRE
  6
CONTINUOUS
 62
             7
100
AcDbLine
 10
131.4014789093616
 20
41.55341426620574
 11
142.5894304972619
 21
41.55341426620574
  0
LINE
  5
4D
100
AcDbEntity
  8
WIRE
  6
CONTINUOUS
 62
             7
100
AcDbLine
 10
131.4014789093616
 20
51.69744228413656
 11
140.10873048610031
 21
51.69744228413656
  0
LINE
  5
4C
100
AcDbEntity
  8
WIRE
  6
CONTINUOUS
 62
             7
100
AcDbLine
 10
140.10873048610031
 20
51.69744228413656
 11
140.10873048610031
 21
47.30748396789753
  0
LINE
  5
4B
100
AcDbEntity
  8
WIRE
  6
CONTINUOUS
 62
             7
100
AcDbLine
 10
140.10873048610031
 20
47.30748396789753
 11
131.4014789093616
 21
47.30748396789753
  0
LINE
  5
4A
100
AcDbEntity
  8
WIRE
  6
CONTINUOUS
 62
             7
100
AcDbLine
 10
140.1098801127367
 20
51.49851840232372
 11
139.69295647095001
 21
51.49851840232372
  0
LINE
  5
49
100
AcDbEntity
  8
WIRE
  6
CONTINUOUS
 62
             7
100
AcDbLine
 10
139.69295647095001
 20
51.49851840232372
 11
139.69295647095001
 21
47.4949052397055
  0
LINE
  5
48
100
AcDbEntity
  8
WIRE
  6
CONTINUOUS
 62
             7
100
AcDbLine
 10
139.69295647095001
 20
47.4949052397055
 11
140.1098801127367
 21
47.4949052397055
  0
LINE
  5
47
100
AcDbEntity
  8
WIRE
  6
CONTINUOUS
 62
             7
100
AcDbLine
 10
139.69295647095001
 20
47.59911533584279
 11
139.2030715346805
 21
47.59911533584279
  0
LINE
  5
46
100
AcDbEntity
  8
WIRE
  6
CONTINUOUS
 62
             7
100
AcDbLine
 10
139.2030715346805
 20
47.59911533584279
 11
139.2030715346805
 21
51.40278776086105
  0
LINE
  5
45
100
AcDbEntity
  8
WIRE
  6
CONTINUOUS
 62
             7
100
AcDbLine
 10
139.2030715346805
 20
51.40278776086105
 11
139.69295647095001
 21
51.40278776086105
  0
LINE
  5
44
100
AcDbEntity
  8
WIRE
  6
CONTINUOUS
 62
             7
100
AcDbLine
 10
139.2030715346805
 20
49.07890026739512
 11
139.69295647095001
 21
50.0063706451515
  0
LINE
  5
43
100
AcDbEntity
  8
WIRE
  6
CONTINUOUS
 62
             7
100
AcDbLine
 10
138.78916928971131
 20
51.2256303363605
 11
139.19055591745729
 21
51.2256303363605
  0
LINE
  5
42
100
AcDbEntity
  8
WIRE
  6
CONTINUOUS
 62
             7
100
AcDbLine
 10
138.8153228114171
 20
47.75543048004892
 11
139.2009779800091
 21
47.75543048004892
  0
LINE
  5
41
100
AcDbEntity
  8
WIRE
  6
CONTINUOUS
 62
             7
100
AcDbLine
 10
140.1103829315434
 20
50.74626311092772
 11
142.6015050052581
 21
50.74626311092772
  0
LINE
  5
40
100
AcDbEntity
  8
WIRE
  6
CONTINUOUS
 62
             7
100
AcDbLine
 10
140.1103829315434
 20
50.49615966339906
 11
142.6015050052581
 21
50.49615966339906
  0
LINE
  5
3F
100
AcDbEntity
  8
WIRE
  6
CONTINUOUS
 62
             7
100
AcDbLine
 10
140.1103829315434
 20
50.24605491053541
 11
142.6015050052581
 21
50.24605491053541
  0
LINE
  5
3E
100
AcDbEntity
  8
WIRE
  6
CONTINUOUS
 62
             7
100
AcDbLine
 10
140.1103829315434
 20
48.74542769868868
 11
142.6015050052581
 21
48.74542769868868
  0
LINE
  5
3D
100
AcDbEntity
  8
WIRE
  6
CONTINUOUS
 62
             7
100
AcDbLine
 10
140.1103829315434
 20
48.51616522611955
 11
142.6015050052581
 21
48.51616522611955
  0
LINE
  5
3C
100
AcDbEntity
  8
WIRE
  6
CONTINUOUS
 62
             7
100
AcDbLine
 10
140.1103829315434
 20
48.25563998577601
 11
142.6015050052581
 21
48.25563998577601
  0
LINE
  5
3B
100
AcDbEntity
  8
WIRE
  6
CONTINUOUS
 62
             7
100
AcDbLine
 10
141.10678239336491
 20
114.9819138274048
 11
162.09671352313509
 21
114.9819138274048
  0
LINE
  5
3A
100
AcDbEntity
  8
WIRE
  6
CONTINUOUS
 62
             7
100
AcDbLine
 10
160.10219358784951
 20
116.43514563903859
 11
162.10522030313879
 21
116.43514563903859
  0
LINE
  5
39
100
AcDbEntity
  8
WIRE
  6
CONTINUOUS
 62
             7
100
AcDbLine
 10
143.4140761966631
 20
40.99504818040989
 11
160.106764667916
 21
40.99504818040989
  0
LINE
  5
38
100
AcDbEntity
  8
WIRE
  6
CONTINUOUS
 62
             7
100
AcDbLine
 10
160.10013431627829
 20
39.54499355361025
 11
162.09196188540599
 21
39.54499355361025
  0
POINT
  5
37
100
AcDbEntity
  8
0
 62
             7
100
AcDbPoint
 10
3.35158699112431
 20
37.91237219501742
  0
POINT
  5
36
100
AcDbEntity
  8
0
 62
             7
100
AcDbPoint
 10
3.35158699112431
 20
35.02103348574699
  0
POINT
  5
35
100
AcDbEntity
  8
0
 62
             7
100
AcDbPoint
 10
29.99477396668752
 20
120.9865059890878
  0
POINT
  5
34
100
AcDbEntity
  8
0
 62
             7
100
AcDbPoint
 10
29.99477396668752
 20
35.08492309613136
  0
POINT
  5
33
100
AcDbEntity
  8
0
 62
             7
100
AcDbPoint
 10
15.41786018610695
 20
34.12372156254811
  0
POINT
  5
32
100
AcDbEntity
  8
0
 62
             7
100
AcDbPoint
 10
18.50921992551606
 20
34.12372156254811
  0
POINT
  5
31
100
AcDbEntity
  8
0
 62
             7
100
AcDbPoint
 10
14.02176319772941
 20
34.12372156254811
  0
POINT
  5
30
100
AcDbEntity
  8
0
 62
             7
100
AcDbPoint
 10
19.90531691389393
 20
34.12372156254811
  0
POINT
  5
2F
100
AcDbEntity
  8
0
 62
             7
100
AcDbPoint
 10
4.94712705942439
 20
34.12372156254811
  0
POINT
  5
2E
100
AcDbEntity
  8
0
 62
             7
100
AcDbPoint
 10
28.88023265500743
 20
34.12372156254811
  0
POINT
  5
2D
100
AcDbEntity
  8
0
 62
             7
100
AcDbPoint
 10
162.0977283029097
 20
33.93775312834107
  0
POINT
  5
2C
100
AcDbEntity
  8
0
 62
             7
100
AcDbPoint
 10
90.61331550748375
 20
33.93775312834107
  0
POINT
  5
2B
100
AcDbEntity
  8
0
 62
             7
100
AcDbPoint
 10
162.09759574158821
 20
33.91774104096093
  0
POINT
  5
2A
100
AcDbEntity
  8
0
 62
             7
100
AcDbPoint
 10
97.12814452299571
 20
33.91774104096093
  0
POINT
  5
29
100
AcDbEntity
  8
0
 62
             7
100
AcDbPoint
 10
162.0975774572679
 20
33.91774104096093
  0
POINT
  5
28
100
AcDbEntity
  8
0
 62
             7
100
AcDbPoint
 10
160.0205495267812
 20
33.91774104096093
  0
ENDSEC
  0
SECTION
  2
OBJECTS
  0
DICTIONARY
  5
19
100
AcDbDictionary
  3
ACAD_GROUP
350
1A
  3
ACAD_MLINESTYLE
350
1B
  0
DICTIONARY
  5
1A
102
{ACAD_REACTORS
330
19
102
}
100
AcDbDictionary
  0
DICTIONARY
  5
1B
102
{ACAD_REACTORS
330
19
102
}
100
AcDbDictionary
  3
STANDARD
350
1C
  0
MLINESTYLE
  5
1C
102
{ACAD_REACTORS
330
1B
102
}
100
AcDbMlineStyle
  2
STANDARD
 70
             0
  3

 62
             0
 51
90.0
 52
90.0
 71
             2
 49
0.5
 62
           256
  6
BYLAYER
 49
-0.5
 62
           256
  6
BYLAYER
  0
ENDSEC
  0
EOF
