  0
SECTION
  2
HEADER
  9
$ACADVER
  1
AC1014
  9
$ACADMAINTVER
 70
             0
  9
$DWGCODEPAGE
  3
ANSI_1252
  9
$INSBASE
 10
0.0
 20
0.0
 30
0.0
  9
$EXTMIN
 10
1.00000000000000E+20
 20
1.00000000000000E+20
 30
1.00000000000000E+20
  9
$EXTMAX
 10
-1.00000000000000E+20
 20
-1.00000000000000E+20
 30
-1.00000000000000E+20
  9
$LIMMIN
 10
0.0
 20
0.0
  9
$LIMMAX
 10
0.0
 20
0.0
  9
$ORTHOMODE
 70
             0
  9
$REGENMODE
 70
             1
  9
$FILLMODE
 70
             1
  9
$QTEXTMODE
 70
             0
  9
$MIRRTEXT
 70
             1
  9
$DRAGMODE
 70
             2
  9
$LTSCALE
 40
1.0
  9
$OSMODE
 70
             0
  9
$ATTMODE
 70
             1
  9
$TEXTSIZE
 40
0.2
  9
$TRACEWID
 40
0.05
  9
$TEXTSTYLE
  7
STANDARD
  9
$CLAYER
  8
0
  9
$CELTYPE
  6
CONTINUOUS
  9
$CECOLOR
 62
           256
  9
$CELTSCALE
 40
1.0
  9
$DELOBJ
 70
             1
  9
$DISPSILH
 70
             0
  9
$DIMSCALE
 40
1.0
  9
$DIMASZ
 40
0.18
  9
$DIMEXO
 40
0.0625
  9
$DIMDLI
 40
0.38
  9
$DIMRND
 40
0.0
  9
$DIMDLE
 40
0.0
  9
$DIMEXE
 40
0.18
  9
$DIMTP
 40
0.0
  9
$DIMTM
 40
0.0
  9
$DIMTXT
 40
0.18
  9
$DIMCEN
 40
0.09
  9
$DIMTSZ
 40
0.0
  9
$DIMTOL
 70
             0
  9
$DIMLIM
 70
             0
  9
$DIMTIH
 70
             1
  9
$DIMTOH
 70
             1
  9
$DIMSE1
 70
             0
  9
$DIMSE2
 70
             0
  9
$DIMTAD
 70
             0
  9
$DIMZIN
 70
             0
  9
$DIMBLK
  1

  9
$DIMASO
 70
             1
  9
$DIMSHO
 70
             1
  9
$DIMPOST
  1

  9
$DIMAPOST
  1

  9
$DIMALT
 70
             0
  9
$DIMALTD
 70
             2
  9
$DIMALTF
 40
25.4
  9
$DIMLFAC
 40
1.0
  9
$DIMTOFL
 70
             0
  9
$DIMTVP
 40
0.0
  9
$DIMTIX
 70
             0
  9
$DIMSOXD
 70
             0
  9
$DIMSAH
 70
             0
  9
$DIMBLK1
  1

  9
$DIMBLK2
  1

  9
$DIMSTYLE
  2
STANDARD
  9
$DIMCLRD
 70
             0
  9
$DIMCLRE
 70
             0
  9
$DIMCLRT
 70
             0
  9
$DIMTFAC
 40
1.0
  9
$DIMGAP
 40
0.09
  9
$DIMJUST
 70
             0
  9
$DIMSD1
 70
             0
  9
$DIMSD2
 70
             0
  9
$DIMTOLJ
 70
             1
  9
$DIMTZIN
 70
             0
  9
$DIMALTZ
 70
             0
  9
$DIMALTTZ
 70
             0
  9
$DIMFIT
 70
             3
  9
$DIMUPT
 70
             0
  9
$DIMUNIT
 70
             2
  9
$DIMDEC
 70
             4
  9
$DIMTDEC
 70
             4
  9
$DIMALTU
 70
             2
  9
$DIMALTTD
 70
             2
  9
$DIMTXSTY
  7
STANDARD
  9
$DIMAUNIT
 70
             0
  9
$LUNITS
 70
             2
  9
$LUPREC
 70
             4
  9
$SKETCHINC
 40
0.1
  9
$FILLETRAD
 40
0.0
  9
$AUNITS
 70
             0
  9
$AUPREC
 70
             0
  9
$MENU
  1
acad
  9
$ELEVATION
 40
0.0
  9
$PELEVATION
 40
0.0
  9
$THICKNESS
 40
0.0
  9
$LIMCHECK
 70
             0
  9
$BLIPMODE
 70
             1
  9
$CHAMFERA
 40
0.0
  9
$CHAMFERB
 40
0.0
  9
$CHAMFERC
 40
0.0
  9
$CHAMFERD
 40
0.0
  9
$SKPOLY
 70
             0
  9
$TDCREATE
 40
0.000000000
  9
$TDUPDATE
 40
0.000000000
  9
$TDINDWG
 40
0.0000000000
  9
$TDUSRTIMER
 40
0.0000000000
  9
$USRTIMER
 70
             1
  9
$ANGBASE
 50
0.0
  9
$ANGDIR
 70
             0
  9
$PDMODE
 70
             0
  9
$PDSIZE
 40
0.0
  9
$PLINEWID
 40
0.0
  9
$COORDS
 70
             0
  9
$SPLFRAME
 70
             0
  9
$SPLINETYPE
 70
             6
  9
$SPLINESEGS
 70
             8
  9
$ATTDIA
 70
             0
  9
$ATTREQ
 70
             1
  9
$HANDLING
 70
             1
  9
$HANDSEED
  5
6B2
  9
$SURFTAB1
 70
             6
  9
$SURFTAB2
 70
             6
  9
$SURFTYPE
 70
             6
  9
$SURFU
 70
             6
  9
$SURFV
 70
             6
  9
$UCSNAME
  2

  9
$UCSORG
 10
0.0
 20
0.0
 30
0.0
  9
$UCSXDIR
 10
1.0
 20
0.0
 30
0.0
  9
$UCSYDIR
 10
0.0
 20
1.0
 30
0.0
  9
$PUCSNAME
  2

  9
$PUCSORG
 10
0.0
 20
0.0
 30
0.0
  9
$PUCSXDIR
 10
1.0
 20
0.0
 30
0.0
  9
$PUCSYDIR
 10
0.0
 20
1.0
 30
0.0
  9
$USERI1
 70
             0
  9
$USERI2
 70
             0
  9
$USERI3
 70
             0
  9
$USERI4
 70
             0
  9
$USERI5
 70
             0
  9
$USERR1
 40
11.6
  9
$USERR2
 40
0.0
  9
$USERR3
 40
0.0
  9
$USERR4
 40
0.0
  9
$USERR5
 40
0.0
  9
$WORLDVIEW
 70
             1
  9
$SHADEDGE
 70
             3
  9
$SHADEDIF
 70
            70
  9
$TILEMODE
 70
             1
  9
$MAXACTVP
 70
            16
  9
$PINSBASE
 10
0.0
 20
0.0
 30
0.0
  9
$PLIMCHECK
 70
             0
  9
$PEXTMIN
 10
1.00000000000000E+20
 20
1.00000000000000E+20
 30
1.00000000000000E+20
  9
$PEXTMAX
 10
-1.00000000000000E+20
 20
-1.00000000000000E+20
 30
-1.00000000000000E+20
  9
$PLIMMIN
 10
0.0
 20
0.0
  9
$PLIMMAX
 10
12.0
 20
9.0
  9
$UNITMODE
 70
             0
  9
$VISRETAIN
 70
             0
  9
$PLINEGEN
 70
             1
  9
$PSLTSCALE
 70
             0
  9
$TREEDEPTH
 70
          3020
  9
$PICKSTYLE
 70
             1
  9
$CMLSTYLE
  2
STANDARD
  9
$CMLJUST
 70
             0
  9
$CMLSCALE
 40
1.0
  9
$PROXYGRAPHICS
 70
             0
  9
$MEASUREMENT
 70
             1
  0
ENDSEC
  0
SECTION
  2
CLASSES
  0
CLASS
  1
LWPOLYLINE
  2
AcDbPolyline
  3
"AutoCAD"
 90
        0
280
             0
281
             1
  0
CLASS
  1
IMAGE
  2
AcDbRasterImage
  3
ISM
 90
      127
280
             0
281
             1
  0
CLASS
  1
OLE2FRAME
  2
AcDbOle2Frame
  3
""
 90
        0
280
             0
281
             1
  0
CLASS
  1
HATCH
  2
AcDbHatch
  3
"ACAD_SEDONA"
 90
        0
280
             0
281
             1
  0
CLASS
  1
DICTIONARYVAR
  2
AcDbDictionaryVar
  3
"AutoCAD"
 90
        0
280
             0
281
             0
  0
CLASS
  1
RASTERVARIABLES
  2
AcDbRasterVariables
  3
ISM
 90
        0
280
             0
281
             0
  0
CLASS
  1
IMAGEDEF
  2
AcDbRasterImageDef
  3
ISM
 90
        0
280
             0
281
             0
  0
CLASS
  1
IMAGEDEF_REACTOR
  2
AcDbRasterImageDefReactor
  3
ISM
 90
        1
280
             0
281
             0
  0
CLASS
  1
IDBUFFER
  2
AcDbIdBuffer
  3
"Acad"
 90
        0
280
             0
281
             0
  0
CLASS
  1
SPATIAL_FILTER
  2
AcDbSpatialFilter
  3
"Acad"
 90
        0
280
             0
281
             0
  0
CLASS
  1
XRECORD
  2
AcDbXrecord
  3
"<Built In>"
 90
        0
280
             0
281
             0
  0
CLASS
  1
SORTENTSTABLE
  2
AcDbSortentsTable
  3
"AutoCAD"
 90
        0
280
             0
281
             0
  0
CLASS
  1
LAYER_INDEX
  2
AcDbLayerIndex
  3
"Acad"
 90
        0
280
             0
281
             0
  0
CLASS
  1
SPATIAL_INDEX
  2
AcDbSpatialIndex
  3
"Acad"
 90
        0
280
             0
281
             0
  0
CLASS
  1
OBJECT_PTR
  2
CAseDLPNTableRecord
  3
"ASE-LPNTableRecord"
 90
        1
280
             0
281
             0
  0
CLASS
  1
LAYOUT
  2
AcDbLayout
  3
"AutoCAD 2000"
 90
        1
280
             0
281
             0
  0
CLASS
  1
PLOTSETTINGS
  2
AcDbPlotSettings
  3
"AutoCAD 2000"
 90
        1
280
             0
281
             0
  0
CLASS
  1
ACDBDICTIONARYWDFLT
  2
AcDbDictionaryWithDefault
  3
"AutoCAD 2000"
 90
        1
280
             0
281
             0
  0
CLASS
  1
ACDBPLACEHOLDER
  2
AcDbPlaceHolder
  3
"AutoCAD 2000"
 90
        1
280
             0
281
             0
  0
ENDSEC
  0
SECTION
  2
TABLES
  0
TABLE
  2
VPORT
  5
7
100
AcDbSymbolTable
 70
             1
  0
VPORT
  5
15
100
AcDbSymbolTableRecord
100
AcDbViewportTableRecord
  2
*ACTIVE
 70
             0
 10
0.0
 20
0.0
 11
1.0
 21
1.0
 12
156.02503603342933
 22
122.67472427745395
 13
0.0
 23
0.0
 14
1.0
 24
1.0
 15
0.0
 25
0.0
 16
0.0
 26
0.0
 36
1.0
 17
0.0
 27
0.0
 37
0.0
 40
173.64679665738177
 41
1.60267857142857
 42
50.0
 43
0.0
 44
0.0
 50
0.0
 51
0.0
 71
             0
 72
           100
 73
             1
 74
             1
 75
             0
 76
             0
 77
             0
 78
             0
  0
ENDTAB
  0
TABLE
  2
LTYPE
  5
4
100
AcDbSymbolTable
 70
            10
  0
LTYPE
  5
11
100
AcDbSymbolTableRecord
100
AcDbLinetypeTableRecord
  2
BYBLOCK
 70
            64
  3

 72
            65
 73
             0
 40
0.0
  0
LTYPE
  5
12
100
AcDbSymbolTableRecord
100
AcDbLinetypeTableRecord
  2
BYLAYER
 70
            64
  3

 72
            65
 73
             0
 40
0.0
  0
LTYPE
  5
13
100
AcDbSymbolTableRecord
100
AcDbLinetypeTableRecord
  2
CONTINUOUS
 70
            64
  3
Solid line
 72
            65
 73
             0
 40
0.0
  0
LTYPE
  5
1D
100
AcDbSymbolTableRecord
100
AcDbLinetypeTableRecord
  2
DASHED
 70
            64
  3
Dashed
 72
            65
 73
             2
 40
15.0
 49
12.0
 74
             0
 49
-3.0
 74
             0
  0
LTYPE
  5
1E
100
AcDbSymbolTableRecord
100
AcDbLinetypeTableRecord
  2
DOTTED
 70
            64
  3
Dotted
 72
            65
 73
             2
 40
3.5
 49
0.5
 74
             0
 49
-3.0
 74
             0
  0
LTYPE
  5
1F
100
AcDbSymbolTableRecord
100
AcDbLinetypeTableRecord
  2
DOT_CENTER
 70
            64
  3
Dot_Center
 72
            65
 73
             4
 40
2.0
 49
1.25
 74
             0
 49
-0.25
 74
             0
 49
0.25
 74
             0
 49
-0.25
 74
             0
  0
LTYPE
  5
20
100
AcDbSymbolTableRecord
100
AcDbLinetypeTableRecord
  2
LONG_DASHED
 70
            64
  3
Long_Dashed
 72
            65
 73
             2
 40
2.0
 49
1.5
 74
             0
 49
-0.5
 74
             0
  0
LTYPE
  5
21
100
AcDbSymbolTableRecord
100
AcDbLinetypeTableRecord
  2
DASH_CENTER
 70
            64
  3
Dash_Center
 72
            65
 73
             4
 40
36.0
 49
24.0
 74
             0
 49
-3.0
 74
             0
 49
6.0
 74
             0
 49
-3.0
 74
             0
  0
LTYPE
  5
22
100
AcDbSymbolTableRecord
100
AcDbLinetypeTableRecord
  2
PHANTOM
 70
            64
  3
Phantom
 72
            65
 73
             6
 40
2.5
 49
1.25
 74
             0
 49
-0.25
 74
             0
 49
0.25
 74
             0
 49
-0.25
 74
             0
 49
0.25
 74
             0
 49
-0.25
 74
             0
  0
LTYPE
  5
23
100
AcDbSymbolTableRecord
100
AcDbLinetypeTableRecord
  2
CENTER_DASH_DASH
 70
            64
  3
Center_Dash_Dash
 72
            65
 73
             6
 40
22.0
 49
12.0
 74
             0
 49
-3.0
 74
             0
 49
0.5
 74
             0
 49
-3.0
 74
             0
 49
0.5
 74
             0
 49
-3.0
 74
             0
  0
ENDTAB
  0
TABLE
  2
LAYER
  5
2
100
AcDbSymbolTable
 70
             2
  0
LAYER
  5
14
100
AcDbSymbolTableRecord
100
AcDbLayerTableRecord
  2
0
 70
             0
 62
             7
  6
CONTINUOUS
  0
LAYER
  5
24
100
AcDbSymbolTableRecord
100
AcDbLayerTableRecord
  2
1
 70
             0
 62
             7
  6
CONTINUOUS
  0
ENDTAB
  0
TABLE
  2
STYLE
  5
3
100
AcDbSymbolTable
 70
             1
  0
STYLE
  5
17
100
AcDbSymbolTableRecord
100
AcDbTextStyleTableRecord
  2
STANDARD
 70
             0
 40
0.0
 41
1.0
 50
0.0
 71
             0
 42
0.0
  3
txt
  4

  0
ENDTAB
  0
TABLE
  2
VIEW
  5
5
100
AcDbSymbolTable
 70
             0
  0
ENDTAB
  0
TABLE
  2
UCS
  5
6
100
AcDbSymbolTable
 70
             0
  0
ENDTAB
  0
TABLE
  2
APPID
  5
8
100
AcDbSymbolTable
 70
             1
  0
APPID
  5
16
100
AcDbSymbolTableRecord
100
AcDbRegAppTableRecord
  2
ACAD
 70
             0
  0
ENDTAB
  0
TABLE
  2
DIMSTYLE
  5
9
100
AcDbSymbolTable
 70
             1
  0
DIMSTYLE
105
18
100
AcDbSymbolTableRecord
100
AcDbDimStyleTableRecord
  2
STANDARD
 70
             0
  3

  4

  5

  6

  7

 40
1.0
 41
0.18
 42
0.0625
 43
0.38
 44
0.18
 45
0.0
 46
0.0
 47
0.0
 48
0.0
 71
             0
 72
             0
 73
             1
 74
             1
 75
             0
 76
             0
 77
             0
 78
             0
140
0.18
141
0.09
142
0.0
143
25.4
144
1.0
145
0.0
146
1.0
147
0.09
170
             0
171
             2
172
             0
173
             0
174
             0
175
             0
176
             0
177
             0
178
             0
270
             2
271
             4
272
             4
273
             2
274
             2
275
             0
280
             0
281
             0
282
             0
283
             1
284
             0
285
             0
286
             0
287
             0
288
             0
340
17
  0
ENDTAB
  0
TABLE
  2
BLOCK_RECORD
  5
1
100
AcDbSymbolTable
 70
             0
  0
BLOCK_RECORD
  5
A
100
AcDbSymbolTableRecord
100
AcDbBlockTableRecord
  2
*MODEL_SPACE
  0
BLOCK_RECORD
  5
B
100
AcDbSymbolTableRecord
100
AcDbBlockTableRecord
  2
*PAPER_SPACE
  0
ENDTAB
  0
ENDSEC
  0
SECTION
  2
BLOCKS
  0
BLOCK
  5
D
100
AcDbEntity
  8
0
100
AcDbBlockBegin
  2
*MODEL_SPACE
 70
             0
 10
0.0
 20
0.0
 30
0.0
  3
*MODEL_SPACE
  1

  0
ENDBLK
  5
E
100
AcDbEntity
  8
0
100
AcDbBlockEnd
  0
BLOCK
  5
F
100
AcDbEntity
 67
             1
  8
0
100
AcDbBlockBegin
  2
*PAPER_SPACE
 70
             0
 10
0.0
 20
0.0
 30
0.0
  3
*PAPER_SPACE
  1

  0
ENDBLK
  5
10
100
AcDbEntity
 67
             1
  8
0
100
AcDbBlockEnd
  0
ENDSEC
  0
SECTION
  2
ENTITIES
  0
LWPOLYLINE
  5
6B0
100
AcDbEntity
  8
0
  6
CONTINUOUS
 62
             7
100
AcDbPolyline
 90
       24
 70
             0
 10
278.92570518324499
 20
134.8547242774539
 42
0.05655884214787
 10
278.92794453044309
 20
134.83512448523263
 10
278.92794453044303
 20
134.8351244852326
 42
0.05494499395176
 10
278.93449514208527
 20
134.81645605057213
 10
278.93449514208521
 20
134.8164560505721
 42
0.05283448426512
 10
278.94510587324356
 20
134.79924405982288
 10
278.94510587324362
 20
134.79924405982291
 42
0.05071056334417
 10
278.95952557899005
 20
134.78401359933525
 10
278.95952557899011
 20
134.78401359933531
 42
0.0475913405985
 10
278.97711219991493
 20
134.7715257678438
 10
278.97711219991493
 20
134.7715257678438
 42
0.04493851599742
 10
278.99698689489975
 20
134.76233660510789
 10
278.99698689489981
 20
134.762336605108
 42
0.04338379276822
 10
279.01854334645282
 20
134.75666360901553
 10
279.01854334645282
 20
134.7566636090155
 42
0.04300379217676
 10
279.04117523708283
 20
134.75472427745405
 10
279.04117523708283
 20
134.75472427745405
 10
279.04117523708283
 20
134.75472427745405
 10
279.04117523708283
 20
134.75472427745405
 10
279.04117523708283
 20
134.75472427745405
 10
279.04117523708283
 20
134.75472427745405
 10
279.04117523708283
 20
134.75472427745405
 10
279.04117523708283
 20
134.75472427745405
 10
279.04117523708283
 20
134.75472427745405
  0
LWPOLYLINE
  5
6AE
100
AcDbEntity
  8
0
  6
CONTINUOUS
 62
             7
100
AcDbPolyline
 90
       24
 70
             0
 10
279.15790699223169
 20
134.7547242774541
 42
0.08598499065002
 10
279.16663620559279
 20
134.75625977122215
 10
279.16663620559291
 20
134.75625977122189
 42
0.07394897152069
 10
279.17502052428387
 20
134.76076441538038
 10
279.17502052428381
 20
134.76076441538049
 42
0.05829107983676
 10
279.18287555584192
 20
134.76808545421159
 10
279.18287555584192
 20
134.76808545421159
 42
0.04543951443558
 10
279.19001690780351
 20
134.77807013199671
 10
279.19001690780351
 20
134.77807013199671
 42
0.04604600347705
 10
279.19702590141105
 20
134.79244346597554
 10
279.19702590141111
 20
134.79244346597551
 42
0.03630041805157
 10
279.20296273134369
 20
134.81136675924398
 10
279.20296273134358
 20
134.81136675924401
 42
0.03084976034852
 10
279.20664387187884
 20
134.83238829719204
 10
279.20664387187901
 20
134.83238829719201
 42
0.02869611407671
 10
279.20790699223187
 20
134.8547242774539
 10
279.20790699223187
 20
134.8547242774539
 10
279.20790699223187
 20
134.8547242774539
 10
279.20790699223187
 20
134.8547242774539
 10
279.20790699223187
 20
134.8547242774539
 10
279.20790699223187
 20
134.8547242774539
 10
279.20790699223187
 20
134.8547242774539
 10
279.20790699223187
 20
134.8547242774539
 10
279.20790699223187
 20
134.8547242774539
  0
LWPOLYLINE
  5
6AC
100
AcDbEntity
  8
0
  6
CONTINUOUS
 62
             7
100
AcDbPolyline
 90
       24
 70
             0
 10
279.07044633289013
 20
134.75472427745396
 42
-0.11290225104168
 10
279.06390629112951
 20
134.75625977122189
 10
279.06390629112951
 20
134.75625977122192
 42
-0.08562984556334
 10
279.05762464900351
 20
134.76076441538049
 10
279.05762464900357
 20
134.76076441538058
 42
-0.05804147179641
 10
279.05173955577732
 20
134.76808545421159
 10
279.0517395557772
 20
134.76808545421153
 42
-0.04044237361937
 10
279.04638916071571
 20
134.77807013199671
 10
279.04638916071571
 20
134.77807013199671
 42
-0.03802542551862
 10
279.04113793027852
 20
134.79244346597551
 10
279.04113793027847
 20
134.79244346597551
 42
-0.02845645005819
 10
279.03668997900502
 20
134.81136675924401
 10
279.03668997900508
 20
134.81136675924401
 42
-0.02348127220883
 10
279.03393201997352
 20
134.83238829719201
 10
279.03393201997341
 20
134.83238829719201
 42
-0.02155138843238
 10
279.03298567354852
 20
134.8547242774539
 10
279.03298567354852
 20
134.8547242774539
 10
279.03298567354852
 20
134.8547242774539
 10
279.03298567354852
 20
134.8547242774539
 10
279.03298567354852
 20
134.8547242774539
 10
279.03298567354852
 20
134.8547242774539
 10
279.03298567354852
 20
134.8547242774539
 10
279.03298567354852
 20
134.8547242774539
 10
279.03298567354852
 20
134.8547242774539
  0
LWPOLYLINE
  5
6AA
100
AcDbEntity
  8
0
  6
CONTINUOUS
 62
             7
100
AcDbPolyline
 90
       30
 70
             0
 10
275.66622970308242
 20
134.45472427745401
 42
0.00014668248541
 10
275.64669868037902
 20
134.43079420895754
 10
275.64669868037907
 20
134.43079420895751
 10
275.62290250786339
 20
134.40155331266359
 10
275.62290250786339
 20
134.40155331266359
 42
0.00269857742845
 10
275.5775763485895
 20
134.34516227655487
 10
275.57757634858962
 20
134.34516227655479
 42
0.0054850012341
 10
275.53724974578165
 20
134.29327724688292
 10
275.53724974578171
 20
134.29327724688289
 10
275.5237832314923
 20
134.2752437874509
 10
275.5237832314923
 20
134.2752437874509
 42
0.00920357053022
 10
275.50075055388396
 20
134.24278424974355
 10
275.5007505538839
 20
134.24278424974361
 10
275.48902484818922
 20
134.2248199240255
 10
275.48902484818922
 20
134.2248199240255
 42
0.02874907220736
 10
275.47300540620279
 20
134.19585718990965
 10
275.47300540620267
 20
134.1958571899097
 10
275.46857982616149
 20
134.1846289799243
 10
275.46857982616149
 20
134.1846289799243
 42
0.06869315119222
 10
275.46622970308243
 20
134.17188156497929
 10
275.46622970308243
 20
134.17188156497929
 10
275.46622970308243
 20
134.17188156497929
 10
275.46622970308243
 20
134.17188156497929
 10
275.46622970308243
 20
134.17188156497929
 10
275.46622970308243
 20
134.17188156497929
 10
275.46622970308243
 20
134.17188156497929
 10
275.46622970308243
 20
134.17188156497929
 10
275.46622970308243
 20
134.17188156497929
 10
275.46622970308243
 20
134.17188156497929
 10
275.46622970308243
 20
134.17188156497929
  0
LWPOLYLINE
  5
6A8
100
AcDbEntity
  8
0
  6
CONTINUOUS
 62
             7
100
AcDbPolyline
 90
       24
 70
             0
 10
280.75512822064832
 20
134.7547242774541
 42
0.02820087011858
 10
280.79980018117249
 20
134.75725051815982
 10
280.79980018117249
 20
134.75725051815959
 42
0.02994128659893
 10
280.84184325706849
 20
134.76461279923006
 10
280.84184325706849
 20
134.76461279923009
 42
0.03475851181196
 10
280.87968984360538
 20
134.77648645909528
 10
280.87968984360532
 20
134.77648645909539
 42
0.0337870594897
 10
280.90843651156285
 20
134.79050444631039
 10
280.90843651156291
 20
134.79050444631031
 42
0.04251909985114
 10
280.92840586713351
 20
134.80478715023384
 10
280.92840586713351
 20
134.80478715023381
 42
0.05459567208487
 10
280.94304794479535
 20
134.8204972133498
 10
280.94304794479518
 20
134.82049721334991
 42
0.07025385278805
 10
280.95205723311221
 20
134.83726585073202
 10
280.95205723311233
 20
134.837265850732
 42
0.08465961091683
 10
280.95512822064836
 20
134.8547242774539
 10
280.95512822064836
 20
134.8547242774539
 10
280.95512822064836
 20
134.8547242774539
 10
280.95512822064836
 20
134.8547242774539
 10
280.95512822064836
 20
134.8547242774539
 10
280.95512822064836
 20
134.8547242774539
 10
280.95512822064836
 20
134.8547242774539
 10
280.95512822064836
 20
134.8547242774539
 10
280.95512822064836
 20
134.8547242774539
  0
LWPOLYLINE
  5
6A6
100
AcDbEntity
  8
0
  6
CONTINUOUS
 62
             7
100
AcDbPolyline
 90
       30
 70
             0
 10
282.41233436804998
 20
134.15472427745411
 42
-0.1158274595002
 10
282.3931943608394
 20
134.1600726477966
 10
282.3931943608394
 20
134.16007264779662
 42
-0.04088191696049
 10
282.36329434475681
 20
134.17702255409699
 10
282.36329434475681
 20
134.17702255409699
 10
282.3438793811037
 20
134.19020966084531
 10
282.3438793811037
 20
134.19020966084531
 10
282.32146122791391
 20
134.20656558406651
 10
282.32146122791391
 20
134.20656558406648
 42
-0.00816828456278
 10
282.27682362392591
 20
134.2412786407528
 10
282.27682362392591
 20
134.2412786407528
 10
282.25164840122812
 20
134.2616532960468
 10
282.25164840122824
 20
134.26165329604692
 42
-0.00436956719657
 10
282.18254477261519
 20
134.31927814433041
 10
282.18254477261507
 20
134.3192781443303
 42
-0.00214849609759
 10
282.10687097186798
 20
134.3839795394307
 10
282.10687097186798
 20
134.3839795394307
 10
282.06743613101872
 20
134.4180220081069
 10
282.06743613101878
 20
134.41802200810693
 42
-0.00017548516139
 10
282.02503603342922
 20
134.45472427745403
 10
282.02503603342922
 20
134.45472427745403
 10
282.02503603342922
 20
134.45472427745403
 10
282.02503603342922
 20
134.45472427745403
 10
282.02503603342922
 20
134.45472427745403
 10
282.02503603342922
 20
134.45472427745403
 10
282.02503603342922
 20
134.45472427745403
 10
282.02503603342922
 20
134.45472427745403
 10
282.02503603342922
 20
134.45472427745403
 10
282.02503603342922
 20
134.45472427745403
 10
282.02503603342922
 20
134.45472427745403
  0
LWPOLYLINE
  5
6A4
100
AcDbEntity
  8
0
  6
CONTINUOUS
 62
             7
100
AcDbPolyline
 90
       24
 70
             0
 10
278.92570518324499
 20
131.04472427745389
 42
0.05655884214787
 10
278.92794453044309
 20
131.02512448523262
 10
278.92794453044303
 20
131.0251244852326
 42
0.05494499395146
 10
278.93449514208527
 20
131.00645605057224
 10
278.93449514208521
 20
131.00645605057221
 42
0.0528344842654
 10
278.94510587324362
 20
130.98924405982291
 10
278.94510587324362
 20
130.98924405982291
 42
0.05071056334421
 10
278.95952557899005
 20
130.97401359933525
 10
278.95952557899011
 20
130.97401359933531
 42
0.0475913405985
 10
278.97711219991493
 20
130.9615257678438
 10
278.97711219991493
 20
130.9615257678438
 42
0.04493851599753
 10
278.99698689489981
 20
130.95233660510789
 10
278.99698689489981
 20
130.95233660510789
 42
0.04338379276818
 10
279.01854334645282
 20
130.94666360901545
 10
279.01854334645282
 20
130.9466636090155
 42
0.04300379217672
 10
279.04117523708283
 20
130.94472427745407
 10
279.04117523708283
 20
130.94472427745407
 10
279.04117523708283
 20
130.94472427745407
 10
279.04117523708283
 20
130.94472427745407
 10
279.04117523708283
 20
130.94472427745407
 10
279.04117523708283
 20
130.94472427745407
 10
279.04117523708283
 20
130.94472427745407
 10
279.04117523708283
 20
130.94472427745407
 10
279.04117523708283
 20
130.94472427745407
  0
LWPOLYLINE
  5
6A2
100
AcDbEntity
  8
0
  6
CONTINUOUS
 62
             7
100
AcDbPolyline
 90
       24
 70
             0
 10
279.15790699223169
 20
130.94472427745399
 42
0.08598499065032
 10
279.16663620559291
 20
130.94625977122203
 10
279.16663620559291
 20
130.946259771222
 42
0.07394897152092
 10
279.17502052428387
 20
130.95076441538049
 10
279.17502052428381
 20
130.9507644153806
 42
0.0582910798361
 10
279.1828755558418
 20
130.95808545421158
 10
279.18287555584192
 20
130.9580854542115
 42
0.04543951443616
 10
279.19001690780362
 20
130.96807013199674
 10
279.19001690780351
 20
130.9680701319968
 42
0.04604600347681
 10
279.197025901411
 20
130.98244346597554
 10
279.19702590141111
 20
130.98244346597551
 42
0.03630041805176
 10
279.20296273134375
 20
131.00136675924406
 10
279.20296273134358
 20
131.00136675924409
 42
0.03084976034839
 10
279.20664387187878
 20
131.02238829719204
 10
279.20664387187901
 20
131.02238829719201
 42
0.02869611407671
 10
279.20790699223187
 20
131.04472427745389
 10
279.20790699223187
 20
131.04472427745389
 10
279.20790699223187
 20
131.04472427745389
 10
279.20790699223187
 20
131.04472427745389
 10
279.20790699223187
 20
131.04472427745389
 10
279.20790699223187
 20
131.04472427745389
 10
279.20790699223187
 20
131.04472427745389
 10
279.20790699223187
 20
131.04472427745389
 10
279.20790699223187
 20
131.04472427745389
  0
LWPOLYLINE
  5
6A0
100
AcDbEntity
  8
0
  6
CONTINUOUS
 62
             7
100
AcDbPolyline
 90
       24
 70
             0
 10
279.07044633289013
 20
130.94472427745404
 42
-0.11290225104251
 10
279.06390629112951
 20
130.946259771222
 10
279.06390629112951
 20
130.94625977122203
 42
-0.08562984556342
 10
279.05762464900351
 20
130.9507644153806
 10
279.05762464900351
 20
130.95076441538058
 42
-0.05804147179572
 10
279.05173955577732
 20
130.9580854542115
 10
279.05173955577726
 20
130.95808545421147
 42
-0.04044237361995
 10
279.04638916071571
 20
130.9680701319968
 10
279.04638916071565
 20
130.96807013199677
 42
-0.03802542551843
 10
279.04113793027852
 20
130.98244346597551
 10
279.04113793027852
 20
130.98244346597551
 42
-0.02845645005833
 10
279.03668997900502
 20
131.00136675924409
 10
279.03668997900508
 20
131.00136675924409
 42
-0.02348127220874
 10
279.03393201997352
 20
131.02238829719201
 10
279.03393201997346
 20
131.02238829719201
 42
-0.02155138843238
 10
279.03298567354852
 20
131.04472427745389
 10
279.03298567354852
 20
131.04472427745389
 10
279.03298567354852
 20
131.04472427745389
 10
279.03298567354852
 20
131.04472427745389
 10
279.03298567354852
 20
131.04472427745389
 10
279.03298567354852
 20
131.04472427745389
 10
279.03298567354852
 20
131.04472427745389
 10
279.03298567354852
 20
131.04472427745389
 10
279.03298567354852
 20
131.04472427745389
  0
LWPOLYLINE
  5
69E
100
AcDbEntity
  8
0
  6
CONTINUOUS
 62
             7
100
AcDbPolyline
 90
       30
 70
             0
 10
275.66622970308242
 20
130.6447242774542
 42
0.00014668248541
 10
275.64669868037902
 20
130.62079420895773
 10
275.64669868037907
 20
130.6207942089577
 10
275.62290250786339
 20
130.59155331266371
 10
275.62290250786339
 20
130.59155331266371
 42
0.00269857742846
 10
275.57757634858945
 20
130.5351622765549
 10
275.57757634858962
 20
130.53516227655479
 42
0.0054850012341
 10
275.53724974578165
 20
130.48327724688292
 10
275.53724974578171
 20
130.48327724688289
 10
275.5237832314923
 20
130.4652437874509
 10
275.5237832314923
 20
130.4652437874509
 42
0.00920357053018
 10
275.50075055388407
 20
130.43278424974369
 10
275.5007505538839
 20
130.4327842497438
 10
275.48902484818922
 20
130.41481992402549
 10
275.48902484818922
 20
130.41481992402549
 42
0.02874907220745
 10
275.47300540620273
 20
130.38585718990956
 10
275.47300540620267
 20
130.38585718990959
 10
275.46857982616149
 20
130.3746289799243
 10
275.46857982616149
 20
130.3746289799243
 42
0.06869315119162
 10
275.46622970308243
 20
130.3618815649794
 10
275.46622970308243
 20
130.3618815649794
 10
275.46622970308243
 20
130.3618815649794
 10
275.46622970308243
 20
130.3618815649794
 10
275.46622970308243
 20
130.3618815649794
 10
275.46622970308243
 20
130.3618815649794
 10
275.46622970308243
 20
130.3618815649794
 10
275.46622970308243
 20
130.3618815649794
 10
275.46622970308243
 20
130.3618815649794
 10
275.46622970308243
 20
130.3618815649794
 10
275.46622970308243
 20
130.3618815649794
  0
LWPOLYLINE
  5
69C
100
AcDbEntity
  8
0
  6
CONTINUOUS
 62
             7
100
AcDbPolyline
 90
       24
 70
             0
 10
280.75512822064832
 20
130.94472427745399
 42
0.02820087011857
 10
280.79980018117249
 20
130.94725051815971
 10
280.79980018117249
 20
130.94725051815959
 42
0.02994128659897
 10
280.84184325706855
 20
130.95461279923006
 10
280.84184325706849
 20
130.9546127992302
 42
0.03475851181192
 10
280.87968984360532
 20
130.96648645909539
 10
280.87968984360532
 20
130.96648645909539
 42
0.0337870594897
 10
280.90843651156285
 20
130.98050444631039
 10
280.90843651156291
 20
130.98050444631031
 42
0.04251909985112
 10
280.92840586713351
 20
130.99478715023383
 10
280.92840586713351
 20
130.9947871502338
 42
0.05459567208487
 10
280.94304794479535
 20
131.01049721334979
 10
280.94304794479518
 20
131.01049721334991
 42
0.07025385278852
 10
280.95205723311227
 20
131.02726585073214
 10
280.95205723311233
 20
131.02726585073211
 42
0.08465961091631
 10
280.95512822064831
 20
131.04472427745389
 10
280.95512822064831
 20
131.04472427745389
 10
280.95512822064831
 20
131.04472427745389
 10
280.95512822064831
 20
131.04472427745389
 10
280.95512822064831
 20
131.04472427745389
 10
280.95512822064831
 20
131.04472427745389
 10
280.95512822064831
 20
131.04472427745389
 10
280.95512822064831
 20
131.04472427745389
 10
280.95512822064831
 20
131.04472427745389
  0
LWPOLYLINE
  5
69A
100
AcDbEntity
  8
0
  6
CONTINUOUS
 62
             7
100
AcDbPolyline
 90
       30
 70
             0
 10
282.41233436804998
 20
130.34472427745405
 42
-0.11582745949997
 10
282.3931943608394
 20
130.35007264779651
 10
282.39319436083946
 20
130.35007264779668
 42
-0.0408819169606
 10
282.36329434475681
 20
130.3670225540971
 10
282.36329434475681
 20
130.3670225540971
 10
282.3438793811037
 20
130.38020966084531
 10
282.3438793811037
 20
130.38020966084531
 10
282.32146122791391
 20
130.39656558406659
 10
282.32146122791386
 20
130.39656558406651
 42
-0.00816828456277
 10
282.27682362392591
 20
130.43127864075279
 10
282.27682362392591
 20
130.43127864075279
 10
282.25164840122812
 20
130.4516532960468
 10
282.25164840122824
 20
130.45165329604691
 42
-0.00436956719657
 10
282.18254477261519
 20
130.50927814433041
 10
282.18254477261507
 20
130.5092781443303
 42
-0.00214849609759
 10
282.10687097186798
 20
130.5739795394307
 10
282.10687097186798
 20
130.5739795394307
 10
282.06743613101872
 20
130.60802200810679
 10
282.06743613101895
 20
130.60802200810701
 42
-0.00017548516139
 10
282.02503603342922
 20
130.6447242774542
 10
282.02503603342922
 20
130.6447242774542
 10
282.02503603342922
 20
130.6447242774542
 10
282.02503603342922
 20
130.6447242774542
 10
282.02503603342922
 20
130.6447242774542
 10
282.02503603342922
 20
130.6447242774542
 10
282.02503603342922
 20
130.6447242774542
 10
282.02503603342922
 20
130.6447242774542
 10
282.02503603342922
 20
130.6447242774542
 10
282.02503603342922
 20
130.6447242774542
 10
282.02503603342922
 20
130.6447242774542
  0
LWPOLYLINE
  5
698
100
AcDbEntity
  8
0
  6
CONTINUOUS
 62
             7
100
AcDbPolyline
 90
       24
 70
             0
 10
278.92570518324499
 20
127.23472427745391
 42
0.05655884214796
 10
278.92794453044309
 20
127.21512448523261
 10
278.92794453044303
 20
127.21512448523259
 42
0.05494499395149
 10
278.93449514208527
 20
127.19645605057222
 10
278.93449514208521
 20
127.19645605057219
 42
0.05283448426536
 10
278.94510587324362
 20
127.17924405982291
 10
278.94510587324362
 20
127.17924405982291
 42
0.05071056334421
 10
278.95952557899005
 20
127.16401359933525
 10
278.95952557899011
 20
127.16401359933531
 42
0.04759134059848
 10
278.97711219991493
 20
127.15152576784381
 10
278.97711219991493
 20
127.15152576784379
 42
0.04493851599754
 10
278.99698689489981
 20
127.14233660510787
 10
278.99698689489981
 20
127.1423366051079
 42
0.04338379276818
 10
279.01854334645282
 20
127.13666360901544
 10
279.01854334645282
 20
127.1366636090154
 42
0.04300379217669
 10
279.04117523708283
 20
127.13472427745396
 10
279.04117523708283
 20
127.13472427745396
 10
279.04117523708283
 20
127.13472427745396
 10
279.04117523708283
 20
127.13472427745396
 10
279.04117523708283
 20
127.13472427745396
 10
279.04117523708283
 20
127.13472427745396
 10
279.04117523708283
 20
127.13472427745396
 10
279.04117523708283
 20
127.13472427745396
 10
279.04117523708283
 20
127.13472427745396
  0
LWPOLYLINE
  5
696
100
AcDbEntity
  8
0
  6
CONTINUOUS
 62
             7
100
AcDbPolyline
 90
       24
 70
             0
 10
279.15790699223169
 20
127.134724277454
 42
0.08598499064985
 10
279.16663620559285
 20
127.13625977122203
 10
279.16663620559291
 20
127.1362597712219
 42
0.07394897152078
 10
279.17502052428392
 20
127.14076441538037
 10
279.17502052428381
 20
127.1407644153805
 42
0.05829107983686
 10
279.18287555584192
 20
127.1480854542116
 10
279.18287555584192
 20
127.1480854542116
 42
0.04543951443574
 10
279.19001690780357
 20
127.15807013199675
 10
279.19001690780351
 20
127.15807013199679
 42
0.04604600347685
 10
279.197025901411
 20
127.17244346597555
 10
279.19702590141111
 20
127.1724434659755
 42
0.03630041805193
 10
279.20296273134375
 20
127.19136675924416
 10
279.20296273134358
 20
127.1913667592442
 42
0.03084976034823
 10
279.20664387187878
 20
127.21238829719204
 10
279.20664387187901
 20
127.21238829719201
 42
0.02869611407672
 10
279.20790699223187
 20
127.23472427745391
 10
279.20790699223187
 20
127.23472427745391
 10
279.20790699223187
 20
127.23472427745391
 10
279.20790699223187
 20
127.23472427745391
 10
279.20790699223187
 20
127.23472427745391
 10
279.20790699223187
 20
127.23472427745391
 10
279.20790699223187
 20
127.23472427745391
 10
279.20790699223187
 20
127.23472427745391
 10
279.20790699223187
 20
127.23472427745391
  0
LWPOLYLINE
  5
694
100
AcDbEntity
  8
0
  6
CONTINUOUS
 62
             7
100
AcDbPolyline
 90
       24
 70
             0
 10
279.07044633289013
 20
127.13472427745396
 42
-0.11290225104179
 10
279.06390629112951
 20
127.1362597712219
 10
279.06390629112957
 20
127.13625977122197
 42
-0.08562984556313
 10
279.05762464900351
 20
127.1407644153805
 10
279.05762464900357
 20
127.14076441538057
 42
-0.05804147179649
 10
279.05173955577732
 20
127.1480854542116
 10
279.05173955577726
 20
127.14808545421154
 42
-0.04044237361971
 10
279.04638916071571
 20
127.15807013199679
 10
279.04638916071565
 20
127.15807013199677
 42
-0.03802542551843
 10
279.04113793027852
 20
127.1724434659755
 10
279.04113793027852
 20
127.1724434659755
 42
-0.0284564500585
 10
279.03668997900502
 20
127.1913667592442
 10
279.03668997900508
 20
127.19136675924422
 42
-0.0234812722086
 10
279.03393201997352
 20
127.21238829719201
 10
279.03393201997346
 20
127.21238829719201
 42
-0.0215513884324
 10
279.03298567354852
 20
127.23472427745391
 10
279.03298567354852
 20
127.23472427745391
 10
279.03298567354852
 20
127.23472427745391
 10
279.03298567354852
 20
127.23472427745391
 10
279.03298567354852
 20
127.23472427745391
 10
279.03298567354852
 20
127.23472427745391
 10
279.03298567354852
 20
127.23472427745391
 10
279.03298567354852
 20
127.23472427745391
 10
279.03298567354852
 20
127.23472427745391
  0
LWPOLYLINE
  5
692
100
AcDbEntity
  8
0
  6
CONTINUOUS
 62
             7
100
AcDbPolyline
 90
       30
 70
             0
 10
275.66622970308242
 20
126.83472427745411
 42
0.00014668248541
 10
275.64669868037907
 20
126.81079420895767
 10
275.64669868037907
 20
126.8107942089577
 10
275.62290250786339
 20
126.7815533126637
 10
275.62290250786339
 20
126.7815533126637
 42
0.00269857742845
 10
275.5775763485895
 20
126.72516227655491
 10
275.57757634858962
 20
126.7251622765548
 42
0.00548500123409
 10
275.53724974578171
 20
126.673277246883
 10
275.53724974578171
 20
126.673277246883
 10
275.5237832314923
 20
126.6552437874509
 10
275.5237832314923
 20
126.6552437874509
 42
0.00920357053018
 10
275.50075055388407
 20
126.6227842497437
 10
275.5007505538839
 20
126.6227842497438
 10
275.48902484818922
 20
126.60481992402551
 10
275.48902484818922
 20
126.60481992402551
 42
0.02874907220747
 10
275.47300540620273
 20
126.57585718990956
 10
275.47300540620267
 20
126.5758571899096
 10
275.46857982616149
 20
126.56462897992429
 10
275.46857982616149
 20
126.56462897992429
 42
0.06869315119164
 10
275.46622970308249
 20
126.5518815649794
 10
275.46622970308249
 20
126.5518815649794
 10
275.46622970308249
 20
126.5518815649794
 10
275.46622970308249
 20
126.5518815649794
 10
275.46622970308249
 20
126.5518815649794
 10
275.46622970308249
 20
126.5518815649794
 10
275.46622970308249
 20
126.5518815649794
 10
275.46622970308249
 20
126.5518815649794
 10
275.46622970308249
 20
126.5518815649794
 10
275.46622970308249
 20
126.5518815649794
 10
275.46622970308249
 20
126.5518815649794
  0
LWPOLYLINE
  5
690
100
AcDbEntity
  8
0
  6
CONTINUOUS
 62
             7
100
AcDbPolyline
 90
       24
 70
             0
 10
280.75512822064832
 20
127.134724277454
 42
0.02820087011858
 10
280.79980018117249
 20
127.13725051815973
 10
280.79980018117249
 20
127.1372505181597
 42
0.02994128659894
 10
280.84184325706849
 20
127.14461279923016
 10
280.84184325706849
 20
127.1446127992302
 42
0.03475851181196
 10
280.87968984360538
 20
127.15648645909539
 10
280.87968984360532
 20
127.1564864590955
 42
0.03378705948964
 10
280.9084365115628
 20
127.17050444631047
 10
280.90843651156291
 20
127.1705044463103
 42
0.0425190998511
 10
280.92840586713351
 20
127.18478715023382
 10
280.92840586713351
 20
127.1847871502338
 42
0.05459567208484
 10
280.94304794479535
 20
127.20049721334978
 10
280.94304794479518
 20
127.20049721334991
 42
0.07025385278846
 10
280.95205723311227
 20
127.21726585073212
 10
280.95205723311233
 20
127.2172658507321
 42
0.08465961091641
 10
280.95512822064831
 20
127.23472427745391
 10
280.95512822064831
 20
127.23472427745391
 10
280.95512822064831
 20
127.23472427745391
 10
280.95512822064831
 20
127.23472427745391
 10
280.95512822064831
 20
127.23472427745391
 10
280.95512822064831
 20
127.23472427745391
 10
280.95512822064831
 20
127.23472427745391
 10
280.95512822064831
 20
127.23472427745391
 10
280.95512822064831
 20
127.23472427745391
  0
LWPOLYLINE
  5
68E
100
AcDbEntity
  8
0
  6
CONTINUOUS
 62
             7
100
AcDbPolyline
 90
       30
 70
             0
 10
282.41233436804998
 20
126.53472427745413
 42
-0.11582745950027
 10
282.3931943608394
 20
126.54007264779661
 10
282.39319436083946
 20
126.54007264779671
 42
-0.04088191696059
 10
282.36329434475681
 20
126.5570225540971
 10
282.36329434475681
 20
126.5570225540971
 10
282.3438793811037
 20
126.57020966084529
 10
282.3438793811037
 20
126.57020966084529
 10
282.32146122791391
 20
126.5865655840667
 10
282.3214612279138
 20
126.58656558406655
 42
-0.00816828456276
 10
282.27682362392591
 20
126.62127864075281
 10
282.27682362392591
 20
126.62127864075281
 10
282.25164840122812
 20
126.6416532960468
 10
282.25164840122824
 20
126.64165329604691
 42
-0.00436956719657
 10
282.18254477261519
 20
126.69927814433041
 10
282.18254477261507
 20
126.69927814433031
 42
-0.00214849609759
 10
282.10687097186798
 20
126.76397953943069
 10
282.10687097186798
 20
126.76397953943069
 10
282.06743613101872
 20
126.7980220081068
 10
282.06743613101884
 20
126.79802200810695
 42
-0.00017548516139
 10
282.02503603342922
 20
126.83472427745409
 10
282.02503603342922
 20
126.83472427745409
 10
282.02503603342922
 20
126.83472427745409
 10
282.02503603342922
 20
126.83472427745409
 10
282.02503603342922
 20
126.83472427745409
 10
282.02503603342922
 20
126.83472427745409
 10
282.02503603342922
 20
126.83472427745409
 10
282.02503603342922
 20
126.83472427745409
 10
282.02503603342922
 20
126.83472427745409
 10
282.02503603342922
 20
126.83472427745409
 10
282.02503603342922
 20
126.83472427745409
  0
LWPOLYLINE
  5
68C
100
AcDbEntity
  8
0
  6
CONTINUOUS
 62
             7
100
AcDbPolyline
 90
       30
 70
             0
 10
282.41233436804998
 20
122.72472427745421
 42
-0.11582745950049
 10
282.3931943608394
 20
122.7300726477967
 10
282.3931943608394
 20
122.73007264779665
 42
-0.04088191696048
 10
282.36329434475681
 20
122.747022554097
 10
282.36329434475681
 20
122.747022554097
 10
282.3438793811037
 20
122.76020966084531
 10
282.3438793811037
 20
122.76020966084531
 10
282.32146122791391
 20
122.7765655840667
 10
282.32146122791386
 20
122.77656558406662
 42
-0.00816828456277
 10
282.27682362392591
 20
122.8112786407529
 10
282.27682362392591
 20
122.8112786407529
 10
282.25164840122812
 20
122.8316532960468
 10
282.25164840122824
 20
122.83165329604691
 42
-0.00436956719657
 10
282.18254477261519
 20
122.8892781443304
 10
282.18254477261513
 20
122.88927814433038
 42
-0.00214849609759
 10
282.10687097186798
 20
122.9539795394308
 10
282.10687097186798
 20
122.9539795394308
 10
282.06743613101872
 20
122.9880220081068
 10
282.06743613101884
 20
122.98802200810695
 42
-0.00017548516139
 10
282.02503603342922
 20
123.02472427745408
 10
282.02503603342922
 20
123.02472427745408
 10
282.02503603342922
 20
123.02472427745408
 10
282.02503603342922
 20
123.02472427745408
 10
282.02503603342922
 20
123.02472427745408
 10
282.02503603342922
 20
123.02472427745408
 10
282.02503603342922
 20
123.02472427745408
 10
282.02503603342922
 20
123.02472427745408
 10
282.02503603342922
 20
123.02472427745408
 10
282.02503603342922
 20
123.02472427745408
 10
282.02503603342922
 20
123.02472427745408
  0
LWPOLYLINE
  5
68A
100
AcDbEntity
  8
0
  6
CONTINUOUS
 62
             7
100
AcDbPolyline
 90
       24
 70
             0
 10
280.75512822064832
 20
123.324724277454
 42
0.02820087011858
 10
280.79980018117249
 20
123.32725051815973
 10
280.79980018117249
 20
123.3272505181596
 42
0.02994128659893
 10
280.84184325706849
 20
123.33461279923006
 10
280.84184325706849
 20
123.3346127992301
 42
0.03475851181195
 10
280.87968984360538
 20
123.34648645909529
 10
280.87968984360532
 20
123.3464864590954
 42
0.03378705948969
 10
280.90843651156285
 20
123.36050444631039
 10
280.90843651156291
 20
123.3605044463103
 42
0.04251909985102
 10
280.92840586713345
 20
123.37478715023379
 10
280.92840586713351
 20
123.3747871502337
 42
0.05459567208501
 10
280.94304794479541
 20
123.39049721334973
 10
280.94304794479518
 20
123.3904972133499
 42
0.07025385278846
 10
280.95205723311227
 20
123.40726585073212
 10
280.95205723311233
 20
123.4072658507321
 42
0.08465961091688
 10
280.95512822064831
 20
123.424724277454
 10
280.95512822064831
 20
123.424724277454
 10
280.95512822064831
 20
123.424724277454
 10
280.95512822064831
 20
123.424724277454
 10
280.95512822064831
 20
123.424724277454
 10
280.95512822064831
 20
123.424724277454
 10
280.95512822064831
 20
123.424724277454
 10
280.95512822064831
 20
123.424724277454
 10
280.95512822064831
 20
123.424724277454
  0
LWPOLYLINE
  5
688
100
AcDbEntity
  8
0
  6
CONTINUOUS
 62
             7
100
AcDbPolyline
 90
       30
 70
             0
 10
275.66622970308242
 20
123.02472427745411
 42
0.00014668248541
 10
275.64669868037902
 20
123.00079420895761
 10
275.64669868037907
 20
123.0007942089576
 10
275.62290250786339
 20
122.9715533126637
 10
275.62290250786339
 20
122.9715533126637
 42
0.00269857742845
 10
275.5775763485895
 20
122.91516227655491
 10
275.57757634858962
 20
122.9151622765548
 42
0.0054850012341
 10
275.53724974578165
 20
122.86327724688294
 10
275.53724974578171
 20
122.8632772468829
 10
275.5237832314923
 20
122.8452437874509
 10
275.5237832314923
 20
122.8452437874509
 42
0.0092035705302
 10
275.50075055388402
 20
122.81278424974363
 10
275.5007505538839
 20
122.8127842497437
 10
275.48902484818922
 20
122.7948199240256
 10
275.48902484818922
 20
122.7948199240256
 42
0.02874907220753
 10
275.47300540620267
 20
122.76585718990958
 10
275.47300540620267
 20
122.7658571899096
 10
275.46857982616149
 20
122.75462897992441
 10
275.46857982616149
 20
122.75462897992441
 42
0.06869315119212
 10
275.46622970308243
 20
122.74188156497941
 10
275.46622970308243
 20
122.74188156497941
 10
275.46622970308243
 20
122.74188156497941
 10
275.46622970308243
 20
122.74188156497941
 10
275.46622970308243
 20
122.74188156497941
 10
275.46622970308243
 20
122.74188156497941
 10
275.46622970308243
 20
122.74188156497941
 10
275.46622970308243
 20
122.74188156497941
 10
275.46622970308243
 20
122.74188156497941
 10
275.46622970308243
 20
122.74188156497941
 10
275.46622970308243
 20
122.74188156497941
  0
LWPOLYLINE
  5
686
100
AcDbEntity
  8
0
  6
CONTINUOUS
 62
             7
100
AcDbPolyline
 90
       24
 70
             0
 10
279.07044633289013
 20
123.32472427745395
 42
-0.11290225104168
 10
279.06390629112951
 20
123.3262597712219
 10
279.06390629112957
 20
123.32625977122197
 42
-0.08562984556313
 10
279.05762464900351
 20
123.3307644153805
 10
279.05762464900357
 20
123.33076441538057
 42
-0.05804147179649
 10
279.05173955577732
 20
123.33808545421159
 10
279.05173955577726
 20
123.33808545421155
 42
-0.04044237361971
 10
279.04638916071571
 20
123.34807013199681
 10
279.04638916071565
 20
123.34807013199678
 42
-0.0380254255184
 10
279.04113793027852
 20
123.3624434659755
 10
279.04113793027852
 20
123.3624434659755
 42
-0.02845645005835
 10
279.03668997900502
 20
123.3813667592441
 10
279.03668997900508
 20
123.38136675924412
 42
-0.02348127220871
 10
279.03393201997352
 20
123.402388297192
 10
279.03393201997346
 20
123.402388297192
 42
-0.02155138843249
 10
279.03298567354852
 20
123.424724277454
 10
279.03298567354852
 20
123.424724277454
 10
279.03298567354852
 20
123.424724277454
 10
279.03298567354852
 20
123.424724277454
 10
279.03298567354852
 20
123.424724277454
 10
279.03298567354852
 20
123.424724277454
 10
279.03298567354852
 20
123.424724277454
 10
279.03298567354852
 20
123.424724277454
 10
279.03298567354852
 20
123.424724277454
  0
LWPOLYLINE
  5
684
100
AcDbEntity
  8
0
  6
CONTINUOUS
 62
             7
100
AcDbPolyline
 90
       24
 70
             0
 10
279.15790699223169
 20
123.324724277454
 42
0.08598499064985
 10
279.16663620559285
 20
123.32625977122203
 10
279.16663620559291
 20
123.3262597712219
 42
0.07394897152078
 10
279.17502052428392
 20
123.33076441538037
 10
279.17502052428381
 20
123.3307644153805
 42
0.05829107983686
 10
279.18287555584192
 20
123.33808545421159
 10
279.18287555584192
 20
123.33808545421159
 42
0.04543951443578
 10
279.19001690780357
 20
123.34807013199676
 10
279.19001690780351
 20
123.34807013199681
 42
0.04604600347681
 10
279.197025901411
 20
123.36244346597555
 10
279.19702590141111
 20
123.3624434659755
 42
0.03630041805178
 10
279.20296273134375
 20
123.38136675924407
 10
279.20296273134358
 20
123.3813667592441
 42
0.03084976034837
 10
279.20664387187878
 20
123.40238829719203
 10
279.20664387187901
 20
123.402388297192
 42
0.02869611407685
 10
279.20790699223187
 20
123.424724277454
 10
279.20790699223187
 20
123.424724277454
 10
279.20790699223187
 20
123.424724277454
 10
279.20790699223187
 20
123.424724277454
 10
279.20790699223187
 20
123.424724277454
 10
279.20790699223187
 20
123.424724277454
 10
279.20790699223187
 20
123.424724277454
 10
279.20790699223187
 20
123.424724277454
 10
279.20790699223187
 20
123.424724277454
  0
LWPOLYLINE
  5
682
100
AcDbEntity
  8
0
  6
CONTINUOUS
 62
             7
100
AcDbPolyline
 90
       24
 70
             0
 10
278.92570518324499
 20
123.424724277454
 42
0.05655884214793
 10
278.92794453044309
 20
123.40512448523272
 10
278.92794453044303
 20
123.4051244852327
 42
0.05494499395173
 10
278.93449514208527
 20
123.38645605057225
 10
278.93449514208521
 20
123.38645605057221
 42
0.05283448426534
 10
278.94510587324362
 20
123.36924405982292
 10
278.94510587324362
 20
123.3692440598229
 42
0.05071056334421
 10
278.95952557899005
 20
123.35401359933525
 10
278.95952557899011
 20
123.3540135993353
 42
0.04759134059834
 10
278.97711219991487
 20
123.34152576784383
 10
278.97711219991493
 20
123.3415257678439
 42
0.04493851599758
 10
278.99698689489981
 20
123.33233660510797
 10
278.99698689489981
 20
123.3323366051079
 42
0.04338379276815
 10
279.01854334645282
 20
123.32666360901544
 10
279.01854334645282
 20
123.3266636090154
 42
0.04300379217669
 10
279.04117523708283
 20
123.32472427745395
 10
279.04117523708283
 20
123.32472427745395
 10
279.04117523708283
 20
123.32472427745395
 10
279.04117523708283
 20
123.32472427745395
 10
279.04117523708283
 20
123.32472427745395
 10
279.04117523708283
 20
123.32472427745395
 10
279.04117523708283
 20
123.32472427745395
 10
279.04117523708283
 20
123.32472427745395
 10
279.04117523708283
 20
123.32472427745395
  0
LWPOLYLINE
  5
680
100
AcDbEntity
  8
0
  6
CONTINUOUS
 62
             7
100
AcDbPolyline
 90
       30
 70
             0
 10
282.41233436804998
 20
137.964724277454
 42
-0.11582745950113
 10
282.39319436083912
 20
137.9700726477966
 10
282.39319436083912
 20
137.97007264779654
 42
-0.04088191696004
 10
282.36329434475658
 20
137.98702255409691
 10
282.36329434475658
 20
137.98702255409691
 10
282.34387938109262
 20
138.0002096608531
 10
282.34387938109262
 20
138.0002096608531
 10
282.32146122791391
 20
138.01656558406631
 10
282.32146122791397
 20
138.0165655840664
 42
-0.00816828456273
 10
282.27682362392352
 20
138.0512786407547
 10
282.27682362392352
 20
138.0512786407547
 10
282.25164840122812
 20
138.0716532960468
 10
282.25164840122812
 20
138.07165329604678
 42
-0.00436956719637
 10
282.18254477262332
 20
138.12927814432331
 10
282.18254477262337
 20
138.12927814432339
 42
-0.00214849609782
 10
282.10687097187531
 20
138.1939795394245
 10
282.10687097187531
 20
138.1939795394245
 10
282.06743613101872
 20
138.2280220081069
 10
282.06743613101872
 20
138.22802200810688
 42
-0.00017548515857
 10
282.02503603342922
 20
138.26472427745389
 10
282.02503603342922
 20
138.26472427745389
 10
282.02503603342922
 20
138.26472427745389
 10
282.02503603342922
 20
138.26472427745389
 10
282.02503603342922
 20
138.26472427745389
 10
282.02503603342922
 20
138.26472427745389
 10
282.02503603342922
 20
138.26472427745389
 10
282.02503603342922
 20
138.26472427745389
 10
282.02503603342922
 20
138.26472427745389
 10
282.02503603342922
 20
138.26472427745389
 10
282.02503603342922
 20
138.26472427745389
  0
LWPOLYLINE
  5
67E
100
AcDbEntity
  8
0
  6
CONTINUOUS
 62
             7
100
AcDbPolyline
 90
       30
 70
             0
 10
275.66622970308242
 20
138.26472427745389
 42
0.0001466824823
 10
275.64669868037907
 20
138.24079420895742
 10
275.64669868037907
 20
138.2407942089574
 10
275.62290250786282
 20
138.21155331266269
 10
275.62290250786282
 20
138.21155331266269
 42
0.00269857742847
 10
275.5775763485891
 20
138.15516227655411
 10
275.5775763485891
 20
138.15516227655411
 42
0.00548500123408
 10
275.53724974578159
 20
138.10327724688281
 10
275.53724974578148
 20
138.1032772468829
 10
275.52378323150651
 20
138.0852437874702
 10
275.52378323150651
 20
138.0852437874702
 42
0.00920357053804
 10
275.50075055388402
 20
138.05278424974361
 10
275.50075055388402
 20
138.05278424974361
 10
275.48902484818751
 20
138.0348199240226
 10
275.48902484818751
 20
138.0348199240226
 42
0.02874907220773
 10
275.47300540620182
 20
138.0058571899074
 10
275.47300540620182
 20
138.0058571899074
 10
275.46857982616137
 20
137.9946289799243
 10
275.46857982616137
 20
137.9946289799243
 42
0.06869315117873
 10
275.46622970308232
 20
137.9818815649794
 10
275.46622970308232
 20
137.9818815649794
 10
275.46622970308232
 20
137.9818815649794
 10
275.46622970308232
 20
137.9818815649794
 10
275.46622970308232
 20
137.9818815649794
 10
275.46622970308232
 20
137.9818815649794
 10
275.46622970308232
 20
137.9818815649794
 10
275.46622970308232
 20
137.9818815649794
 10
275.46622970308232
 20
137.9818815649794
 10
275.46622970308232
 20
137.9818815649794
 10
275.46622970308232
 20
137.9818815649794
  0
LWPOLYLINE
  5
67C
100
AcDbEntity
  8
0
  6
CONTINUOUS
 62
             7
100
AcDbPolyline
 90
       24
 70
             0
 10
278.92570518324499
 20
119.6147242774539
 42
0.05655884214764
 10
278.92794453044309
 20
119.59512448523272
 10
278.92794453044303
 20
119.5951244852327
 42
0.05494499395173
 10
278.93449514208527
 20
119.57645605057225
 10
278.93449514208521
 20
119.5764560505722
 42
0.05283448426534
 10
278.94510587324362
 20
119.55924405982292
 10
278.94510587324362
 20
119.5592440598229
 42
0.05071056334421
 10
278.95952557899005
 20
119.54401359933524
 10
278.95952557899011
 20
119.5440135993353
 42
0.04759134059834
 10
278.97711219991487
 20
119.53152576784383
 10
278.97711219991493
 20
119.5315257678439
 42
0.04493851599755
 10
278.99698689489981
 20
119.52233660510797
 10
278.99698689489981
 20
119.5223366051079
 42
0.04338379276815
 10
279.01854334645282
 20
119.51666360901544
 10
279.01854334645282
 20
119.5166636090154
 42
0.04300379217666
 10
279.04117523708283
 20
119.51472427745395
 10
279.04117523708283
 20
119.51472427745395
 10
279.04117523708283
 20
119.51472427745395
 10
279.04117523708283
 20
119.51472427745395
 10
279.04117523708283
 20
119.51472427745395
 10
279.04117523708283
 20
119.51472427745395
 10
279.04117523708283
 20
119.51472427745395
 10
279.04117523708283
 20
119.51472427745395
 10
279.04117523708283
 20
119.51472427745395
  0
LWPOLYLINE
  5
67A
100
AcDbEntity
  8
0
  6
CONTINUOUS
 62
             7
100
AcDbPolyline
 90
       24
 70
             0
 10
279.15790699223169
 20
119.51472427745399
 42
0.0859849906498
 10
279.16663620559285
 20
119.51625977122202
 10
279.16663620559291
 20
119.5162597712219
 42
0.07394897152069
 10
279.17502052428387
 20
119.52076441538038
 10
279.17502052428381
 20
119.5207644153805
 42
0.05829107983692
 10
279.18287555584192
 20
119.52808545421161
 10
279.18287555584192
 20
119.52808545421161
 42
0.04543951443616
 10
279.19001690780362
 20
119.53807013199685
 10
279.19001690780351
 20
119.5380701319969
 42
0.04604600347655
 10
279.19702590141094
 20
119.55244346597556
 10
279.19702590141111
 20
119.5524434659755
 42
0.03630041805178
 10
279.20296273134375
 20
119.57136675924407
 10
279.20296273134358
 20
119.5713667592441
 42
0.03084976034837
 10
279.20664387187878
 20
119.59238829719203
 10
279.20664387187901
 20
119.592388297192
 42
0.02869611407672
 10
279.20790699223187
 20
119.6147242774539
 10
279.20790699223187
 20
119.6147242774539
 10
279.20790699223187
 20
119.6147242774539
 10
279.20790699223187
 20
119.6147242774539
 10
279.20790699223187
 20
119.6147242774539
 10
279.20790699223187
 20
119.6147242774539
 10
279.20790699223187
 20
119.6147242774539
 10
279.20790699223187
 20
119.6147242774539
 10
279.20790699223187
 20
119.6147242774539
  0
LWPOLYLINE
  5
678
100
AcDbEntity
  8
0
  6
CONTINUOUS
 62
             7
100
AcDbPolyline
 90
       24
 70
             0
 10
279.07044633289013
 20
119.51472427745396
 42
-0.11290225104096
 10
279.06390629112951
 20
119.5162597712219
 10
279.06390629112951
 20
119.51625977122195
 42
-0.08562984556294
 10
279.05762464900351
 20
119.5207644153805
 10
279.05762464900357
 20
119.52076441538057
 42
-0.05804147179656
 10
279.05173955577732
 20
119.52808545421161
 10
279.05173955577726
 20
119.52808545421158
 42
-0.04044237361995
 10
279.04638916071571
 20
119.5380701319969
 10
279.04638916071559
 20
119.53807013199686
 42
-0.03802542551815
 10
279.04113793027852
 20
119.5524434659755
 10
279.04113793027852
 20
119.5524434659755
 42
-0.02845645005835
 10
279.03668997900502
 20
119.5713667592441
 10
279.03668997900508
 20
119.57136675924411
 42
-0.02348127220871
 10
279.03393201997352
 20
119.592388297192
 10
279.03393201997346
 20
119.59238829719199
 42
-0.02155138843241
 10
279.03298567354852
 20
119.6147242774539
 10
279.03298567354852
 20
119.6147242774539
 10
279.03298567354852
 20
119.6147242774539
 10
279.03298567354852
 20
119.6147242774539
 10
279.03298567354852
 20
119.6147242774539
 10
279.03298567354852
 20
119.6147242774539
 10
279.03298567354852
 20
119.6147242774539
 10
279.03298567354852
 20
119.6147242774539
 10
279.03298567354852
 20
119.6147242774539
  0
LWPOLYLINE
  5
676
100
AcDbEntity
  8
0
  6
CONTINUOUS
 62
             7
100
AcDbPolyline
 90
       30
 70
             0
 10
275.66622970308242
 20
119.21472427745411
 42
0.00014668248541
 10
275.64669868037902
 20
119.19079420895761
 10
275.64669868037907
 20
119.1907942089576
 10
275.62290250786339
 20
119.1615533126636
 10
275.62290250786339
 20
119.1615533126636
 42
0.00269857742845
 10
275.5775763485895
 20
119.10516227655486
 10
275.57757634858962
 20
119.10516227655479
 42
0.0054850012341
 10
275.53724974578165
 20
119.05327724688294
 10
275.53724974578171
 20
119.0532772468829
 10
275.5237832314923
 20
119.0352437874509
 10
275.5237832314923
 20
119.0352437874509
 42
0.0092035705302
 10
275.50075055388402
 20
119.00278424974363
 10
275.5007505538839
 20
119.0027842497437
 10
275.48902484818922
 20
118.9848199240255
 10
275.48902484818922
 20
118.9848199240255
 42
0.02874907220745
 10
275.47300540620273
 20
118.95585718990957
 10
275.47300540620267
 20
118.95585718990959
 10
275.46857982616149
 20
118.9446289799244
 10
275.46857982616149
 20
118.9446289799244
 42
0.06869315119205
 10
275.46622970308243
 20
118.93188156497942
 10
275.46622970308243
 20
118.93188156497942
 10
275.46622970308243
 20
118.93188156497942
 10
275.46622970308243
 20
118.93188156497942
 10
275.46622970308243
 20
118.93188156497942
 10
275.46622970308243
 20
118.93188156497942
 10
275.46622970308243
 20
118.93188156497942
 10
275.46622970308243
 20
118.93188156497942
 10
275.46622970308243
 20
118.93188156497942
 10
275.46622970308243
 20
118.93188156497942
 10
275.46622970308243
 20
118.93188156497942
  0
LWPOLYLINE
  5
674
100
AcDbEntity
  8
0
  6
CONTINUOUS
 62
             7
100
AcDbPolyline
 90
       24
 70
             0
 10
280.75512822064832
 20
119.51472427745399
 42
0.02820087011858
 10
280.79980018117249
 20
119.51725051815973
 10
280.79980018117249
 20
119.5172505181596
 42
0.02994128659893
 10
280.84184325706849
 20
119.52461279923006
 10
280.84184325706849
 20
119.5246127992301
 42
0.03475851181195
 10
280.87968984360538
 20
119.53648645909529
 10
280.87968984360532
 20
119.5364864590954
 42
0.03378705948967
 10
280.90843651156285
 20
119.55050444631037
 10
280.90843651156291
 20
119.5505044463103
 42
0.04251909985102
 10
280.92840586713345
 20
119.56478715023378
 10
280.92840586713351
 20
119.5647871502337
 42
0.05459567208473
 10
280.94304794479535
 20
119.58049721334966
 10
280.94304794479518
 20
119.5804972133498
 42
0.07025385278849
 10
280.95205723311233
 20
119.59726585073201
 10
280.95205723311233
 20
119.597265850732
 42
0.08465961091686
 10
280.95512822064831
 20
119.6147242774539
 10
280.95512822064831
 20
119.6147242774539
 10
280.95512822064831
 20
119.6147242774539
 10
280.95512822064831
 20
119.6147242774539
 10
280.95512822064831
 20
119.6147242774539
 10
280.95512822064831
 20
119.6147242774539
 10
280.95512822064831
 20
119.6147242774539
 10
280.95512822064831
 20
119.6147242774539
 10
280.95512822064831
 20
119.6147242774539
  0
LWPOLYLINE
  5
672
100
AcDbEntity
  8
0
  6
CONTINUOUS
 62
             7
100
AcDbPolyline
 90
       30
 70
             0
 10
282.41233436804998
 20
118.91472427745413
 42
-0.11582745950023
 10
282.3931943608394
 20
118.9200726477966
 10
282.3931943608394
 20
118.92007264779663
 42
-0.04088191696049
 10
282.36329434475681
 20
118.937022554097
 10
282.36329434475681
 20
118.937022554097
 10
282.3438793811037
 20
118.9502096608453
 10
282.3438793811037
 20
118.9502096608453
 10
282.32146122791391
 20
118.9665655840666
 10
282.32146122791386
 20
118.96656558406652
 42
-0.00816828456277
 10
282.27682362392591
 20
119.0012786407528
 10
282.27682362392591
 20
119.0012786407528
 10
282.25164840122812
 20
119.02165329604679
 10
282.25164840122824
 20
119.02165329604691
 42
-0.00436956719657
 10
282.18254477261519
 20
119.0792781443304
 10
282.18254477261513
 20
119.07927814433037
 42
-0.00214849609759
 10
282.10687097186798
 20
119.1439795394308
 10
282.10687097186798
 20
119.1439795394308
 10
282.06743613101872
 20
119.17802200810679
 10
282.06743613101884
 20
119.17802200810695
 42
-0.00017548516139
 10
282.02503603342922
 20
119.21472427745408
 10
282.02503603342922
 20
119.21472427745408
 10
282.02503603342922
 20
119.21472427745408
 10
282.02503603342922
 20
119.21472427745408
 10
282.02503603342922
 20
119.21472427745408
 10
282.02503603342922
 20
119.21472427745408
 10
282.02503603342922
 20
119.21472427745408
 10
282.02503603342922
 20
119.21472427745408
 10
282.02503603342922
 20
119.21472427745408
 10
282.02503603342922
 20
119.21472427745408
 10
282.02503603342922
 20
119.21472427745408
  0
ARC
  5
670
100
AcDbEntity
  8
1
  6
CONTINUOUS
 62
             7
100
AcDbCircle
 10
255.52503603342839
 20
76.85942099806111
 40
2.25000000000003
100
AcDbArc
 50
90.0
 51
180.0
  0
ARC
  5
66F
100
AcDbEntity
  8
1
  6
CONTINUOUS
 62
             7
100
AcDbCircle
 10
255.52503603342839
 20
122.32472427745419
 40
2.25
100
AcDbArc
 50
-90.0
 51
0.0
  0
ARC
  5
66E
100
AcDbEntity
  8
1
  6
CONTINUOUS
 62
             7
100
AcDbCircle
 10
209.52503603342839
 20
140.752849277454
 40
1.828125
100
AcDbArc
 50
-90.0
 51
0.0
  0
ARC
  5
66D
100
AcDbEntity
  8
1
  6
CONTINUOUS
 62
             7
100
AcDbCircle
 10
223.52503603342871
 20
77.07989220428225
 40
2.24999999999992
100
AcDbArc
 50
154.15806723687871
 51
180.0
  0
ARC
  5
66C
100
AcDbEntity
  8
1
  6
CONTINUOUS
 62
             7
100
AcDbCircle
 10
222.82503603342869
 20
68.3978040414364
 40
0.99999999999989
100
AcDbArc
 50
4.41156253017009
 51
39.19496742603921
  0
ARC
  5
66B
100
AcDbEntity
  8
1
  6
CONTINUOUS
 62
             7
100
AcDbCircle
 10
222.22503603342861
 20
71.02230334209592
 40
0.5
100
AcDbArc
 50
180.0
 51
-133.26279748867296
  0
ARC
  5
66A
100
AcDbEntity
  8
1
  6
CONTINUOUS
 62
             7
100
AcDbCircle
 10
222.22503603342861
 20
71.02230334209592
 40
1.10000000000002
100
AcDbArc
 50
180.0
 51
-133.2627974886698
  0
ARC
  5
669
100
AcDbEntity
  8
1
  6
CONTINUOUS
 62
             7
100
AcDbCircle
 10
224.22503603342861
 20
68.3978040414364
 40
0.40000000000001
100
AcDbArc
 50
133.26279748867015
 51
168.91292545842015
  0
ARC
  5
668
100
AcDbEntity
  8
1
  6
CONTINUOUS
 62
             7
100
AcDbCircle
 10
224.82503603342869
 20
71.02230334209592
 40
0.49999999999994
100
AcDbArc
 50
-46.73720251133415
 51
0.0
  0
ARC
  5
667
100
AcDbEntity
  8
1
  6
CONTINUOUS
 62
             7
100
AcDbCircle
 10
224.82503603342869
 20
71.02230334209592
 40
1.09999999999999
100
AcDbArc
 50
-46.7372025113302
 51
0.0
  0
ARC
  5
666
100
AcDbEntity
  8
1
  6
CONTINUOUS
 62
             7
100
AcDbCircle
 10
223.52503603342859
 20
127.7247242774539
 40
2.25
100
AcDbArc
 50
-90.0
 51
0.0
  0
ARC
  5
665
100
AcDbEntity
  8
1
  6
CONTINUOUS
 62
             7
100
AcDbCircle
 10
135.62503603342981
 20
160.274724277454
 40
0.40000000000009
100
AcDbArc
 50
0.0
 51
90.0
  0
ARC
  5
664
100
AcDbEntity
  8
1
  6
CONTINUOUS
 62
             7
100
AcDbCircle
 10
137.12503603342981
 20
153.9747242774539
 40
0.3000000000001
100
AcDbArc
 50
90.0
 51
180.0
  0
ARC
  5
663
100
AcDbEntity
  8
1
  6
CONTINUOUS
 62
             7
100
AcDbCircle
 10
137.9250360334299
 20
153.9747242774539
 40
0.29999999999998
100
AcDbArc
 50
0.0
 51
90.0
  0
ARC
  5
662
100
AcDbEntity
  8
1
  6
CONTINUOUS
 62
             7
100
AcDbCircle
 10
204.57503603342849
 20
69.47472427745394
 40
0.99999999999999
100
AcDbArc
 50
-90.0
 51
-75.5224878140761
  0
ARC
  5
661
100
AcDbEntity
  8
1
  6
CONTINUOUS
 62
             7
100
AcDbCircle
 10
205.07503603342849
 20
80.87472427745394
 40
0.49999999999993
100
AcDbArc
 50
36.86989764584923
 51
90.0
  0
ARC
  5
660
100
AcDbEntity
  8
1
  6
CONTINUOUS
 62
             7
100
AcDbCircle
 10
222.47503603342841
 20
70.13308349095404
 40
1.00000000000004
100
AcDbArc
 50
175.33067768559096
 51
180.0
  0
ARC
  5
65F
100
AcDbEntity
  8
1
  6
CONTINUOUS
 62
             7
100
AcDbCircle
 10
233.437781131468
 20
69.11197917941472
 40
0.63725490196077
100
AcDbArc
 50
-90.0
 51
0.0
  0
ARC
  5
65E
100
AcDbEntity
  8
1
  6
CONTINUOUS
 62
             7
100
AcDbCircle
 10
233.437781131468
 20
71.24145615120385
 40
0.63725490196076
100
AcDbArc
 50
-33.20309919804023
 51
0.0
  0
ARC
  5
65D
100
AcDbEntity
  8
1
  6
CONTINUOUS
 62
             7
100
AcDbCircle
 10
233.437781131468
 20
69.53152181546874
 40
0.6372549019608
100
AcDbArc
 50
0.0
 51
33.20309919804451
  0
ARC
  5
65C
100
AcDbEntity
  8
1
  6
CONTINUOUS
 62
             7
100
AcDbCircle
 10
228.2122909353896
 20
69.53152181546874
 40
0.63725490196086
100
AcDbArc
 50
146.79690080195971
 51
180.0
  0
ARC
  5
65B
100
AcDbEntity
  8
1
  6
CONTINUOUS
 62
             7
100
AcDbCircle
 10
228.2122909353896
 20
71.24145615120385
 40
0.6372549019608
100
AcDbArc
 50
180.0
 51
-146.79690080196397
  0
ARC
  5
65A
100
AcDbEntity
  8
1
  6
CONTINUOUS
 62
             7
100
AcDbCircle
 10
228.2122909353896
 20
69.11197917941472
 40
0.6372549019608
100
AcDbArc
 50
180.0
 51
-90.0
  0
ARC
  5
659
100
AcDbEntity
  8
1
  6
CONTINUOUS
 62
             7
100
AcDbCircle
 10
227.8936634844091
 20
76.6560968264735
 40
0.31862745098044
100
AcDbArc
 50
90.0
 51
180.0
  0
ARC
  5
658
100
AcDbEntity
  8
1
  6
CONTINUOUS
 62
             7
100
AcDbCircle
 10
233.7564085824483
 20
76.6560968264735
 40
0.3186274509805
100
AcDbArc
 50
0.0
 51
90.0
  0
ARC
  5
657
100
AcDbEntity
  8
1
  6
CONTINUOUS
 62
             7
100
AcDbCircle
 10
246.82503603342869
 20
88.37472427745394
 40
0.5
100
AcDbArc
 50
0.0
 51
90.0
  0
ARC
  5
656
100
AcDbEntity
  8
1
  6
CONTINUOUS
 62
             7
100
AcDbCircle
 10
237.62503603342859
 20
88.37472427745394
 40
0.5
100
AcDbArc
 50
90.0
 51
180.0
  0
ARC
  5
655
100
AcDbEntity
  8
1
  6
CONTINUOUS
 62
             7
100
AcDbCircle
 10
238.12503603342859
 20
69.47472427745394
 40
1.0
100
AcDbArc
 50
180.0
 51
-90.0
  0
ARC
  5
654
100
AcDbEntity
  8
1
  6
CONTINUOUS
 62
             7
100
AcDbCircle
 10
238.12503603342859
 20
72.8163650639538
 40
1.0
100
AcDbArc
 50
180.0
 51
-146.79690080196079
  0
ARC
  5
653
100
AcDbEntity
  8
1
  6
CONTINUOUS
 62
             7
100
AcDbCircle
 10
238.12503603342859
 20
70.13308349095404
 40
1.00000000000003
100
AcDbArc
 50
146.79690080196079
 51
180.0
  0
ARC
  5
652
100
AcDbEntity
  8
1
  6
CONTINUOUS
 62
             7
100
AcDbCircle
 10
246.32503603342869
 20
70.13308349095404
 40
1.0
100
AcDbArc
 50
0.0
 51
33.20309919804456
  0
ARC
  5
651
100
AcDbEntity
  8
1
  6
CONTINUOUS
 62
             7
100
AcDbCircle
 10
246.32503603342869
 20
72.8163650639538
 40
0.99999999999989
100
AcDbArc
 50
-33.20309919804456
 51
0.0
  0
ARC
  5
650
100
AcDbEntity
  8
1
  6
CONTINUOUS
 62
             7
100
AcDbCircle
 10
246.32503603342869
 20
69.47472427745394
 40
1.0
100
AcDbArc
 50
-90.0
 51
0.0
  0
ARC
  5
64F
100
AcDbEntity
  8
1
  6
CONTINUOUS
 62
             7
100
AcDbCircle
 10
186.92503603342871
 20
53.97472427745394
 40
0.39999999999998
100
AcDbArc
 50
0.0
 51
90.0
  0
ARC
  5
64E
100
AcDbEntity
  8
1
  6
CONTINUOUS
 62
             7
100
AcDbCircle
 10
180.62503603342859
 20
55.47472427745394
 40
0.3
100
AcDbArc
 50
-90.0
 51
0.0
  0
ARC
  5
64D
100
AcDbEntity
  8
1
  6
CONTINUOUS
 62
             7
100
AcDbCircle
 10
180.62503603342859
 20
56.2747242774539
 40
0.30000000000013
100
AcDbArc
 50
0.0
 51
90.0
  0
ARC
  5
64C
100
AcDbEntity
  8
1
  6
CONTINUOUS
 62
             7
100
AcDbCircle
 10
229.0750360334284
 20
80.87472427745394
 40
0.5
100
AcDbArc
 50
0.0
 51
90.0
  0
ARC
  5
64B
100
AcDbEntity
  8
1
  6
CONTINUOUS
 62
             7
100
AcDbCircle
 10
221.97503603342841
 20
80.87472427745394
 40
0.49999999999993
100
AcDbArc
 50
161.80512766136954
 51
180.0
  0
ARC
  5
64A
100
AcDbEntity
  8
1
  6
CONTINUOUS
 62
             7
100
AcDbCircle
 10
222.47503603342841
 20
69.47472427745394
 40
1.0
100
AcDbArc
 50
180.0
 51
-90.0
  0
ARC
  5
649
100
AcDbEntity
  8
1
  6
CONTINUOUS
 62
             7
100
AcDbCircle
 10
221.07503603342849
 20
80.87472427745394
 40
0.49999999999998
100
AcDbArc
 50
31.7883306171324
 51
90.0
  0
ARC
  5
648
100
AcDbEntity
  8
1
  6
CONTINUOUS
 62
             7
100
AcDbCircle
 10
213.97503603342841
 20
80.87472427745394
 40
0.5
100
AcDbArc
 50
90.0
 51
143.13010235415078
  0
ARC
  5
647
100
AcDbEntity
  8
1
  6
CONTINUOUS
 62
             7
100
AcDbCircle
 10
214.47503603342841
 20
69.47472427745394
 40
1.0
100
AcDbArc
 50
180.0
 51
-120.23041884220918
  0
ARC
  5
646
100
AcDbEntity
  8
1
  6
CONTINUOUS
 62
             7
100
AcDbCircle
 10
214.47503603342841
 20
70.13308349095404
 40
0.99999999999996
100
AcDbArc
 50
146.79690080195812
 51
180.0
  0
ARC
  5
645
100
AcDbEntity
  8
1
  6
CONTINUOUS
 62
             7
100
AcDbCircle
 10
220.57503603342849
 20
69.47472427745394
 40
1.0
100
AcDbArc
 50
-90.0
 51
-18.19487233877312
  0
ARC
  5
644
100
AcDbEntity
  8
1
  6
CONTINUOUS
 62
             7
100
AcDbCircle
 10
197.97503603342841
 20
80.87472427745394
 40
0.5
100
AcDbArc
 50
90.0
 51
180.0
  0
ARC
  5
643
100
AcDbEntity
  8
1
  6
CONTINUOUS
 62
             7
100
AcDbCircle
 10
198.47503603342841
 20
69.47472427745394
 40
1.0
100
AcDbArc
 50
180.0
 51
-90.0
  0
ARC
  5
642
100
AcDbEntity
  8
1
  6
CONTINUOUS
 62
             7
100
AcDbCircle
 10
198.47503603342841
 20
72.8163650639538
 40
0.99999999999991
100
AcDbArc
 50
179.99999999999918
 51
-146.79690080195812
  0
ARC
  5
641
100
AcDbEntity
  8
1
  6
CONTINUOUS
 62
             7
100
AcDbCircle
 10
198.47503603342841
 20
70.13308349095404
 40
0.99999999999996
100
AcDbArc
 50
146.79690080195812
 51
180.0
  0
ARC
  5
640
100
AcDbEntity
  8
1
  6
CONTINUOUS
 62
             7
100
AcDbCircle
 10
204.57503603342849
 20
70.13308349095404
 40
1.0
100
AcDbArc
 50
0.00000000000081
 51
31.78833061704332
  0
ARC
  5
63F
100
AcDbEntity
  8
1
  6
CONTINUOUS
 62
             7
100
AcDbCircle
 10
204.57503603342849
 20
69.47472427745394
 40
1.00000000000003
100
AcDbArc
 50
-31.78833061705163
 51
0.0
  0
ARC
  5
63E
100
AcDbEntity
  8
1
  6
CONTINUOUS
 62
             7
100
AcDbCircle
 10
117.67503603342929
 20
167.87472427745391
 40
1.55
100
AcDbArc
 50
180.0
 51
-90.0
  0
ARC
  5
63D
100
AcDbEntity
  8
1
  6
CONTINUOUS
 62
             7
100
AcDbCircle
 10
117.67503603342929
 20
167.87472427745391
 40
1.5499999999999
100
AcDbArc
 50
90.0
 51
180.0
  0
ARC
  5
63C
100
AcDbEntity
  8
1
  6
CONTINUOUS
 62
             7
100
AcDbCircle
 10
117.67503603342929
 20
173.87472427745391
 40
1.5499999999999
100
AcDbArc
 50
90.0
 51
180.0
  0
ARC
  5
63B
100
AcDbEntity
  8
1
  6
CONTINUOUS
 62
             7
100
AcDbCircle
 10
117.67503603342929
 20
173.87472427745391
 40
1.55
100
AcDbArc
 50
180.0
 51
-90.0
  0
ARC
  5
63A
100
AcDbEntity
  8
1
  6
CONTINUOUS
 62
             7
100
AcDbCircle
 10
117.67503603342929
 20
179.87472427745391
 40
1.55
100
AcDbArc
 50
180.0
 51
-90.0
  0
ARC
  5
639
100
AcDbEntity
  8
1
  6
CONTINUOUS
 62
             7
100
AcDbCircle
 10
117.67503603342929
 20
179.87472427745391
 40
1.5499999999999
100
AcDbArc
 50
90.0
 51
180.0
  0
ARC
  5
638
100
AcDbEntity
  8
1
  6
CONTINUOUS
 62
             7
100
AcDbCircle
 10
117.67503603342929
 20
185.87472427745379
 40
1.55000000000001
100
AcDbArc
 50
90.0
 51
179.99999999999579
  0
ARC
  5
637
100
AcDbEntity
  8
1
  6
CONTINUOUS
 62
             7
100
AcDbCircle
 10
117.67503603342929
 20
185.87472427745379
 40
1.55
100
AcDbArc
 50
179.99999999999579
 51
-90.0
  0
ARC
  5
636
100
AcDbEntity
  8
1
  6
CONTINUOUS
 62
             7
100
AcDbCircle
 10
117.67503603342929
 20
191.87472427745379
 40
1.55
100
AcDbArc
 50
179.99999999999579
 51
-90.0
  0
ARC
  5
635
100
AcDbEntity
  8
1
  6
CONTINUOUS
 62
             7
100
AcDbCircle
 10
117.67503603342929
 20
191.87472427745379
 40
1.55000000000001
100
AcDbArc
 50
90.0
 51
179.99999999999579
  0
CIRCLE
  5
634
100
AcDbEntity
  8
1
  6
CONTINUOUS
 62
             7
100
AcDbCircle
 10
34.5250360334293
 20
191.87472427745391
 40
1.8000000000001
  0
CIRCLE
  5
633
100
AcDbEntity
  8
1
  6
CONTINUOUS
 62
             7
100
AcDbCircle
 10
34.5250360334293
 20
157.87472427745391
 40
1.8000000000001
  0
CIRCLE
  5
632
100
AcDbEntity
  8
1
  6
CONTINUOUS
 62
             7
100
AcDbCircle
 10
84.52503603342936
 20
157.87472427745391
 40
1.80000000000001
  0
CIRCLE
  5
631
100
AcDbEntity
  8
1
  6
CONTINUOUS
 62
             7
100
AcDbCircle
 10
84.52503603342936
 20
191.87472427745391
 40
1.80000000000001
  0
CIRCLE
  5
630
100
AcDbEntity
  8
1
  6
CONTINUOUS
 62
             7
100
AcDbCircle
 10
277.52503603342939
 20
113.87472427745389
 40
1.80000000000013
  0
CIRCLE
  5
62F
100
AcDbEntity
  8
1
  6
CONTINUOUS
 62
             7
100
AcDbCircle
 10
277.52503603342939
 20
147.87472427745391
 40
1.80000000000013
  0
CIRCLE
  5
62E
100
AcDbEntity
  8
1
  6
CONTINUOUS
 62
             7
100
AcDbCircle
 10
184.52503603342939
 20
147.87472427745391
 40
1.80000000000001
  0
CIRCLE
  5
62D
100
AcDbEntity
  8
1
  6
CONTINUOUS
 62
             7
100
AcDbCircle
 10
184.52503603342939
 20
113.87472427745389
 40
1.80000000000001
  0
CIRCLE
  5
62C
100
AcDbEntity
  8
1
  6
CONTINUOUS
 62
             7
100
AcDbCircle
 10
84.52503603342879
 20
165.87472427745391
 40
2.65000000000001
  0
CIRCLE
  5
62B
100
AcDbEntity
  8
1
  6
CONTINUOUS
 62
             7
100
AcDbCircle
 10
84.52503603342879
 20
183.87472427745391
 40
2.65000000000001
  0
CIRCLE
  5
62A
100
AcDbEntity
  8
1
  6
CONTINUOUS
 62
             7
100
AcDbCircle
 10
34.52503603342882
 20
183.87472427745391
 40
2.64999999999998
  0
CIRCLE
  5
629
100
AcDbEntity
  8
1
  6
CONTINUOUS
 62
             7
100
AcDbCircle
 10
34.52503603342882
 20
165.87472427745391
 40
2.64999999999998
  0
CIRCLE
  5
628
100
AcDbEntity
  8
1
  6
CONTINUOUS
 62
             7
100
AcDbCircle
 10
267.5250360334291
 20
147.87472427745391
 40
2.64999999999998
  0
CIRCLE
  5
627
100
AcDbEntity
  8
1
  6
CONTINUOUS
 62
             7
100
AcDbCircle
 10
267.5250360334291
 20
113.87472427745389
 40
2.64999999999998
  0
CIRCLE
  5
626
100
AcDbEntity
  8
1
  6
CONTINUOUS
 62
             7
100
AcDbCircle
 10
194.5250360334291
 20
147.87472427745391
 40
2.65000000000009
  0
CIRCLE
  5
625
100
AcDbEntity
  8
1
  6
CONTINUOUS
 62
             7
100
AcDbCircle
 10
194.5250360334291
 20
113.87472427745389
 40
2.65000000000009
  0
CIRCLE
  5
624
100
AcDbEntity
  8
1
  6
CONTINUOUS
 62
             7
100
AcDbCircle
 10
230.8250360334288
 20
118.37472427745401
 40
2.0
  0
CIRCLE
  5
623
100
AcDbEntity
  8
1
  6
CONTINUOUS
 62
             7
100
AcDbCircle
 10
230.8250360334288
 20
118.37472427745401
 40
3.25
  0
CIRCLE
  5
622
100
AcDbEntity
  8
1
  6
CONTINUOUS
 62
             7
100
AcDbCircle
 10
242.22503603342801
 20
117.174724277454
 40
5.09999999999999
  0
CIRCLE
  5
621
100
AcDbEntity
  8
1
  6
CONTINUOUS
 62
             7
100
AcDbCircle
 10
242.22503603342801
 20
117.174724277454
 40
3.44999999999987
  0
CIRCLE
  5
620
100
AcDbEntity
  8
1
  6
CONTINUOUS
 62
             7
100
AcDbCircle
 10
201.52503603342839
 20
142.174724277454
 40
4.05000000000001
  0
CIRCLE
  5
61F
100
AcDbEntity
  8
1
  6
CONTINUOUS
 62
             7
100
AcDbCircle
 10
217.52503603342839
 20
145.87472427745399
 40
4.05000000000001
  0
CIRCLE
  5
61E
100
AcDbEntity
  8
1
  6
CONTINUOUS
 62
             7
100
AcDbCircle
 10
225.52503603342839
 20
141.87472427745399
 40
4.0499999999999
  0
CIRCLE
  5
61D
100
AcDbEntity
  8
1
  6
CONTINUOUS
 62
             7
100
AcDbCircle
 10
201.52503603342839
 20
142.174724277454
 40
2.80000000000001
  0
CIRCLE
  5
61C
100
AcDbEntity
  8
1
  6
CONTINUOUS
 62
             7
100
AcDbCircle
 10
217.52503603342839
 20
145.87472427745399
 40
2.80000000000001
  0
CIRCLE
  5
61B
100
AcDbEntity
  8
1
  6
CONTINUOUS
 62
             7
100
AcDbCircle
 10
225.52503603342839
 20
141.87472427745399
 40
2.79999999999961
  0
CIRCLE
  5
61A
100
AcDbEntity
  8
0
  6
CONTINUOUS
 62
             7
100
AcDbCircle
 10
279.5250360334291
 20
56.47472427745394
 40
0.69999999999988
  0
CIRCLE
  5
619
100
AcDbEntity
  8
0
  6
CONTINUOUS
 62
             7
100
AcDbCircle
 10
269.52503603342961
 20
72.07472427745391
 40
0.74000000000001
  0
CIRCLE
  5
618
100
AcDbEntity
  8
0
  6
CONTINUOUS
 62
             7
100
AcDbCircle
 10
260.82503603342951
 20
73.60472427745394
 40
0.74000000000001
  0
CIRCLE
  5
617
100
AcDbEntity
  8
1
  6
CONTINUOUS
 62
             7
100
AcDbCircle
 10
59.52503603342821
 20
167.87472427745391
 40
1.55000000000009
  0
CIRCLE
  5
616
100
AcDbEntity
  8
1
  6
CONTINUOUS
 62
             7
100
AcDbCircle
 10
59.52503603342821
 20
167.87472427745391
 40
1.89999999999999
  0
CIRCLE
  5
615
100
AcDbEntity
  8
1
  6
CONTINUOUS
 62
             7
100
AcDbCircle
 10
59.52503603342821
 20
167.87472427745391
 40
1.75
  0
CIRCLE
  5
614
100
AcDbEntity
  8
1
  6
CONTINUOUS
 62
             7
100
AcDbCircle
 10
67.02503603342801
 20
167.87472427745391
 40
1.55
  0
CIRCLE
  5
613
100
AcDbEntity
  8
1
  6
CONTINUOUS
 62
             7
100
AcDbCircle
 10
67.02503603342801
 20
167.87472427745391
 40
1.89999999999989
  0
CIRCLE
  5
612
100
AcDbEntity
  8
1
  6
CONTINUOUS
 62
             7
100
AcDbCircle
 10
67.02503603342801
 20
167.87472427745391
 40
1.75
  0
CIRCLE
  5
611
100
AcDbEntity
  8
1
  6
CONTINUOUS
 62
             7
100
AcDbCircle
 10
75.52503603342821
 20
173.87472427745391
 40
1.5500000000001
  0
CIRCLE
  5
610
100
AcDbEntity
  8
1
  6
CONTINUOUS
 62
             7
100
AcDbCircle
 10
75.52503603342821
 20
173.87472427745391
 40
1.89999999999999
  0
CIRCLE
  5
60F
100
AcDbEntity
  8
1
  6
CONTINUOUS
 62
             7
100
AcDbCircle
 10
75.52503603342821
 20
173.87472427745391
 40
1.75
  0
CIRCLE
  5
60E
100
AcDbEntity
  8
1
  6
CONTINUOUS
 62
             7
100
AcDbCircle
 10
75.52503603342821
 20
179.87472427745391
 40
1.5500000000001
  0
CIRCLE
  5
60D
100
AcDbEntity
  8
1
  6
CONTINUOUS
 62
             7
100
AcDbCircle
 10
75.52503603342821
 20
179.87472427745391
 40
1.89999999999999
  0
CIRCLE
  5
60C
100
AcDbEntity
  8
1
  6
CONTINUOUS
 62
             7
100
AcDbCircle
 10
75.52503603342821
 20
179.87472427745391
 40
1.75
  0
CIRCLE
  5
60B
100
AcDbEntity
  8
1
  6
CONTINUOUS
 62
             7
100
AcDbCircle
 10
75.52503603342821
 20
185.87472427745391
 40
1.5500000000001
  0
CIRCLE
  5
60A
100
AcDbEntity
  8
1
  6
CONTINUOUS
 62
             7
100
AcDbCircle
 10
75.52503603342821
 20
185.87472427745391
 40
1.89999999999999
  0
CIRCLE
  5
609
100
AcDbEntity
  8
1
  6
CONTINUOUS
 62
             7
100
AcDbCircle
 10
75.52503603342821
 20
185.87472427745391
 40
1.75
  0
CIRCLE
  5
608
100
AcDbEntity
  8
1
  6
CONTINUOUS
 62
             7
100
AcDbCircle
 10
75.52503603342821
 20
191.87472427745391
 40
1.5500000000001
  0
CIRCLE
  5
607
100
AcDbEntity
  8
1
  6
CONTINUOUS
 62
             7
100
AcDbCircle
 10
75.52503603342821
 20
191.87472427745391
 40
1.89999999999999
  0
CIRCLE
  5
606
100
AcDbEntity
  8
1
  6
CONTINUOUS
 62
             7
100
AcDbCircle
 10
75.52503603342821
 20
191.87472427745391
 40
1.75
  0
CIRCLE
  5
605
100
AcDbEntity
  8
0
  6
CONTINUOUS
 62
             7
100
AcDbCircle
 10
69.47503603342911
 20
185.274724277454
 40
0.5499999999999
  0
CIRCLE
  5
604
100
AcDbEntity
  8
0
  6
CONTINUOUS
 62
             7
100
AcDbCircle
 10
69.47503603342911
 20
173.274724277454
 40
0.5499999999999
  0
CIRCLE
  5
603
100
AcDbEntity
  8
0
  6
CONTINUOUS
 62
             7
100
AcDbCircle
 10
61.97503603342911
 20
185.274724277454
 40
0.54999999999988
  0
CIRCLE
  5
602
100
AcDbEntity
  8
0
  6
CONTINUOUS
 62
             7
100
AcDbCircle
 10
61.97503603342911
 20
173.274724277454
 40
0.54999999999988
  0
CIRCLE
  5
601
100
AcDbEntity
  8
0
  6
CONTINUOUS
 62
             7
100
AcDbCircle
 10
54.47503603342911
 20
185.274724277454
 40
0.54999999999988
  0
CIRCLE
  5
600
100
AcDbEntity
  8
0
  6
CONTINUOUS
 62
             7
100
AcDbCircle
 10
54.47503603342911
 20
173.274724277454
 40
0.54999999999988
  0
CIRCLE
  5
5FF
100
AcDbEntity
  8
0
  6
CONTINUOUS
 62
             7
100
AcDbCircle
 10
46.97503603342909
 20
173.274724277454
 40
0.54999999999993
  0
CIRCLE
  5
5FE
100
AcDbEntity
  8
0
  6
CONTINUOUS
 62
             7
100
AcDbCircle
 10
46.97503603342909
 20
185.274724277454
 40
0.54999999999993
  0
CIRCLE
  5
5FD
100
AcDbEntity
  8
1
  6
CONTINUOUS
 62
             7
100
AcDbCircle
 10
44.52503603342882
 20
157.87472427745391
 40
1.5
  0
CIRCLE
  5
5FC
100
AcDbEntity
  8
1
  6
CONTINUOUS
 62
             7
100
AcDbCircle
 10
54.52503603342881
 20
157.87472427745391
 40
1.5
  0
CIRCLE
  5
5FB
100
AcDbEntity
  8
1
  6
CONTINUOUS
 62
             7
100
AcDbCircle
 10
64.52503603342881
 20
157.87472427745391
 40
1.5
  0
CIRCLE
  5
5FA
100
AcDbEntity
  8
1
  6
CONTINUOUS
 62
             7
100
AcDbCircle
 10
74.5250360334293
 20
157.87472427745391
 40
1.4999999999995
  0
ARC
  5
5F9
100
AcDbEntity
  8
1
  6
CONTINUOUS
 62
             7
100
AcDbCircle
 10
136.36097445260941
 20
163.1997230827445
 40
0.41406158081999
100
AcDbArc
 50
-88.05385427266018
 51
0.0
  0
ARC
  5
5F8
100
AcDbEntity
  8
1
  6
CONTINUOUS
 62
             7
100
AcDbCircle
 10
135.82965842926291
 20
163.5581063223305
 40
0.94537760416655
100
AcDbArc
 50
-54.76799733567832
 51
54.76799733567832
  0
ARC
  5
5F7
100
AcDbEntity
  8
1
  6
CONTINUOUS
 62
             7
100
AcDbCircle
 10
136.36097445260941
 20
168.54972547216329
 40
0.41406158082009
100
AcDbArc
 50
0.0
 51
88.05385427266032
  0
ARC
  5
5F6
100
AcDbEntity
  8
1
  6
CONTINUOUS
 62
             7
100
AcDbCircle
 10
135.82965842926291
 20
168.19134223257731
 40
0.94537760416664
100
AcDbArc
 50
-54.7679973356823
 51
54.76799733567832
  0
ARC
  5
5F5
100
AcDbEntity
  8
1
  6
CONTINUOUS
 62
             7
100
AcDbCircle
 10
133.5935256167628
 20
165.87472427745391
 40
3.18151041666664
100
AcDbArc
 50
-29.0408828559159
 51
29.04088285591411
  0
ARC
  5
5F4
100
AcDbEntity
  8
1
  6
CONTINUOUS
 62
             7
100
AcDbCircle
 10
133.5935256167628
 20
183.87472427745391
 40
3.18151041666659
100
AcDbArc
 50
-29.04088285591411
 51
29.04088285591545
  0
ARC
  5
5F3
100
AcDbEntity
  8
1
  6
CONTINUOUS
 62
             7
100
AcDbCircle
 10
135.82965842926291
 20
186.19134223257731
 40
0.94537760416657
100
AcDbArc
 50
-54.76799733567932
 51
54.76799733567832
  0
ARC
  5
5F2
100
AcDbEntity
  8
1
  6
CONTINUOUS
 62
             7
100
AcDbCircle
 10
136.36097445260941
 20
186.54972547216329
 40
0.41406158082009
100
AcDbArc
 50
0.0
 51
88.05385427266032
  0
ARC
  5
5F1
100
AcDbEntity
  8
1
  6
CONTINUOUS
 62
             7
100
AcDbCircle
 10
135.82965842926291
 20
181.5581063223305
 40
0.94537760416655
100
AcDbArc
 50
-54.76799733567832
 51
54.7679973356823
  0
ARC
  5
5F0
100
AcDbEntity
  8
1
  6
CONTINUOUS
 62
             7
100
AcDbCircle
 10
136.36097445260941
 20
181.1997230827445
 40
0.41406158081999
100
AcDbArc
 50
-88.05385427266018
 51
0.0
  0
ARC
  5
5EF
100
AcDbEntity
  8
1
  6
CONTINUOUS
 62
             7
100
AcDbCircle
 10
120.57067012897301
 20
182.2247242774539
 40
1.0
100
AcDbArc
 50
-163.06522423125
 51
-90.0
  0
ARC
  5
5EE
100
AcDbEntity
  8
1
  6
CONTINUOUS
 62
             7
100
AcDbCircle
 10
125.989632600812
 20
183.87472427745391
 40
6.6645965673822
100
AcDbArc
 50
180.0
 51
-163.06522423124923
  0
ARC
  5
5ED
100
AcDbEntity
  8
1
  6
CONTINUOUS
 62
             7
100
AcDbCircle
 10
125.989632600812
 20
183.87472427745391
 40
6.6645965673823
100
AcDbArc
 50
163.06522423124946
 51
180.0
  0
ARC
  5
5EC
100
AcDbEntity
  8
1
  6
CONTINUOUS
 62
             7
100
AcDbCircle
 10
120.57067012897301
 20
185.524724277454
 40
1.0
100
AcDbArc
 50
90.0
 51
163.06522423125622
  0
ARC
  5
5EB
100
AcDbEntity
  8
1
  6
CONTINUOUS
 62
             7
100
AcDbCircle
 10
120.57067012897301
 20
167.524724277454
 40
1.0
100
AcDbArc
 50
90.0
 51
163.06522423125622
  0
ARC
  5
5EA
100
AcDbEntity
  8
1
  6
CONTINUOUS
 62
             7
100
AcDbCircle
 10
125.989632600812
 20
165.87472427745391
 40
6.6645965673823
100
AcDbArc
 50
163.06522423124946
 51
180.0
  0
ARC
  5
5E9
100
AcDbEntity
  8
1
  6
CONTINUOUS
 62
             7
100
AcDbCircle
 10
125.989632600812
 20
165.87472427745391
 40
6.6645965673822
100
AcDbArc
 50
180.0
 51
-163.06522423124923
  0
ARC
  5
5E8
100
AcDbEntity
  8
1
  6
CONTINUOUS
 62
             7
100
AcDbCircle
 10
120.57067012897301
 20
164.2247242774539
 40
1.0
100
AcDbArc
 50
-163.06522423125
 51
-90.0
  0
ARC
  5
5E7
100
AcDbEntity
  8
1
  6
CONTINUOUS
 62
             7
100
AcDbCircle
 10
269.07503603342923
 20
69.22909018191051
 40
1.0
100
AcDbArc
 50
0.0
 51
73.06522423125153
  0
ARC
  5
5E6
100
AcDbEntity
  8
1
  6
CONTINUOUS
 62
             7
100
AcDbCircle
 10
267.42503603342908
 20
63.81012771007174
 40
6.66459656738212
100
AcDbArc
 50
73.06522423124771
 51
90.0
  0
ARC
  5
5E5
100
AcDbEntity
  8
1
  6
CONTINUOUS
 62
             7
100
AcDbCircle
 10
267.42503603342908
 20
63.81012771007174
 40
6.66459656738209
100
AcDbArc
 50
90.0
 51
106.9347757687509
  0
ARC
  5
5E4
100
AcDbEntity
  8
1
  6
CONTINUOUS
 62
             7
100
AcDbCircle
 10
265.7750360334291
 20
69.22909018191051
 40
0.99999999999999
100
AcDbArc
 50
106.93477576874847
 51
180.0
  0
ARC
  5
5E3
100
AcDbEntity
  8
1
  6
CONTINUOUS
 62
             7
100
AcDbCircle
 10
264.75003483871978
 20
49.43878585827393
 40
0.4140615808201
100
AcDbArc
 50
-178.05385427266071
 51
-90.0
  0
ARC
  5
5E2
100
AcDbEntity
  8
1
  6
CONTINUOUS
 62
             7
100
AcDbCircle
 10
265.10841807830582
 20
49.97010188162061
 40
0.94537760416676
100
AcDbArc
 50
-144.76799733567483
 51
-35.23200266433111
  0
ARC
  5
5E1
100
AcDbEntity
  8
1
  6
CONTINUOUS
 62
             7
100
AcDbCircle
 10
270.1000372281386
 20
49.43878585827393
 40
0.41406158082003
100
AcDbArc
 50
-90.0
 51
-1.94614572734035
  0
ARC
  5
5E0
100
AcDbEntity
  8
1
  6
CONTINUOUS
 62
             7
100
AcDbCircle
 10
269.74165398855251
 20
49.97010188162061
 40
0.94537760416658
100
AcDbArc
 50
-144.76799733566691
 51
-35.23200266433111
  0
ARC
  5
5DF
100
AcDbEntity
  8
1
  6
CONTINUOUS
 62
             7
100
AcDbCircle
 10
267.42503603342908
 20
52.20623469412054
 40
3.18151041666659
100
AcDbArc
 50
-119.04088285591411
 51
-60.95911714408231
  0
ARC
  5
5DE
100
AcDbEntity
  8
1
  6
CONTINUOUS
 62
             7
100
AcDbCircle
 10
194.42503603342919
 20
52.20623469412054
 40
3.18151041666664
100
AcDbArc
 50
-119.0408828559159
 51
-60.95911714408589
  0
ARC
  5
5DD
100
AcDbEntity
  8
1
  6
CONTINUOUS
 62
             7
100
AcDbCircle
 10
196.74165398855251
 20
49.97010188162061
 40
0.94537760416667
100
AcDbArc
 50
-144.76799733567088
 51
-35.23200266432714
  0
ARC
  5
5DC
100
AcDbEntity
  8
1
  6
CONTINUOUS
 62
             7
100
AcDbCircle
 10
197.10003722813849
 20
49.43878585827393
 40
0.41406158082003
100
AcDbArc
 50
-90.0
 51
-1.94614572733929
  0
ARC
  5
5DB
100
AcDbEntity
  8
1
  6
CONTINUOUS
 62
             7
100
AcDbCircle
 10
192.1084180783057
 20
49.97010188162061
 40
0.94537760416658
100
AcDbArc
 50
-144.76799733566691
 51
-35.23200266432714
  0
ARC
  5
5DA
100
AcDbEntity
  8
1
  6
CONTINUOUS
 62
             7
100
AcDbCircle
 10
191.7500348387197
 20
49.43878585827393
 40
0.4140615808199
100
AcDbArc
 50
-178.05385427265978
 51
-90.0
  0
ARC
  5
5D9
100
AcDbEntity
  8
1
  6
CONTINUOUS
 62
             7
100
AcDbCircle
 10
192.7750360334291
 20
69.22909018191051
 40
1.0
100
AcDbArc
 50
106.93477576875003
 51
180.0
  0
ARC
  5
5D8
100
AcDbEntity
  8
1
  6
CONTINUOUS
 62
             7
100
AcDbCircle
 10
194.42503603342919
 20
63.81012771007174
 40
6.66459656738209
100
AcDbArc
 50
90.0
 51
106.93477576875206
  0
ARC
  5
5D7
100
AcDbEntity
  8
1
  6
CONTINUOUS
 62
             7
100
AcDbCircle
 10
194.42503603342919
 20
63.81012771007174
 40
6.66459656738205
100
AcDbArc
 50
73.06522423124959
 51
90.0
  0
ARC
  5
5D6
100
AcDbEntity
  8
1
  6
CONTINUOUS
 62
             7
100
AcDbCircle
 10
196.07503603342909
 20
69.22909018191051
 40
1.0
100
AcDbArc
 50
0.0
 51
73.06522423124999
  0
ARC
  5
5D5
100
AcDbEntity
  8
1
  6
CONTINUOUS
 62
             7
100
AcDbCircle
 10
223.52503603342871
 20
73.57989220428225
 40
2.25000000000002
100
AcDbArc
 50
-112.00229693717478
 51
-107.45760312374033
  0
ARC
  5
5D4
100
AcDbEntity
  8
1
  6
CONTINUOUS
 62
             7
100
AcDbCircle
 10
255.52503603342839
 20
73.35942099806111
 40
2.25000000000004
100
AcDbArc
 50
-43.95694672376882
 51
0.0
  0
ARC
  5
5D3
100
AcDbEntity
  8
1
  6
CONTINUOUS
 62
             7
100
AcDbCircle
 10
255.52503603342839
 20
76.85942099806111
 40
2.25000000000003
100
AcDbArc
 50
0.0
 51
90.0
  0
ARC
  5
5D2
100
AcDbEntity
  8
1
  6
CONTINUOUS
 62
             7
100
AcDbCircle
 10
258.20134501368182
 20
72.72706805688465
 40
4.99999999999995
100
AcDbArc
 50
171.67895968460607
 51
-126.5315294991516
  0
ARC
  5
5D1
100
AcDbEntity
  8
1
  6
CONTINUOUS
 62
             7
100
AcDbCircle
 10
251.27503603342271
 20
73.74010503057365
 40
2.00000000000569
100
AcDbArc
 50
-8.32104031537427
 51
-0.00000000000326
  0
ARC
  5
5D0
100
AcDbEntity
  8
1
  6
CONTINUOUS
 62
             7
100
AcDbCircle
 10
260.02417089836331
 20
69.02118570394343
 40
4.00000000000006
100
AcDbArc
 50
136.04305327623368
 51
178.87648134229983
  0
ARC
  5
5CF
100
AcDbEntity
  8
1
  6
CONTINUOUS
 62
             7
100
AcDbCircle
 10
259.77503603343411
 20
73.74010503057365
 40
2.00000000000568
100
AcDbArc
 50
-179.99999999999673
 51
-171.67895968462574
  0
ARC
  5
5CE
100
AcDbEntity
  8
1
  6
CONTINUOUS
 62
             7
100
AcDbCircle
 10
252.84872705317491
 20
72.72706805688465
 40
4.99999999999999
100
AcDbArc
 50
-53.46847050084762
 51
8.32104031539379
  0
ARC
  5
5CD
100
AcDbEntity
  8
1
  6
CONTINUOUS
 62
             7
100
AcDbCircle
 10
255.52503603342839
 20
69.10942099806111
 40
0.49999999999992
100
AcDbArc
 50
-53.1301023541638
 51
-1.12351865770574
  0
ARC
  5
5CC
100
AcDbEntity
  8
1
  6
CONTINUOUS
 62
             7
100
AcDbCircle
 10
255.52503603342839
 20
125.82472427745419
 40
2.25000000000003
100
AcDbArc
 50
0.0
 51
180.0
  0
ARC
  5
5CB
100
AcDbEntity
  8
1
  6
CONTINUOUS
 62
             7
100
AcDbCircle
 10
255.52503603342839
 20
122.32472427745419
 40
2.25
100
AcDbArc
 50
180.0
 51
-90.0
  0
ARC
  5
5CA
100
AcDbEntity
  8
1
  6
CONTINUOUS
 62
             7
100
AcDbCircle
 10
256.44868076868551
 20
128.94071214698519
 40
1.00000000000498
100
AcDbArc
 50
-106.51093787562696
 51
-78.46168766892194
  0
ARC
  5
5C9
100
AcDbEntity
  8
1
  6
CONTINUOUS
 62
             7
100
AcDbCircle
 10
256.84872705317491
 20
126.9811298011047
 40
1.0
100
AcDbArc
 50
0.0
 51
101.53831233114381
  0
ARC
  5
5C8
100
AcDbEntity
  8
1
  6
CONTINUOUS
 62
             7
100
AcDbCircle
 10
252.2752102719754
 20
126.9811298011051
 40
5.57351678119951
100
AcDbArc
 50
-8.7915985898066
 51
-0.00000000000409
  0
ARC
  5
5C7
100
AcDbEntity
  8
1
  6
CONTINUOUS
 62
             7
100
AcDbCircle
 10
258.77149351269611
 20
125.9764273929584
 40
0.99999999999187
100
AcDbArc
 50
171.20840141015822
 51
-177.32458223751047
  0
ARC
  5
5C6
100
AcDbEntity
  8
1
  6
CONTINUOUS
 62
             7
100
AcDbCircle
 10
252.27857855416059
 20
122.1730211619502
 40
0.99999999999201
100
AcDbArc
 50
-8.79159858985204
 51
2.67541776248383
  0
ARC
  5
5C5
100
AcDbEntity
  8
1
  6
CONTINUOUS
 62
             7
100
AcDbCircle
 10
258.7748617948813
 20
121.1683187538035
 40
5.57351678119937
100
AcDbArc
 50
171.20840141019525
 51
179.99999999999795
  0
ARC
  5
5C4
100
AcDbEntity
  8
1
  6
CONTINUOUS
 62
             7
100
AcDbCircle
 10
254.20134501368179
 20
121.1683187538037
 40
1.0
100
AcDbArc
 50
180.0
 51
-78.46168766884883
  0
ARC
  5
5C3
100
AcDbEntity
  8
1
  6
CONTINUOUS
 62
             7
100
AcDbCircle
 10
254.60139129817119
 20
119.2087364079233
 40
1.00000000000489
100
AcDbArc
 50
73.48906212437164
 51
101.53831233107167
  0
ARC
  5
5C2
100
AcDbEntity
  8
1
  6
CONTINUOUS
 62
             7
100
AcDbCircle
 10
207.8187860334283
 20
139.25283319607851
 40
0.73124999999991
100
AcDbArc
 50
150.79521791453769
 51
-44.00609542742909
  0
ARC
  5
5C1
100
AcDbEntity
  8
1
  6
CONTINUOUS
 62
             7
100
AcDbCircle
 10
208.929152758594
 20
138.1803362039405
 40
0.81250000000002
100
AcDbArc
 50
76.95831206114941
 51
135.99390457254768
  0
ARC
  5
5C0
100
AcDbEntity
  8
1
  6
CONTINUOUS
 62
             7
100
AcDbCircle
 10
210.12091930826281
 20
146.1691123509674
 40
0.81249999999993
100
AcDbArc
 50
-103.04168793886021
 51
-44.00609542743786
  0
ARC
  5
5BF
100
AcDbEntity
  8
1
  6
CONTINUOUS
 62
             7
100
AcDbCircle
 10
211.2312860334284
 20
145.09661535882961
 40
0.73125
100
AcDbArc
 50
-29.204782085461
 51
135.99390457256146
  0
ARC
  5
5BE
100
AcDbEntity
  8
1
  6
CONTINUOUS
 62
             7
100
AcDbCircle
 10
215.41566103342839
 20
142.7575888686259
 40
4.06249999999995
100
AcDbArc
 50
150.79521791454718
 51
180.0
  0
ARC
  5
5BD
100
AcDbEntity
  8
1
  6
CONTINUOUS
 62
             7
100
AcDbCircle
 10
209.52503603342839
 20
143.596599277454
 40
1.828125
100
AcDbArc
 50
0.0
 51
180.0
  0
ARC
  5
5BC
100
AcDbEntity
  8
1
  6
CONTINUOUS
 62
             7
100
AcDbCircle
 10
209.52503603342839
 20
140.752849277454
 40
1.828125
100
AcDbArc
 50
180.0
 51
-90.0
  0
ARC
  5
5BB
100
AcDbEntity
  8
1
  6
CONTINUOUS
 62
             7
100
AcDbCircle
 10
223.52503603342871
 20
73.57989220428225
 40
2.24999999999994
100
AcDbArc
 50
-88.0897868283077
 51
-0.13160029175059
  0
ARC
  5
5BA
100
AcDbEntity
  8
1
  6
CONTINUOUS
 62
             7
100
AcDbCircle
 10
221.4250360334286
 20
71.76887843460723
 40
0.79999999999993
100
AcDbArc
 50
-67.97568716295504
 51
-34.6269722115114
  0
ARC
  5
5B9
100
AcDbEntity
  8
1
  6
CONTINUOUS
 62
             7
100
AcDbCircle
 10
223.93931206378949
 20
72.48501753148172
 40
3.41427603036092
100
AcDbArc
 50
146.10867421709557
 51
-164.10150224470755
  0
ARC
  5
5B8
100
AcDbEntity
  8
1
  6
CONTINUOUS
 62
             7
100
AcDbCircle
 10
220.27503603342871
 20
74.94650367719582
 40
1.00000000000001
100
AcDbArc
 50
-33.8913257829057
 51
0.0
  0
ARC
  5
5B7
100
AcDbEntity
  8
1
  6
CONTINUOUS
 62
             7
100
AcDbCircle
 10
222.4947656849138
 20
71.03017790480264
 40
0.49999999999994
100
AcDbArc
 50
67.99770306283421
 51
145.37302778848056
  0
ARC
  5
5B6
100
AcDbEntity
  8
1
  6
CONTINUOUS
 62
             7
100
AcDbCircle
 10
221.4250360334286
 20
71.76887843460723
 40
0.79999999999998
100
AcDbArc
 50
-164.10150224470726
 51
-112.02431283704496
  0
ARC
  5
5B5
100
AcDbEntity
  8
1
  6
CONTINUOUS
 62
             7
100
AcDbCircle
 10
225.62503603342859
 20
71.76887843460723
 40
0.79999999999993
100
AcDbArc
 50
-67.97568716295504
 51
-15.89849775529054
  0
ARC
  5
5B4
100
AcDbEntity
  8
1
  6
CONTINUOUS
 62
             7
100
AcDbCircle
 10
224.55530638194369
 20
71.03017790480264
 40
0.49999999999998
100
AcDbArc
 50
34.62697221151947
 51
112.00229693718694
  0
ARC
  5
5B3
100
AcDbEntity
  8
1
  6
CONTINUOUS
 62
             7
100
AcDbCircle
 10
223.11076000306781
 20
72.48501753148172
 40
3.41427603036087
100
AcDbArc
 50
-15.89849775529244
 51
25.20210009878569
  0
ARC
  5
5B2
100
AcDbEntity
  8
1
  6
CONTINUOUS
 62
             7
100
AcDbCircle
 10
225.62503603342859
 20
71.76887843460723
 40
0.79999999999985
100
AcDbArc
 50
-145.37302778847589
 51
-112.02431283703741
  0
ARC
  5
5B1
100
AcDbEntity
  8
1
  6
CONTINUOUS
 62
             7
100
AcDbCircle
 10
223.52503603342859
 20
127.7247242774539
 40
2.25
100
AcDbArc
 50
180.0
 51
-90.0
  0
ARC
  5
5B0
100
AcDbEntity
  8
1
  6
CONTINUOUS
 62
             7
100
AcDbCircle
 10
223.52503603342859
 20
131.2247242774539
 40
2.25
100
AcDbArc
 50
0.0
 51
180.0
  0
ARC
  5
5AF
100
AcDbEntity
  8
1
  6
CONTINUOUS
 62
             7
100
AcDbCircle
 10
230.77503603342859
 20
130.1920960819732
 40
4.99999999999989
100
AcDbArc
 50
150.79521791454468
 51
180.0
  0
ARC
  5
5AE
100
AcDbEntity
  8
1
  6
CONTINUOUS
 62
             7
100
AcDbCircle
 10
225.62503603342859
 20
133.07089791607001
 40
0.90000000000004
100
AcDbArc
 50
-29.20478208544287
 51
135.99390457255552
  0
ARC
  5
5AD
100
AcDbEntity
  8
1
  6
CONTINUOUS
 62
             7
100
AcDbCircle
 10
224.25843083322479
 20
134.3908942140859
 40
1.0
100
AcDbArc
 50
-103.04168793885273
 51
-44.00609542743943
  0
ARC
  5
5AC
100
AcDbEntity
  8
1
  6
CONTINUOUS
 62
             7
100
AcDbCircle
 10
222.7916412336325
 20
124.558554340822
 40
0.99999999999994
100
AcDbArc
 50
76.95831206113984
 51
135.99390457255367
  0
ARC
  5
5AB
100
AcDbEntity
  8
1
  6
CONTINUOUS
 62
             7
100
AcDbCircle
 10
221.42503603342871
 20
125.87855063883789
 40
0.90000000000006
100
AcDbArc
 50
150.79521791454343
 51
-44.0060954274368
  0
ARC
  5
5AA
100
AcDbEntity
  8
1
  6
CONTINUOUS
 62
             7
100
AcDbCircle
 10
216.27503603342859
 20
128.75735247293491
 40
5.00000000000007
100
AcDbArc
 50
-29.20478208545436
 51
0.0
  0
ARC
  5
5A9
100
AcDbEntity
  8
1
  6
CONTINUOUS
 62
             7
100
AcDbCircle
 10
203.63441103342839
 20
141.59185968628231
 40
4.06250000000001
100
AcDbArc
 50
-29.20478208545423
 51
0.0
  0
ARC
  5
5A8
100
AcDbEntity
  8
1
  6
CONTINUOUS
 62
             7
100
AcDbCircle
 10
234.74415368048761
 20
70.38648898333632
 40
0.92401960784315
100
AcDbArc
 50
146.79690080196156
 51
-146.79690080196156
  0
ARC
  5
5A7
100
AcDbEntity
  8
1
  6
CONTINUOUS
 62
             7
100
AcDbCircle
 10
226.90591838636999
 20
70.38648898333632
 40
0.92401960784308
100
AcDbArc
 50
-33.20309919804134
 51
33.20309919804134
  0
ARC
  5
5A6
100
AcDbEntity
  8
1
  6
CONTINUOUS
 62
             7
100
AcDbCircle
 10
236.07503603342869
 20
71.47472427745394
 40
1.4499999999999
100
AcDbArc
 50
-33.2030991980447
 51
33.20309919804283
  0
ARC
  5
5A5
100
AcDbEntity
  8
1
  6
CONTINUOUS
 62
             7
100
AcDbCircle
 10
248.37503603342859
 20
71.47472427745394
 40
1.45000000000002
100
AcDbArc
 50
146.79690080196087
 51
-146.796900801959
  0
ARC
  5
5A4
100
AcDbEntity
  8
1
  6
CONTINUOUS
 62
             7
100
AcDbCircle
 10
212.42503603342851
 20
71.47472427745394
 40
1.44999999999997
100
AcDbArc
 50
-33.20309919804286
 51
-3.95457212209185
  0
ARC
  5
5A3
100
AcDbEntity
  8
1
  6
CONTINUOUS
 62
             7
100
AcDbCircle
 10
196.42503603342851
 20
71.47472427745394
 40
1.44999999999997
100
AcDbArc
 50
-33.20309919804286
 51
33.20309919804098
  0
ARC
  5
5A2
100
AcDbEntity
  8
0
  6
CONTINUOUS
 62
             7
100
AcDbCircle
 10
270.82503603342923
 20
58.00472427745392
 40
0.70000000000018
100
AcDbArc
 50
-115.37693352515663
 51
115.37693352516062
  0
ARC
  5
4B9
100
AcDbEntity
  8
0
  6
CONTINUOUS
 62
             7
100
AcDbCircle
 10
282.0250360334291
 20
65.17472427745393
 40
0.39999999999998
100
AcDbArc
 50
0.0
 51
90.0
  0
ARC
  5
4B8
100
AcDbEntity
  8
0
  6
CONTINUOUS
 62
             7
100
AcDbCircle
 10
275.66622970308242
 20
65.37472427745392
 40
0.19999999999987
100
AcDbArc
 50
90.0
 51
-111.99999999998023
  0
ARC
  5
4B7
100
AcDbEntity
  8
0
  6
CONTINUOUS
 62
             7
100
AcDbCircle
 10
275.48226043714078
 20
64.5747242774538
 40
1.0
100
AcDbArc
 50
90.0
 51
124.99999999999362
  0
ARC
  5
4B6
100
AcDbEntity
  8
0
  6
CONTINUOUS
 62
             7
100
AcDbCircle
 10
281.92503603342908
 20
62.42472427745393
 40
0.5
100
AcDbArc
 50
0.0
 51
90.0
  0
ARC
  5
4B5
100
AcDbEntity
  8
0
  6
CONTINUOUS
 62
             7
100
AcDbCircle
 10
282.22503603342921
 20
57.9447242774538
 40
0.19999999999987
100
AcDbArc
 50
-90.0
 51
0.0
  0
ARC
  5
4B4
100
AcDbEntity
  8
0
  6
CONTINUOUS
 62
             7
100
AcDbCircle
 10
281.5250360334291
 20
53.37472427745392
 40
0.5
100
AcDbArc
 50
-90.0
 51
0.0
  0
ARC
  5
4B3
100
AcDbEntity
  8
0
  6
CONTINUOUS
 62
             7
100
AcDbCircle
 10
272.96671428598358
 20
63.25074998358143
 40
0.64167825255431
100
AcDbArc
 50
124.99999999998985
 51
-149.46378744092806
  0
ARC
  5
4B2
100
AcDbEntity
  8
0
  6
CONTINUOUS
 62
             7
100
AcDbCircle
 10
282.0250360334291
 20
63.47472427745394
 40
0.40000000000014
100
AcDbArc
 50
-90.0
 51
0.0
  0
ARC
  5
4B1
100
AcDbEntity
  8
0
  6
CONTINUOUS
 62
             7
100
AcDbCircle
 10
272.2250360334296
 20
73.54472427745394
 40
0.19999999999999
100
AcDbArc
 50
-90.0
 51
0.0
  0
ARC
  5
4B0
100
AcDbEntity
  8
0
  6
CONTINUOUS
 62
             7
100
AcDbCircle
 10
259.32503603342951
 20
77.97472427745394
 40
0.5
100
AcDbArc
 50
90.0
 51
180.0
  0
ARC
  5
4AF
100
AcDbEntity
  8
0
  6
CONTINUOUS
 62
             7
100
AcDbCircle
 10
265.60366783747821
 20
80.17472427745383
 40
1.0
100
AcDbArc
 50
90.0
 51
94.03449351808796
  0
ARC
  5
4AE
100
AcDbEntity
  8
0
  6
CONTINUOUS
 62
             7
100
AcDbCircle
 10
272.02503603342961
 20
80.77472427745394
 40
0.39999999999986
100
AcDbArc
 50
0.0
 51
90.0
  0
ARC
  5
4AD
100
AcDbEntity
  8
0
  6
CONTINUOUS
 62
             7
100
AcDbCircle
 10
265.60366783747821
 20
80.17472427745383
 40
1.00000000000001
100
AcDbArc
 50
94.03449351808796
 51
124.99999999999457
  0
ARC
  5
4AC
100
AcDbEntity
  8
0
  6
CONTINUOUS
 62
             7
100
AcDbCircle
 10
265.54738222145892
 20
80.97274177690444
 40
0.19999999999997
100
AcDbArc
 50
94.0344935181148
 51
-112.00000000001347
  0
ARC
  5
4AB
100
AcDbEntity
  8
0
  6
CONTINUOUS
 62
             7
100
AcDbCircle
 10
271.92503603342948
 20
77.97472427745394
 40
0.5
100
AcDbArc
 50
0.0
 51
90.0
  0
ARC
  5
4AA
100
AcDbEntity
  8
0
  6
CONTINUOUS
 62
             7
100
AcDbCircle
 10
264.07503603342951
 20
79.10436476511194
 40
0.99999999999998
100
AcDbArc
 50
124.99999999999783
 51
-143.59000585237231
  0
ARC
  5
4A9
100
AcDbEntity
  8
0
  6
CONTINUOUS
 62
             7
100
AcDbCircle
 10
272.02503603342961
 20
79.02472427745394
 40
0.40000000000001
100
AcDbArc
 50
-90.0
 51
0.0
  0
LINE
  5
4A8
100
AcDbEntity
  8
1
  6
CONTINUOUS
 62
             7
100
AcDbLine
 10
29.5250360334293
 20
152.87472427745391
 11
89.52503603342936
 21
152.87472427745391
  0
LINE
  5
4A7
100
AcDbEntity
  8
1
  6
CONTINUOUS
 62
             7
100
AcDbLine
 10
89.52503603342936
 20
152.87472427745391
 11
89.52503603342936
 21
196.87472427745391
  0
LINE
  5
4A6
100
AcDbEntity
  8
1
  6
CONTINUOUS
 62
             7
100
AcDbLine
 10
89.52503603342936
 20
196.87472427745391
 11
29.5250360334293
 21
196.87472427745391
  0
LINE
  5
4A5
100
AcDbEntity
  8
1
  6
CONTINUOUS
 62
             7
100
AcDbLine
 10
29.5250360334293
 20
196.87472427745391
 11
29.5250360334293
 21
152.87472427745391
  0
LINE
  5
4A4
100
AcDbEntity
  8
1
  6
CONTINUOUS
 62
             7
100
AcDbLine
 10
121.3250360334301
 20
152.87472427745391
 11
122.92503603343
 21
152.87472427745391
  0
LINE
  5
4A3
100
AcDbEntity
  8
1
  6
CONTINUOUS
 62
             7
100
AcDbLine
 10
122.92503603343
 20
152.87472427745391
 11
122.92503603343
 21
196.87472427745391
  0
LINE
  5
4A2
100
AcDbEntity
  8
1
  6
CONTINUOUS
 62
             7
100
AcDbLine
 10
122.92503603343
 20
196.87472427745391
 11
121.3250360334301
 21
196.87472427745391
  0
LINE
  5
4A1
100
AcDbEntity
  8
1
  6
CONTINUOUS
 62
             7
100
AcDbLine
 10
121.3250360334301
 20
196.87472427745391
 11
121.3250360334301
 21
152.87472427745391
  0
LINE
  5
4A0
100
AcDbEntity
  8
1
  6
CONTINUOUS
 62
             7
100
AcDbLine
 10
132.92503603342999
 20
196.87472427745391
 11
132.92503603342999
 21
152.87472427745391
  0
LINE
  5
49F
100
AcDbEntity
  8
1
  6
CONTINUOUS
 62
             7
100
AcDbLine
 10
134.52503603343001
 20
196.87472427745391
 11
132.92503603342999
 21
196.87472427745391
  0
LINE
  5
49E
100
AcDbEntity
  8
1
  6
CONTINUOUS
 62
             7
100
AcDbLine
 10
134.52503603343001
 20
152.87472427745391
 11
134.52503603343001
 21
196.87472427745391
  0
LINE
  5
49D
100
AcDbEntity
  8
1
  6
CONTINUOUS
 62
             7
100
AcDbLine
 10
132.92503603342999
 20
152.87472427745391
 11
134.52503603343001
 21
152.87472427745391
  0
LINE
  5
49C
100
AcDbEntity
  8
1
  6
CONTINUOUS
 62
             7
100
AcDbLine
 10
134.52503603343001
 20
188.87472427745391
 11
132.92503603342999
 21
188.87472427745391
  0
LINE
  5
49B
100
AcDbEntity
  8
1
  6
CONTINUOUS
 62
             7
100
AcDbLine
 10
134.52503603343001
 20
160.87472427745391
 11
132.92503603342999
 21
160.87472427745391
  0
LINE
  5
49A
100
AcDbEntity
  8
1
  6
CONTINUOUS
 62
             7
100
AcDbLine
 10
122.92503603343
 20
186.87472427745391
 11
132.92503603342999
 21
186.87472427745391
  0
LINE
  5
499
100
AcDbEntity
  8
1
  6
CONTINUOUS
 62
             7
100
AcDbLine
 10
132.92503603342999
 20
180.87472427745391
 11
122.92503603343
 21
180.87472427745391
  0
LINE
  5
498
100
AcDbEntity
  8
1
  6
CONTINUOUS
 62
             7
100
AcDbLine
 10
132.92503603342999
 20
162.87472427745391
 11
122.92503603343
 21
162.87472427745391
  0
LINE
  5
497
100
AcDbEntity
  8
1
  6
CONTINUOUS
 62
             7
100
AcDbLine
 10
122.92503603343
 20
168.87472427745391
 11
132.92503603342999
 21
168.87472427745391
  0
LINE
  5
496
100
AcDbEntity
  8
1
  6
CONTINUOUS
 62
             7
100
AcDbLine
 10
272.52503603342927
 20
152.87472427745391
 11
272.5250360334291
 21
108.87472427745389
  0
LINE
  5
495
100
AcDbEntity
  8
1
  6
CONTINUOUS
 62
             7
100
AcDbLine
 10
189.52503603342939
 20
108.87472427745389
 11
189.52503603342939
 21
152.87472427745391
  0
LINE
  5
494
100
AcDbEntity
  8
1
  6
CONTINUOUS
 62
             7
100
AcDbLine
 10
179.52503603342939
 20
108.87472427745389
 11
179.52503603342939
 21
152.87472427745391
  0
LINE
  5
493
100
AcDbEntity
  8
1
  6
CONTINUOUS
 62
             7
100
AcDbLine
 10
282.52503603342939
 20
108.87472427745389
 11
179.52503603342939
 21
108.87472427745389
  0
LINE
  5
492
100
AcDbEntity
  8
1
  6
CONTINUOUS
 62
             7
100
AcDbLine
 10
282.52503603342939
 20
152.87472427745391
 11
282.52503603342939
 21
108.87472427745389
  0
LINE
  5
491
100
AcDbEntity
  8
1
  6
CONTINUOUS
 62
             7
100
AcDbLine
 10
179.52503603342939
 20
152.87472427745391
 11
282.52503603342939
 21
152.87472427745391
  0
LINE
  5
490
100
AcDbEntity
  8
1
  6
CONTINUOUS
 62
             7
100
AcDbLine
 10
189.52503603342939
 20
68.47472427745394
 11
272.52503603342927
 21
68.47472427745394
  0
LINE
  5
48F
100
AcDbEntity
  8
1
  6
CONTINUOUS
 62
             7
100
AcDbLine
 10
272.52503603342927
 20
68.47472427745394
 11
272.52503603342927
 21
66.87472427745392
  0
LINE
  5
48E
100
AcDbEntity
  8
1
  6
CONTINUOUS
 62
             7
100
AcDbLine
 10
272.52503603342927
 20
66.87472427745392
 11
189.52503603342939
 21
66.87472427745392
  0
LINE
  5
48D
100
AcDbEntity
  8
1
  6
CONTINUOUS
 62
             7
100
AcDbLine
 10
189.52503603342939
 20
66.87472427745392
 11
189.52503603342939
 21
68.47472427745394
  0
LINE
  5
48C
100
AcDbEntity
  8
1
  6
CONTINUOUS
 62
             7
100
AcDbLine
 10
282.52503603342939
 20
52.87472427745392
 11
179.52503603342939
 21
52.87472427745392
  0
LINE
  5
48B
100
AcDbEntity
  8
1
  6
CONTINUOUS
 62
             7
100
AcDbLine
 10
179.52503603342939
 20
52.87472427745392
 11
179.52503603342939
 21
51.2747242774539
  0
LINE
  5
48A
100
AcDbEntity
  8
1
  6
CONTINUOUS
 62
             7
100
AcDbLine
 10
179.52503603342939
 20
51.2747242774539
 11
282.52503603342939
 21
51.2747242774539
  0
LINE
  5
489
100
AcDbEntity
  8
1
  6
CONTINUOUS
 62
             7
100
AcDbLine
 10
282.52503603342939
 20
51.2747242774539
 11
282.52503603342939
 21
52.87472427745392
  0
LINE
  5
488
100
AcDbEntity
  8
1
  6
CONTINUOUS
 62
             7
100
AcDbLine
 10
264.52503603342927
 20
66.87472427745392
 11
264.52503603342927
 21
52.87472427745392
  0
LINE
  5
487
100
AcDbEntity
  8
1
  6
CONTINUOUS
 62
             7
100
AcDbLine
 10
270.52503603342927
 20
52.87472427745392
 11
270.52503603342927
 21
66.87472427745392
  0
LINE
  5
486
100
AcDbEntity
  8
1
  6
CONTINUOUS
 62
             7
100
AcDbLine
 10
197.52503603342939
 20
52.87472427745392
 11
197.52503603342939
 21
66.87472427745392
  0
LINE
  5
485
100
AcDbEntity
  8
1
  6
CONTINUOUS
 62
             7
100
AcDbLine
 10
191.52503603342939
 20
66.87472427745392
 11
191.52503603342939
 21
52.87472427745392
  0
LINE
  5
484
100
AcDbEntity
  8
1
  6
CONTINUOUS
 62
             7
100
AcDbLine
 10
136.7750360334295
 20
168.54972547216329
 11
136.7750360334295
 21
163.1997230827445
  0
LINE
  5
483
100
AcDbEntity
  8
1
  6
CONTINUOUS
 62
             7
100
AcDbLine
 10
136.37503603342941
 20
162.78590033728941
 11
134.5250360334295
 21
162.78590033728941
  0
LINE
  5
482
100
AcDbEntity
  8
1
  6
CONTINUOUS
 62
             7
100
AcDbLine
 10
134.5250360334295
 20
168.96354821761841
 11
136.37503603342941
 21
168.96354821761841
  0
LINE
  5
481
100
AcDbEntity
  8
1
  6
CONTINUOUS
 62
             7
100
AcDbLine
 10
134.5250360334295
 20
162.78590033728941
 11
134.5250360334295
 21
164.3303123073716
  0
LINE
  5
480
100
AcDbEntity
  8
1
  6
CONTINUOUS
 62
             7
100
AcDbLine
 10
134.5250360334295
 20
167.4191362475361
 11
136.37503603342941
 21
167.4191362475361
  0
LINE
  5
47F
100
AcDbEntity
  8
1
  6
CONTINUOUS
 62
             7
100
AcDbLine
 10
134.5250360334295
 20
167.4191362475361
 11
134.5250360334295
 21
168.96354821761841
  0
LINE
  5
47E
100
AcDbEntity
  8
1
  6
CONTINUOUS
 62
             7
100
AcDbLine
 10
134.5250360334295
 20
164.3303123073716
 11
136.37503603342941
 21
164.3303123073716
  0
LINE
  5
47D
100
AcDbEntity
  8
1
  6
CONTINUOUS
 62
             7
100
AcDbLine
 10
134.5250360334295
 20
164.3303123073716
 11
134.5250360334295
 21
167.4191362475361
  0
LINE
  5
47C
100
AcDbEntity
  8
1
  6
CONTINUOUS
 62
             7
100
AcDbLine
 10
134.5250360334295
 20
182.33031230737171
 11
134.5250360334295
 21
185.41913624753619
  0
LINE
  5
47B
100
AcDbEntity
  8
1
  6
CONTINUOUS
 62
             7
100
AcDbLine
 10
134.5250360334295
 20
182.33031230737171
 11
136.37503603342941
 21
182.33031230737171
  0
LINE
  5
47A
100
AcDbEntity
  8
1
  6
CONTINUOUS
 62
             7
100
AcDbLine
 10
134.5250360334295
 20
185.41913624753619
 11
134.5250360334295
 21
186.96354821761841
  0
LINE
  5
479
100
AcDbEntity
  8
1
  6
CONTINUOUS
 62
             7
100
AcDbLine
 10
134.5250360334295
 20
185.41913624753619
 11
136.37503603342941
 21
185.41913624753619
  0
LINE
  5
478
100
AcDbEntity
  8
1
  6
CONTINUOUS
 62
             7
100
AcDbLine
 10
134.5250360334295
 20
180.78590033728941
 11
134.5250360334295
 21
182.33031230737171
  0
LINE
  5
477
100
AcDbEntity
  8
1
  6
CONTINUOUS
 62
             7
100
AcDbLine
 10
134.5250360334295
 20
186.96354821761841
 11
136.37503603342941
 21
186.96354821761841
  0
LINE
  5
476
100
AcDbEntity
  8
1
  6
CONTINUOUS
 62
             7
100
AcDbLine
 10
136.37503603342941
 20
180.78590033728941
 11
134.5250360334295
 21
180.78590033728941
  0
LINE
  5
475
100
AcDbEntity
  8
1
  6
CONTINUOUS
 62
             7
100
AcDbLine
 10
136.7750360334295
 20
186.54972547216329
 11
136.7750360334295
 21
181.1997230827445
  0
LINE
  5
474
100
AcDbEntity
  8
1
  6
CONTINUOUS
 62
             7
100
AcDbLine
 10
121.3250360334298
 20
181.2247242774539
 11
121.3250360334298
 21
186.524724277454
  0
LINE
  5
473
100
AcDbEntity
  8
1
  6
CONTINUOUS
 62
             7
100
AcDbLine
 10
136.7750360334295
 20
182.62472427745391
 11
137.3250360334294
 21
182.62472427745391
  0
LINE
  5
472
100
AcDbEntity
  8
1
  6
CONTINUOUS
 62
             7
100
AcDbLine
 10
136.7750360334295
 20
185.12472427745391
 11
137.3250360334294
 21
185.12472427745391
  0
LINE
  5
471
100
AcDbEntity
  8
1
  6
CONTINUOUS
 62
             7
100
AcDbLine
 10
137.3250360334294
 20
182.37472427745391
 11
137.3250360334294
 21
185.37472427745391
  0
LINE
  5
470
100
AcDbEntity
  8
1
  6
CONTINUOUS
 62
             7
100
AcDbLine
 10
136.7750360334295
 20
185.37472427745391
 11
137.3250360334294
 21
185.37472427745391
  0
LINE
  5
46F
100
AcDbEntity
  8
1
  6
CONTINUOUS
 62
             7
100
AcDbLine
 10
136.7750360334295
 20
182.37472427745391
 11
137.3250360334294
 21
182.37472427745391
  0
LINE
  5
46E
100
AcDbEntity
  8
1
  6
CONTINUOUS
 62
             7
100
AcDbLine
 10
120.57067012897301
 20
181.2247242774539
 11
121.3250360334298
 21
181.2247242774539
  0
LINE
  5
46D
100
AcDbEntity
  8
1
  6
CONTINUOUS
 62
             7
100
AcDbLine
 10
121.3250360334298
 20
186.524724277454
 11
120.57067012897301
 21
186.524724277454
  0
LINE
  5
46C
100
AcDbEntity
  8
1
  6
CONTINUOUS
 62
             7
100
AcDbLine
 10
121.3250360334298
 20
168.524724277454
 11
120.57067012897301
 21
168.524724277454
  0
LINE
  5
46B
100
AcDbEntity
  8
1
  6
CONTINUOUS
 62
             7
100
AcDbLine
 10
120.57067012897301
 20
163.2247242774539
 11
121.3250360334298
 21
163.2247242774539
  0
LINE
  5
46A
100
AcDbEntity
  8
1
  6
CONTINUOUS
 62
             7
100
AcDbLine
 10
136.7750360334295
 20
164.37472427745391
 11
137.3250360334294
 21
164.37472427745391
  0
LINE
  5
469
100
AcDbEntity
  8
1
  6
CONTINUOUS
 62
             7
100
AcDbLine
 10
136.7750360334295
 20
167.37472427745391
 11
137.3250360334294
 21
167.37472427745391
  0
LINE
  5
468
100
AcDbEntity
  8
1
  6
CONTINUOUS
 62
             7
100
AcDbLine
 10
137.3250360334294
 20
164.37472427745391
 11
137.3250360334294
 21
167.37472427745391
  0
LINE
  5
467
100
AcDbEntity
  8
1
  6
CONTINUOUS
 62
             7
100
AcDbLine
 10
136.7750360334295
 20
167.12472427745391
 11
137.3250360334294
 21
167.12472427745391
  0
LINE
  5
466
100
AcDbEntity
  8
1
  6
CONTINUOUS
 62
             7
100
AcDbLine
 10
136.7750360334295
 20
164.62472427745391
 11
137.3250360334294
 21
164.62472427745391
  0
LINE
  5
465
100
AcDbEntity
  8
1
  6
CONTINUOUS
 62
             7
100
AcDbLine
 10
121.3250360334298
 20
163.2247242774539
 11
121.3250360334298
 21
168.524724277454
  0
LINE
  5
464
100
AcDbEntity
  8
1
  6
CONTINUOUS
 62
             7
100
AcDbLine
 10
83.39366518353018
 20
164.74335342755541
 11
85.65640688332729
 21
167.00609512735241
  0
LINE
  5
463
100
AcDbEntity
  8
1
  6
CONTINUOUS
 62
             7
100
AcDbLine
 10
83.39366518353018
 20
167.00609512735241
 11
85.65640688332729
 21
164.74335342755541
  0
LINE
  5
462
100
AcDbEntity
  8
1
  6
CONTINUOUS
 62
             7
100
AcDbLine
 10
83.39366518353018
 20
185.00609512735241
 11
85.65640688332729
 21
182.74335342755541
  0
LINE
  5
461
100
AcDbEntity
  8
1
  6
CONTINUOUS
 62
             7
100
AcDbLine
 10
83.39366518353018
 20
182.74335342755541
 11
85.65640688332729
 21
185.00609512735241
  0
LINE
  5
460
100
AcDbEntity
  8
1
  6
CONTINUOUS
 62
             7
100
AcDbLine
 10
33.3936651835302
 20
182.74335342755541
 11
35.65640688332729
 21
185.00609512735241
  0
LINE
  5
45F
100
AcDbEntity
  8
1
  6
CONTINUOUS
 62
             7
100
AcDbLine
 10
33.3936651835302
 20
185.00609512735241
 11
35.65640688332729
 21
182.74335342755541
  0
LINE
  5
45E
100
AcDbEntity
  8
1
  6
CONTINUOUS
 62
             7
100
AcDbLine
 10
33.3936651835302
 20
167.00609512735241
 11
35.65640688332729
 21
164.74335342755541
  0
LINE
  5
45D
100
AcDbEntity
  8
1
  6
CONTINUOUS
 62
             7
100
AcDbLine
 10
33.3936651835302
 20
164.74335342755541
 11
35.65640688332729
 21
167.00609512735241
  0
LINE
  5
45C
100
AcDbEntity
  8
1
  6
CONTINUOUS
 62
             7
100
AcDbLine
 10
266.39366518353057
 20
149.00609512735241
 11
268.65640688332758
 21
146.74335342755541
  0
LINE
  5
45B
100
AcDbEntity
  8
1
  6
CONTINUOUS
 62
             7
100
AcDbLine
 10
266.39366518353057
 20
146.74335342755541
 11
268.65640688332758
 21
149.00609512735241
  0
LINE
  5
45A
100
AcDbEntity
  8
1
  6
CONTINUOUS
 62
             7
100
AcDbLine
 10
266.39366518353057
 20
115.0060951273524
 11
268.65640688332758
 21
112.74335342755541
  0
LINE
  5
459
100
AcDbEntity
  8
1
  6
CONTINUOUS
 62
             7
100
AcDbLine
 10
266.39366518353057
 20
112.74335342755541
 11
268.65640688332758
 21
115.0060951273524
  0
LINE
  5
458
100
AcDbEntity
  8
1
  6
CONTINUOUS
 62
             7
100
AcDbLine
 10
193.39366518353049
 20
146.74335342755541
 11
195.65640688332761
 21
149.00609512735241
  0
LINE
  5
457
100
AcDbEntity
  8
1
  6
CONTINUOUS
 62
             7
100
AcDbLine
 10
193.39366518353049
 20
149.00609512735241
 11
195.65640688332761
 21
146.74335342755541
  0
LINE
  5
456
100
AcDbEntity
  8
1
  6
CONTINUOUS
 62
             7
100
AcDbLine
 10
193.39366518353049
 20
115.0060951273524
 11
195.65640688332761
 21
112.74335342755541
  0
LINE
  5
455
100
AcDbEntity
  8
1
  6
CONTINUOUS
 62
             7
100
AcDbLine
 10
193.39366518353049
 20
112.74335342755541
 11
195.65640688332761
 21
115.0060951273524
  0
LINE
  5
454
100
AcDbEntity
  8
1
  6
CONTINUOUS
 62
             7
100
AcDbLine
 10
270.07503603342923
 20
68.47472427745383
 11
270.07503603342923
 21
69.22909018191051
  0
LINE
  5
453
100
AcDbEntity
  8
1
  6
CONTINUOUS
 62
             7
100
AcDbLine
 10
264.7750360334291
 20
69.22909018191051
 11
264.7750360334291
 21
68.47472427745383
  0
LINE
  5
452
100
AcDbEntity
  8
1
  6
CONTINUOUS
 62
             7
100
AcDbLine
 10
265.92503603342908
 20
49.0247242774539
 11
265.92503603342908
 21
48.474724277454
  0
LINE
  5
451
100
AcDbEntity
  8
1
  6
CONTINUOUS
 62
             7
100
AcDbLine
 10
268.92503603342908
 20
49.0247242774539
 11
268.92503603342908
 21
48.474724277454
  0
LINE
  5
450
100
AcDbEntity
  8
1
  6
CONTINUOUS
 62
             7
100
AcDbLine
 10
265.92503603342908
 20
48.474724277454
 11
268.92503603342908
 21
48.474724277454
  0
LINE
  5
44F
100
AcDbEntity
  8
1
  6
CONTINUOUS
 62
             7
100
AcDbLine
 10
268.67503603342908
 20
49.0247242774539
 11
268.67503603342908
 21
48.474724277454
  0
LINE
  5
44E
100
AcDbEntity
  8
1
  6
CONTINUOUS
 62
             7
100
AcDbLine
 10
266.17503603342908
 20
49.0247242774539
 11
266.17503603342908
 21
48.474724277454
  0
LINE
  5
44D
100
AcDbEntity
  8
1
  6
CONTINUOUS
 62
             7
100
AcDbLine
 10
264.7750360334291
 20
68.47472427745383
 11
270.07503603342923
 21
68.47472427745383
  0
LINE
  5
44C
100
AcDbEntity
  8
1
  6
CONTINUOUS
 62
             7
100
AcDbLine
 10
270.1000372281386
 20
49.0247242774539
 11
264.75003483871978
 21
49.0247242774539
  0
LINE
  5
44B
100
AcDbEntity
  8
1
  6
CONTINUOUS
 62
             7
100
AcDbLine
 10
264.33621209326458
 20
49.42472427745393
 11
264.33621209326458
 21
51.2747242774539
  0
LINE
  5
44A
100
AcDbEntity
  8
1
  6
CONTINUOUS
 62
             7
100
AcDbLine
 10
270.51385997359358
 20
51.2747242774539
 11
270.51385997359358
 21
49.42472427745393
  0
LINE
  5
449
100
AcDbEntity
  8
1
  6
CONTINUOUS
 62
             7
100
AcDbLine
 10
264.33621209326458
 20
51.2747242774539
 11
265.88062406334689
 21
51.2747242774539
  0
LINE
  5
448
100
AcDbEntity
  8
1
  6
CONTINUOUS
 62
             7
100
AcDbLine
 10
268.9694480035115
 20
51.2747242774539
 11
268.9694480035115
 21
49.42472427745393
  0
LINE
  5
447
100
AcDbEntity
  8
1
  6
CONTINUOUS
 62
             7
100
AcDbLine
 10
268.9694480035115
 20
51.2747242774539
 11
270.51385997359358
 21
51.2747242774539
  0
LINE
  5
446
100
AcDbEntity
  8
1
  6
CONTINUOUS
 62
             7
100
AcDbLine
 10
265.88062406334689
 20
51.2747242774539
 11
265.88062406334689
 21
49.42472427745393
  0
LINE
  5
445
100
AcDbEntity
  8
1
  6
CONTINUOUS
 62
             7
100
AcDbLine
 10
265.88062406334689
 20
51.2747242774539
 11
268.9694480035115
 21
51.2747242774539
  0
LINE
  5
444
100
AcDbEntity
  8
1
  6
CONTINUOUS
 62
             7
100
AcDbLine
 10
192.88062406334689
 20
51.2747242774539
 11
195.96944800351139
 21
51.2747242774539
  0
LINE
  5
443
100
AcDbEntity
  8
1
  6
CONTINUOUS
 62
             7
100
AcDbLine
 10
192.88062406334689
 20
51.2747242774539
 11
192.88062406334689
 21
49.42472427745393
  0
LINE
  5
442
100
AcDbEntity
  8
1
  6
CONTINUOUS
 62
             7
100
AcDbLine
 10
195.96944800351139
 20
51.2747242774539
 11
197.5138599735937
 21
51.2747242774539
  0
LINE
  5
441
100
AcDbEntity
  8
1
  6
CONTINUOUS
 62
             7
100
AcDbLine
 10
195.96944800351139
 20
51.2747242774539
 11
195.96944800351139
 21
49.42472427745393
  0
LINE
  5
440
100
AcDbEntity
  8
1
  6
CONTINUOUS
 62
             7
100
AcDbLine
 10
191.33621209326469
 20
51.2747242774539
 11
192.88062406334689
 21
51.2747242774539
  0
LINE
  5
43F
100
AcDbEntity
  8
1
  6
CONTINUOUS
 62
             7
100
AcDbLine
 10
197.5138599735937
 20
51.2747242774539
 11
197.5138599735937
 21
49.42472427745393
  0
LINE
  5
43E
100
AcDbEntity
  8
1
  6
CONTINUOUS
 62
             7
100
AcDbLine
 10
191.33621209326469
 20
49.42472427745393
 11
191.33621209326469
 21
51.2747242774539
  0
LINE
  5
43D
100
AcDbEntity
  8
1
  6
CONTINUOUS
 62
             7
100
AcDbLine
 10
197.10003722813849
 20
49.0247242774539
 11
191.7500348387197
 21
49.0247242774539
  0
LINE
  5
43C
100
AcDbEntity
  8
1
  6
CONTINUOUS
 62
             7
100
AcDbLine
 10
191.7750360334291
 20
68.47472427745383
 11
197.07503603342909
 21
68.47472427745383
  0
LINE
  5
43B
100
AcDbEntity
  8
1
  6
CONTINUOUS
 62
             7
100
AcDbLine
 10
193.17503603342919
 20
49.0247242774539
 11
193.17503603342919
 21
48.474724277454
  0
LINE
  5
43A
100
AcDbEntity
  8
1
  6
CONTINUOUS
 62
             7
100
AcDbLine
 10
195.67503603342919
 20
49.0247242774539
 11
195.67503603342919
 21
48.474724277454
  0
LINE
  5
439
100
AcDbEntity
  8
1
  6
CONTINUOUS
 62
             7
100
AcDbLine
 10
192.92503603342919
 20
48.474724277454
 11
195.92503603342919
 21
48.474724277454
  0
LINE
  5
438
100
AcDbEntity
  8
1
  6
CONTINUOUS
 62
             7
100
AcDbLine
 10
195.92503603342919
 20
49.0247242774539
 11
195.92503603342919
 21
48.474724277454
  0
LINE
  5
437
100
AcDbEntity
  8
1
  6
CONTINUOUS
 62
             7
100
AcDbLine
 10
192.92503603342919
 20
49.0247242774539
 11
192.92503603342919
 21
48.474724277454
  0
LINE
  5
436
100
AcDbEntity
  8
1
  6
CONTINUOUS
 62
             7
100
AcDbLine
 10
191.7750360334291
 20
69.22909018191051
 11
191.7750360334291
 21
68.47472427745383
  0
LINE
  5
435
100
AcDbEntity
  8
1
  6
CONTINUOUS
 62
             7
100
AcDbLine
 10
197.07503603342909
 20
68.47472427745383
 11
197.07503603342909
 21
69.22909018191051
  0
LINE
  5
434
100
AcDbEntity
  8
1
  6
CONTINUOUS
 62
             7
100
AcDbLine
 10
207.5250360334291
 20
52.87472427745392
 11
206.0250360334291
 21
52.87472427745394
  0
LINE
  5
433
100
AcDbEntity
  8
1
  6
CONTINUOUS
 62
             7
100
AcDbLine
 10
207.5250360334291
 20
53.17472427745393
 11
207.5250360334291
 21
52.87472427745392
  0
LINE
  5
432
100
AcDbEntity
  8
1
  6
CONTINUOUS
 62
             7
100
AcDbLine
 10
206.0250360334291
 20
53.17472427745393
 11
207.5250360334291
 21
53.17472427745393
  0
LINE
  5
431
100
AcDbEntity
  8
1
  6
CONTINUOUS
 62
             7
100
AcDbLine
 10
199.5250360334291
 20
53.17472427745393
 11
201.0250360334291
 21
53.17472427745393
  0
LINE
  5
430
100
AcDbEntity
  8
1
  6
CONTINUOUS
 62
             7
100
AcDbLine
 10
199.5250360334291
 20
52.87472427745392
 11
199.5250360334291
 21
53.17472427745393
  0
LINE
  5
42F
100
AcDbEntity
  8
1
  6
CONTINUOUS
 62
             7
100
AcDbLine
 10
201.0250360334291
 20
52.87472427745392
 11
199.5250360334291
 21
52.87472427745392
  0
LINE
  5
42E
100
AcDbEntity
  8
1
  6
CONTINUOUS
 62
             7
100
AcDbLine
 10
201.0250360334291
 20
56.87472427745392
 11
201.0250360334291
 21
52.87472427745392
  0
LINE
  5
42D
100
AcDbEntity
  8
1
  6
CONTINUOUS
 62
             7
100
AcDbLine
 10
206.0250360334291
 20
56.87472427745392
 11
201.0250360334291
 21
56.87472427745392
  0
LINE
  5
42C
100
AcDbEntity
  8
1
  6
CONTINUOUS
 62
             7
100
AcDbLine
 10
206.0250360334291
 20
52.87472427745394
 11
206.0250360334291
 21
56.87472427745392
  0
LINE
  5
42B
100
AcDbEntity
  8
1
  6
CONTINUOUS
 62
             7
100
AcDbLine
 10
201.0250360334291
 20
52.87472427745392
 11
206.0250360334291
 21
52.87472427745394
  0
LINE
  5
42A
100
AcDbEntity
  8
1
  6
CONTINUOUS
 62
             7
100
AcDbLine
 10
255.22503603342841
 20
68.70942099806113
 11
255.22503603342841
 21
68.47472427745394
  0
LINE
  5
429
100
AcDbEntity
  8
1
  6
CONTINUOUS
 62
             7
100
AcDbLine
 10
255.82503603342829
 20
68.70942099806113
 11
255.82503603342829
 21
68.47472427745394
  0
LINE
  5
428
100
AcDbEntity
  8
1
  6
CONTINUOUS
 62
             7
100
AcDbLine
 10
257.77503603342842
 20
76.85942099806111
 11
257.77503603342842
 21
73.35942099806111
  0
LINE
  5
427
100
AcDbEntity
  8
1
  6
CONTINUOUS
 62
             7
100
AcDbLine
 10
253.27503603342839
 20
73.74010503057353
 11
253.27503603342839
 21
76.85942099806111
  0
LINE
  5
426
100
AcDbEntity
  8
1
  6
CONTINUOUS
 62
             7
100
AcDbLine
 10
255.22503603342841
 20
68.70942099806113
 11
255.82503603342829
 21
68.70942099806113
  0
LINE
  5
425
100
AcDbEntity
  8
1
  6
CONTINUOUS
 62
             7
100
AcDbLine
 10
257.77503603342842
 20
125.82472427745419
 11
257.77503603342842
 21
122.32472427745419
  0
LINE
  5
424
100
AcDbEntity
  8
1
  6
CONTINUOUS
 62
             7
100
AcDbLine
 10
253.27503603342839
 20
122.32472427745419
 11
253.27503603342839
 21
125.82472427745419
  0
LINE
  5
423
100
AcDbEntity
  8
1
  6
CONTINUOUS
 62
             7
100
AcDbLine
 10
211.35316103342839
 20
143.596599277454
 11
211.35316103342839
 21
140.752849277454
  0
LINE
  5
422
100
AcDbEntity
  8
1
  6
CONTINUOUS
 62
             7
100
AcDbLine
 10
221.27503603342871
 20
74.94650367719582
 11
221.27503603342871
 21
77.07989220428225
  0
LINE
  5
421
100
AcDbEntity
  8
1
  6
CONTINUOUS
 62
             7
100
AcDbLine
 10
221.72503603342861
 20
71.02725858589774
 11
221.72503603342861
 21
71.02230334209592
  0
LINE
  5
420
100
AcDbEntity
  8
1
  6
CONTINUOUS
 62
             7
100
AcDbLine
 10
221.12503603342859
 20
71.02725858589774
 11
221.72503603342861
 21
71.02725858589774
  0
LINE
  5
41F
100
AcDbEntity
  8
1
  6
CONTINUOUS
 62
             7
100
AcDbLine
 10
225.32503603342869
 20
71.02725858589774
 11
225.9250360334286
 21
71.02725858589774
  0
LINE
  5
41E
100
AcDbEntity
  8
1
  6
CONTINUOUS
 62
             7
100
AcDbLine
 10
221.88236320295621
 20
70.65819438689702
 11
222.85003603342801
 21
69.74749119474994
  0
LINE
  5
41D
100
AcDbEntity
  8
1
  6
CONTINUOUS
 62
             7
100
AcDbLine
 10
221.47115580638939
 20
70.22126364065831
 11
222.85003603342801
 21
68.9235619952165
  0
LINE
  5
41C
100
AcDbEntity
  8
1
  6
CONTINUOUS
 62
             7
100
AcDbLine
 10
221.12503603342859
 20
71.02725858589774
 11
221.12503603342859
 21
71.02230334209592
  0
LINE
  5
41B
100
AcDbEntity
  8
1
  6
CONTINUOUS
 62
             7
100
AcDbLine
 10
223.9508977690507
 20
68.68909120559555
 11
225.57891626046791
 21
70.22126364065831
  0
LINE
  5
41A
100
AcDbEntity
  8
1
  6
CONTINUOUS
 62
             7
100
AcDbLine
 10
223.60003603342801
 20
69.18281489292285
 11
225.167708863901
 21
70.65819438689702
  0
LINE
  5
419
100
AcDbEntity
  8
1
  6
CONTINUOUS
 62
             7
100
AcDbLine
 10
225.9250360334286
 20
71.02230334209592
 11
225.9250360334286
 21
71.02725858589774
  0
LINE
  5
418
100
AcDbEntity
  8
1
  6
CONTINUOUS
 62
             7
100
AcDbLine
 10
225.32503603342869
 20
71.02725858589774
 11
225.9250360334286
 21
71.02725858589774
  0
LINE
  5
417
100
AcDbEntity
  8
1
  6
CONTINUOUS
 62
             7
100
AcDbLine
 10
225.32503603342869
 20
71.02230334209592
 11
225.32503603342869
 21
71.02725858589774
  0
LINE
  5
416
100
AcDbEntity
  8
1
  6
CONTINUOUS
 62
             7
100
AcDbLine
 10
221.27503603342859
 20
127.7247242774539
 11
221.27503603342859
 21
131.2247242774539
  0
LINE
  5
415
100
AcDbEntity
  8
1
  6
CONTINUOUS
 62
             7
100
AcDbLine
 10
225.77503603342859
 20
131.2247242774539
 11
225.77503603342859
 21
127.7247242774539
  0
LINE
  5
414
100
AcDbEntity
  8
1
  6
CONTINUOUS
 62
             7
100
AcDbLine
 10
207.69691103342839
 20
140.752849277454
 11
207.69691103342839
 21
143.596599277454
  0
LINE
  5
413
100
AcDbEntity
  8
1
  6
CONTINUOUS
 62
             7
100
AcDbLine
 10
221.5000360334281
 20
112.7067630826167
 11
221.5000360334281
 21
122.84268547229129
  0
LINE
  5
412
100
AcDbEntity
  8
1
  6
CONTINUOUS
 62
             7
100
AcDbLine
 10
221.5000360334281
 20
122.84268547229129
 11
226.20003603342809
 21
122.924724277454
  0
LINE
  5
411
100
AcDbEntity
  8
1
  6
CONTINUOUS
 62
             7
100
AcDbLine
 10
226.20003603342809
 20
122.924724277454
 11
226.20003603342809
 21
112.62472427745401
  0
LINE
  5
410
100
AcDbEntity
  8
1
  6
CONTINUOUS
 62
             7
100
AcDbLine
 10
226.20003603342809
 20
112.62472427745401
 11
221.5000360334281
 21
112.7067630826167
  0
LINE
  5
40F
100
AcDbEntity
  8
1
  6
CONTINUOUS
 62
             7
100
AcDbLine
 10
223.50003603342739
 20
112.6718529527603
 11
223.50003603342739
 21
122.87759560214769
  0
LINE
  5
40E
100
AcDbEntity
  8
1
  6
CONTINUOUS
 62
             7
100
AcDbLine
 10
223.60003603342801
 20
73.57472427745402
 11
222.85003603342801
 21
73.57472427745402
  0
LINE
  5
40D
100
AcDbEntity
  8
1
  6
CONTINUOUS
 62
             7
100
AcDbLine
 10
222.85003603342801
 20
73.57472427745402
 11
221.5000360334279
 21
73.57472427745402
  0
LINE
  5
40C
100
AcDbEntity
  8
1
  6
CONTINUOUS
 62
             7
100
AcDbLine
 10
226.20003603342789
 20
73.57472427745402
 11
223.60003603342801
 21
73.57472427745402
  0
LINE
  5
40B
100
AcDbEntity
  8
1
  6
CONTINUOUS
 62
             7
100
AcDbLine
 10
226.20003603342809
 20
88.57472427745394
 11
226.20003603342789
 21
73.57472427745402
  0
LINE
  5
40A
100
AcDbEntity
  8
1
  6
CONTINUOUS
 62
             7
100
AcDbLine
 10
223.5000360334281
 20
81.67472427745403
 11
223.5000360334281
 21
88.57472427745394
  0
LINE
  5
409
100
AcDbEntity
  8
1
  6
CONTINUOUS
 62
             7
100
AcDbLine
 10
223.5000360334281
 20
88.57472427745394
 11
226.20003603342809
 21
88.57472427745394
  0
LINE
  5
408
100
AcDbEntity
  8
1
  6
CONTINUOUS
 62
             7
100
AcDbLine
 10
221.5000360334281
 20
81.67472427745403
 11
223.5000360334281
 21
81.67472427745403
  0
LINE
  5
407
100
AcDbEntity
  8
1
  6
CONTINUOUS
 62
             7
100
AcDbLine
 10
221.5000360334279
 20
73.57472427745402
 11
221.5000360334281
 21
81.67472427745403
  0
LINE
  5
406
100
AcDbEntity
  8
1
  6
CONTINUOUS
 62
             7
100
AcDbLine
 10
223.60003603342801
 20
68.47472427745394
 11
223.60003603342801
 21
73.57472427745402
  0
LINE
  5
405
100
AcDbEntity
  8
1
  6
CONTINUOUS
 62
             7
100
AcDbLine
 10
222.85003603342801
 20
73.57472427745402
 11
222.85003603342801
 21
68.47472427745394
  0
LINE
  5
404
100
AcDbEntity
  8
1
  6
CONTINUOUS
 62
             7
100
AcDbLine
 10
222.85003603342801
 20
68.47472427745394
 11
223.60003603342801
 21
68.47472427745394
  0
LINE
  5
403
100
AcDbEntity
  8
1
  6
CONTINUOUS
 62
             7
100
AcDbLine
 10
202.27503603342839
 20
120.37472427745401
 11
215.5750360334284
 21
120.37472427745401
  0
LINE
  5
402
100
AcDbEntity
  8
1
  6
CONTINUOUS
 62
             7
100
AcDbLine
 10
202.27503603342839
 20
132.37472427745399
 11
215.5750360334284
 21
132.37472427745399
  0
LINE
  5
401
100
AcDbEntity
  8
1
  6
CONTINUOUS
 62
             7
100
AcDbLine
 10
215.5750360334284
 20
116.37472427745401
 11
215.5750360334284
 21
136.37472427745399
  0
LINE
  5
400
100
AcDbEntity
  8
1
  6
CONTINUOUS
 62
             7
100
AcDbLine
 10
202.27503603342839
 20
136.37472427745399
 11
202.27503603342839
 21
116.37472427745401
  0
LINE
  5
3FF
100
AcDbEntity
  8
1
  6
CONTINUOUS
 62
             7
100
AcDbLine
 10
198.92503603342851
 20
116.37472427745401
 11
218.92503603342851
 21
116.37472427745401
  0
LINE
  5
3FE
100
AcDbEntity
  8
1
  6
CONTINUOUS
 62
             7
100
AcDbLine
 10
218.92503603342851
 20
116.37472427745401
 11
218.92503603342851
 21
136.37472427745399
  0
LINE
  5
3FD
100
AcDbEntity
  8
1
  6
CONTINUOUS
 62
             7
100
AcDbLine
 10
218.92503603342851
 20
136.37472427745399
 11
198.92503603342851
 21
136.37472427745399
  0
LINE
  5
3FC
100
AcDbEntity
  8
1
  6
CONTINUOUS
 62
             7
100
AcDbLine
 10
198.92503603342851
 20
136.37472427745399
 11
198.92503603342851
 21
116.37472427745401
  0
LINE
  5
3FB
100
AcDbEntity
  8
1
  6
CONTINUOUS
 62
             7
100
AcDbLine
 10
216.8250360334284
 20
71.37472427745392
 11
216.8250360334284
 21
68.47472427745394
  0
LINE
  5
3FA
100
AcDbEntity
  8
1
  6
CONTINUOUS
 62
             7
100
AcDbLine
 10
216.8250360334284
 20
68.47472427745394
 11
216.22503603342841
 21
68.47472427745394
  0
LINE
  5
3F9
100
AcDbEntity
  8
1
  6
CONTINUOUS
 62
             7
100
AcDbLine
 10
216.22503603342841
 20
68.47472427745394
 11
216.22503603342841
 21
71.37472427745392
  0
LINE
  5
3F8
100
AcDbEntity
  8
1
  6
CONTINUOUS
 62
             7
100
AcDbLine
 10
213.02503603342839
 20
71.37472427745392
 11
213.02503603342839
 21
68.47472427745394
  0
LINE
  5
3F7
100
AcDbEntity
  8
1
  6
CONTINUOUS
 62
             7
100
AcDbLine
 10
213.02503603342839
 20
68.47472427745394
 11
212.42503603342851
 21
68.47472427745394
  0
LINE
  5
3F6
100
AcDbEntity
  8
1
  6
CONTINUOUS
 62
             7
100
AcDbLine
 10
212.42503603342851
 20
68.47472427745394
 11
212.42503603342851
 21
71.37472427745392
  0
LINE
  5
3F5
100
AcDbEntity
  8
1
  6
CONTINUOUS
 62
             7
100
AcDbLine
 10
201.6250360334285
 20
71.37472427745392
 11
201.6250360334285
 21
68.47472427745394
  0
LINE
  5
3F4
100
AcDbEntity
  8
1
  6
CONTINUOUS
 62
             7
100
AcDbLine
 10
201.6250360334285
 20
68.47472427745394
 11
201.02503603342839
 21
68.47472427745394
  0
LINE
  5
3F3
100
AcDbEntity
  8
1
  6
CONTINUOUS
 62
             7
100
AcDbLine
 10
201.02503603342839
 20
68.47472427745394
 11
201.02503603342839
 21
71.37472427745392
  0
LINE
  5
3F2
100
AcDbEntity
  8
1
  6
CONTINUOUS
 62
             7
100
AcDbLine
 10
205.42503603342851
 20
71.37472427745392
 11
205.42503603342851
 21
68.47472427745394
  0
LINE
  5
3F1
100
AcDbEntity
  8
1
  6
CONTINUOUS
 62
             7
100
AcDbLine
 10
205.42503603342851
 20
68.47472427745394
 11
204.8250360334284
 21
68.47472427745394
  0
LINE
  5
3F0
100
AcDbEntity
  8
1
  6
CONTINUOUS
 62
             7
100
AcDbLine
 10
204.8250360334284
 20
68.47472427745394
 11
204.8250360334284
 21
71.37472427745392
  0
LINE
  5
3EF
100
AcDbEntity
  8
1
  6
CONTINUOUS
 62
             7
100
AcDbLine
 10
213.97630626495459
 20
68.47472427745394
 11
215.27376580190241
 21
68.47472427745394
  0
LINE
  5
3EE
100
AcDbEntity
  8
1
  6
CONTINUOUS
 62
             7
100
AcDbLine
 10
215.27376580190241
 20
68.47472427745394
 11
215.3750360334285
 21
71.37472427745392
  0
LINE
  5
3ED
100
AcDbEntity
  8
1
  6
CONTINUOUS
 62
             7
100
AcDbLine
 10
213.8750360334285
 20
71.37472427745392
 11
213.97630626495459
 21
68.47472427745394
  0
LINE
  5
3EC
100
AcDbEntity
  8
1
  6
CONTINUOUS
 62
             7
100
AcDbLine
 10
210.17630626495441
 20
68.47472427745394
 11
211.47376580190249
 21
68.47472427745394
  0
LINE
  5
3EB
100
AcDbEntity
  8
1
  6
CONTINUOUS
 62
             7
100
AcDbLine
 10
211.47376580190249
 20
68.47472427745394
 11
211.5750360334284
 21
71.37472427745392
  0
LINE
  5
3EA
100
AcDbEntity
  8
1
  6
CONTINUOUS
 62
             7
100
AcDbLine
 10
210.0750360334284
 20
71.37472427745392
 11
210.17630626495441
 21
68.47472427745394
  0
LINE
  5
3E9
100
AcDbEntity
  8
1
  6
CONTINUOUS
 62
             7
100
AcDbLine
 10
206.37630626495451
 20
68.47472427745396
 11
207.67376580190231
 21
68.47472427745394
  0
LINE
  5
3E8
100
AcDbEntity
  8
1
  6
CONTINUOUS
 62
             7
100
AcDbLine
 10
207.67376580190231
 20
68.47472427745394
 11
207.77503603342839
 21
71.37472427745392
  0
LINE
  5
3E7
100
AcDbEntity
  8
1
  6
CONTINUOUS
 62
             7
100
AcDbLine
 10
206.27503603342839
 20
71.37472427745392
 11
206.37630626495451
 21
68.47472427745396
  0
LINE
  5
3E6
100
AcDbEntity
  8
1
  6
CONTINUOUS
 62
             7
100
AcDbLine
 10
208.6250360334285
 20
68.47472427745394
 11
208.6250360334285
 21
71.37472427745392
  0
LINE
  5
3E5
100
AcDbEntity
  8
1
  6
CONTINUOUS
 62
             7
100
AcDbLine
 10
209.22503603342841
 20
68.47472427745394
 11
208.6250360334285
 21
68.47472427745394
  0
LINE
  5
3E4
100
AcDbEntity
  8
1
  6
CONTINUOUS
 62
             7
100
AcDbLine
 10
209.22503603342841
 20
71.37472427745392
 11
209.22503603342841
 21
68.47472427745394
  0
LINE
  5
3E3
100
AcDbEntity
  8
1
  6
CONTINUOUS
 62
             7
100
AcDbLine
 10
202.47503603342841
 20
71.37472427745392
 11
202.57630626495461
 21
68.47472427745396
  0
LINE
  5
3E2
100
AcDbEntity
  8
1
  6
CONTINUOUS
 62
             7
100
AcDbLine
 10
203.87376580190241
 20
68.47472427745396
 11
203.97503603342841
 21
71.37472427745392
  0
LINE
  5
3E1
100
AcDbEntity
  8
1
  6
CONTINUOUS
 62
             7
100
AcDbLine
 10
202.57630626495461
 20
68.47472427745396
 11
203.87376580190241
 21
68.47472427745396
  0
LINE
  5
3E0
100
AcDbEntity
  8
1
  6
CONTINUOUS
 62
             7
100
AcDbLine
 10
218.27503603342839
 20
71.37472427745392
 11
218.27503603342839
 21
75.17472427745393
  0
LINE
  5
3DF
100
AcDbEntity
  8
1
  6
CONTINUOUS
 62
             7
100
AcDbLine
 10
199.5750360334284
 20
71.37472427745392
 11
218.27503603342839
 21
71.37472427745392
  0
LINE
  5
3DE
100
AcDbEntity
  8
1
  6
CONTINUOUS
 62
             7
100
AcDbLine
 10
199.5750360334284
 20
75.17472427745393
 11
199.5750360334284
 21
71.37472427745392
  0
LINE
  5
3DD
100
AcDbEntity
  8
1
  6
CONTINUOUS
 62
             7
100
AcDbLine
 10
198.92503603342851
 20
81.17472427745393
 11
198.92503603342851
 21
75.17472427745393
  0
LINE
  5
3DC
100
AcDbEntity
  8
1
  6
CONTINUOUS
 62
             7
100
AcDbLine
 10
218.92503603342851
 20
81.17472427745393
 11
198.92503603342851
 21
81.17472427745393
  0
LINE
  5
3DB
100
AcDbEntity
  8
1
  6
CONTINUOUS
 62
             7
100
AcDbLine
 10
218.92503603342851
 20
75.17472427745393
 11
218.92503603342851
 21
81.17472427745393
  0
LINE
  5
3DA
100
AcDbEntity
  8
1
  6
CONTINUOUS
 62
             7
100
AcDbLine
 10
198.92503603342851
 20
75.17472427745393
 11
218.92503603342851
 21
75.17472427745393
  0
LINE
  5
3D9
100
AcDbEntity
  8
1
  6
CONTINUOUS
 62
             7
100
AcDbLine
 10
135.3250360334298
 20
160.274724277454
 11
135.3250360334298
 21
160.67472427745389
  0
LINE
  5
3D8
100
AcDbEntity
  8
1
  6
CONTINUOUS
 62
             7
100
AcDbLine
 10
135.3250360334298
 20
160.67472427745389
 11
135.62503603342981
 21
160.67472427745389
  0
LINE
  5
3D7
100
AcDbEntity
  8
1
  6
CONTINUOUS
 62
             7
100
AcDbLine
 10
139.22503603342989
 20
160.274724277454
 11
136.0250360334299
 21
160.274724277454
  0
LINE
  5
3D6
100
AcDbEntity
  8
1
  6
CONTINUOUS
 62
             7
100
AcDbLine
 10
136.8250360334298
 20
153.274724277454
 11
136.5250360334299
 21
152.9747242774539
  0
LINE
  5
3D5
100
AcDbEntity
  8
1
  6
CONTINUOUS
 62
             7
100
AcDbLine
 10
138.5250360334299
 20
152.9747242774539
 11
138.22503603342989
 21
153.274724277454
  0
LINE
  5
3D4
100
AcDbEntity
  8
1
  6
CONTINUOUS
 62
             7
100
AcDbLine
 10
134.5250360334299
 20
152.9747242774539
 11
136.5250360334299
 21
152.9747242774539
  0
LINE
  5
3D3
100
AcDbEntity
  8
1
  6
CONTINUOUS
 62
             7
100
AcDbLine
 10
136.8250360334298
 20
153.274724277454
 11
136.8250360334298
 21
153.9747242774539
  0
LINE
  5
3D2
100
AcDbEntity
  8
1
  6
CONTINUOUS
 62
             7
100
AcDbLine
 10
137.12503603342981
 20
154.274724277454
 11
137.9250360334299
 21
154.274724277454
  0
LINE
  5
3D1
100
AcDbEntity
  8
1
  6
CONTINUOUS
 62
             7
100
AcDbLine
 10
138.22503603342989
 20
153.9747242774539
 11
138.22503603342989
 21
153.274724277454
  0
LINE
  5
3D0
100
AcDbEntity
  8
1
  6
CONTINUOUS
 62
             7
100
AcDbLine
 10
135.0250360334299
 20
161.9747242774539
 11
135.3250360334298
 21
161.67472427745389
  0
LINE
  5
3CF
100
AcDbEntity
  8
1
  6
CONTINUOUS
 62
             7
100
AcDbLine
 10
135.3250360334298
 20
160.67472427745389
 11
135.3250360334298
 21
161.67472427745389
  0
LINE
  5
3CE
100
AcDbEntity
  8
1
  6
CONTINUOUS
 62
             7
100
AcDbLine
 10
135.0250360334299
 20
161.9747242774539
 11
134.5250360334299
 21
161.9747242774539
  0
LINE
  5
3CD
100
AcDbEntity
  8
1
  6
CONTINUOUS
 62
             7
100
AcDbLine
 10
134.5250360334299
 20
161.9747242774539
 11
134.5250360334299
 21
160.274724277454
  0
LINE
  5
3CC
100
AcDbEntity
  8
1
  6
CONTINUOUS
 62
             7
100
AcDbLine
 10
138.5250360334299
 20
152.9747242774539
 11
139.22503603342989
 21
152.9747242774539
  0
LINE
  5
3CB
100
AcDbEntity
  8
1
  6
CONTINUOUS
 62
             7
100
AcDbLine
 10
139.22503603342989
 20
152.9747242774539
 11
139.22503603342989
 21
160.274724277454
  0
LINE
  5
3CA
100
AcDbEntity
  8
1
  6
CONTINUOUS
 62
             7
100
AcDbLine
 10
136.0250360334299
 20
160.274724277454
 11
134.5250360334299
 21
160.274724277454
  0
LINE
  5
3C9
100
AcDbEntity
  8
1
  6
CONTINUOUS
 62
             7
100
AcDbLine
 10
134.5250360334299
 20
160.274724277454
 11
134.5250360334299
 21
152.9747242774539
  0
LINE
  5
3C8
100
AcDbEntity
  8
1
  6
CONTINUOUS
 62
             7
100
AcDbLine
 10
234.0750360334288
 20
69.53152181546874
 11
234.0750360334288
 21
69.11197917941472
  0
LINE
  5
3C7
100
AcDbEntity
  8
1
  6
CONTINUOUS
 62
             7
100
AcDbLine
 10
234.0750360334288
 20
76.6560968264735
 11
234.0750360334288
 21
71.24145615120385
  0
LINE
  5
3C6
100
AcDbEntity
  8
1
  6
CONTINUOUS
 62
             7
100
AcDbLine
 10
227.5750360334288
 20
71.24145615120385
 11
227.5750360334288
 21
76.6560968264735
  0
LINE
  5
3C5
100
AcDbEntity
  8
1
  6
CONTINUOUS
 62
             7
100
AcDbLine
 10
227.5750360334288
 20
69.11197917941472
 11
227.5750360334288
 21
69.53152181546874
  0
LINE
  5
3C4
100
AcDbEntity
  8
1
  6
CONTINUOUS
 62
             7
100
AcDbLine
 10
233.437781131468
 20
68.47472427745394
 11
228.2122909353896
 21
68.47472427745394
  0
LINE
  5
3C3
100
AcDbEntity
  8
1
  6
CONTINUOUS
 62
             7
100
AcDbLine
 10
227.8936634844091
 20
76.97472427745394
 11
233.7564085824483
 21
76.97472427745394
  0
LINE
  5
3C2
100
AcDbEntity
  8
1
  6
CONTINUOUS
 62
             7
100
AcDbLine
 10
237.62503603342859
 20
88.87472427745394
 11
246.82503603342869
 21
88.87472427745394
  0
LINE
  5
3C1
100
AcDbEntity
  8
1
  6
CONTINUOUS
 62
             7
100
AcDbLine
 10
246.32503603342869
 20
68.47472427745394
 11
238.12503603342859
 21
68.47472427745394
  0
LINE
  5
3C0
100
AcDbEntity
  8
1
  6
CONTINUOUS
 62
             7
100
AcDbLine
 10
237.12503603342859
 20
69.47472427745394
 11
237.12503603342859
 21
70.13308349095404
  0
LINE
  5
3BF
100
AcDbEntity
  8
1
  6
CONTINUOUS
 62
             7
100
AcDbLine
 10
237.12503603342859
 20
72.8163650639538
 11
237.12503603342859
 21
88.37472427745394
  0
LINE
  5
3BE
100
AcDbEntity
  8
1
  6
CONTINUOUS
 62
             7
100
AcDbLine
 10
247.32503603342869
 20
88.37472427745394
 11
247.32503603342869
 21
72.8163650639538
  0
LINE
  5
3BD
100
AcDbEntity
  8
1
  6
CONTINUOUS
 62
             7
100
AcDbLine
 10
247.32503603342869
 20
70.13308349095404
 11
247.32503603342869
 21
69.47472427745394
  0
LINE
  5
3BC
100
AcDbEntity
  8
1
  6
CONTINUOUS
 62
             7
100
AcDbLine
 10
184.9250360334286
 20
122.5747242774539
 11
184.9250360334286
 21
121.0747242774539
  0
LINE
  5
3BB
100
AcDbEntity
  8
1
  6
CONTINUOUS
 62
             7
100
AcDbLine
 10
184.9250360334286
 20
126.0747242774539
 11
184.9250360334286
 21
127.5747242774539
  0
LINE
  5
3BA
100
AcDbEntity
  8
1
  6
CONTINUOUS
 62
             7
100
AcDbLine
 10
181.62503603342859
 20
122.5747242774539
 11
186.9250360334286
 21
122.5747242774539
  0
LINE
  5
3B9
100
AcDbEntity
  8
1
  6
CONTINUOUS
 62
             7
100
AcDbLine
 10
181.62503603342859
 20
121.0747242774539
 11
186.9250360334286
 21
121.0747242774539
  0
LINE
  5
3B8
100
AcDbEntity
  8
1
  6
CONTINUOUS
 62
             7
100
AcDbLine
 10
181.62503603342859
 20
122.5747242774539
 11
181.62503603342859
 21
121.0747242774539
  0
LINE
  5
3B7
100
AcDbEntity
  8
1
  6
CONTINUOUS
 62
             7
100
AcDbLine
 10
181.62503603342859
 20
126.0747242774539
 11
181.62503603342859
 21
127.5747242774539
  0
LINE
  5
3B6
100
AcDbEntity
  8
1
  6
CONTINUOUS
 62
             7
100
AcDbLine
 10
186.9250360334286
 20
126.0747242774539
 11
181.62503603342859
 21
126.0747242774539
  0
LINE
  5
3B5
100
AcDbEntity
  8
1
  6
CONTINUOUS
 62
             7
100
AcDbLine
 10
181.62503603342859
 20
127.5747242774539
 11
186.9250360334286
 21
127.5747242774539
  0
LINE
  5
3B4
100
AcDbEntity
  8
1
  6
CONTINUOUS
 62
             7
100
AcDbLine
 10
187.3250360334286
 20
121.4747242774539
 11
187.3250360334286
 21
120.5747242774539
  0
LINE
  5
3B3
100
AcDbEntity
  8
1
  6
CONTINUOUS
 62
             7
100
AcDbLine
 10
187.3250360334286
 20
123.9747242774539
 11
187.3250360334286
 21
123.0747242774539
  0
LINE
  5
3B2
100
AcDbEntity
  8
1
  6
CONTINUOUS
 62
             7
100
AcDbLine
 10
187.3250360334286
 20
126.4747242774539
 11
187.3250360334286
 21
125.5747242774539
  0
LINE
  5
3B1
100
AcDbEntity
  8
1
  6
CONTINUOUS
 62
             7
100
AcDbLine
 10
187.3250360334286
 20
128.9747242774539
 11
187.3250360334286
 21
128.0747242774539
  0
LINE
  5
3B0
100
AcDbEntity
  8
1
  6
CONTINUOUS
 62
             7
100
AcDbLine
 10
187.62503603342859
 20
120.5747242774539
 11
186.9250360334286
 21
120.5747242774539
  0
LINE
  5
3AF
100
AcDbEntity
  8
1
  6
CONTINUOUS
 62
             7
100
AcDbLine
 10
187.62503603342859
 20
123.0747242774539
 11
186.9250360334286
 21
123.0747242774539
  0
LINE
  5
3AE
100
AcDbEntity
  8
1
  6
CONTINUOUS
 62
             7
100
AcDbLine
 10
187.62503603342859
 20
125.5747242774539
 11
186.9250360334286
 21
125.5747242774539
  0
LINE
  5
3AD
100
AcDbEntity
  8
1
  6
CONTINUOUS
 62
             7
100
AcDbLine
 10
187.62503603342859
 20
128.0747242774539
 11
186.9250360334286
 21
128.0747242774539
  0
LINE
  5
3AC
100
AcDbEntity
  8
1
  6
CONTINUOUS
 62
             7
100
AcDbLine
 10
187.62503603342859
 20
120.5747242774539
 11
188.62503603342859
 21
120.37472427745389
  0
LINE
  5
3AB
100
AcDbEntity
  8
1
  6
CONTINUOUS
 62
             7
100
AcDbLine
 10
188.62503603342859
 20
119.174724277454
 11
187.62503603342859
 21
118.9747242774539
  0
LINE
  5
3AA
100
AcDbEntity
  8
1
  6
CONTINUOUS
 62
             7
100
AcDbLine
 10
188.62503603342859
 20
119.174724277454
 11
188.62503603342859
 21
120.37472427745389
  0
LINE
  5
3A9
100
AcDbEntity
  8
1
  6
CONTINUOUS
 62
             7
100
AcDbLine
 10
186.9250360334286
 20
118.9747242774539
 11
187.62503603342859
 21
118.9747242774539
  0
LINE
  5
3A8
100
AcDbEntity
  8
1
  6
CONTINUOUS
 62
             7
100
AcDbLine
 10
187.62503603342859
 20
123.0747242774539
 11
188.62503603342859
 21
122.87472427745389
  0
LINE
  5
3A7
100
AcDbEntity
  8
1
  6
CONTINUOUS
 62
             7
100
AcDbLine
 10
188.62503603342859
 20
121.674724277454
 11
187.62503603342859
 21
121.4747242774539
  0
LINE
  5
3A6
100
AcDbEntity
  8
1
  6
CONTINUOUS
 62
             7
100
AcDbLine
 10
188.62503603342859
 20
121.674724277454
 11
188.62503603342859
 21
122.87472427745389
  0
LINE
  5
3A5
100
AcDbEntity
  8
1
  6
CONTINUOUS
 62
             7
100
AcDbLine
 10
186.9250360334286
 20
121.4747242774539
 11
187.62503603342859
 21
121.4747242774539
  0
LINE
  5
3A4
100
AcDbEntity
  8
1
  6
CONTINUOUS
 62
             7
100
AcDbLine
 10
187.62503603342859
 20
125.5747242774539
 11
188.62503603342859
 21
125.37472427745389
  0
LINE
  5
3A3
100
AcDbEntity
  8
1
  6
CONTINUOUS
 62
             7
100
AcDbLine
 10
188.62503603342859
 20
124.174724277454
 11
187.62503603342859
 21
123.9747242774539
  0
LINE
  5
3A2
100
AcDbEntity
  8
1
  6
CONTINUOUS
 62
             7
100
AcDbLine
 10
188.62503603342859
 20
124.174724277454
 11
188.62503603342859
 21
125.37472427745389
  0
LINE
  5
3A1
100
AcDbEntity
  8
1
  6
CONTINUOUS
 62
             7
100
AcDbLine
 10
186.9250360334286
 20
123.9747242774539
 11
187.62503603342859
 21
123.9747242774539
  0
LINE
  5
3A0
100
AcDbEntity
  8
1
  6
CONTINUOUS
 62
             7
100
AcDbLine
 10
187.62503603342859
 20
128.0747242774539
 11
188.62503603342859
 21
127.87472427745389
  0
LINE
  5
39F
100
AcDbEntity
  8
1
  6
CONTINUOUS
 62
             7
100
AcDbLine
 10
188.62503603342859
 20
126.674724277454
 11
187.62503603342859
 21
126.4747242774539
  0
LINE
  5
39E
100
AcDbEntity
  8
1
  6
CONTINUOUS
 62
             7
100
AcDbLine
 10
188.62503603342859
 20
126.674724277454
 11
188.62503603342859
 21
127.87472427745389
  0
LINE
  5
39D
100
AcDbEntity
  8
1
  6
CONTINUOUS
 62
             7
100
AcDbLine
 10
186.9250360334286
 20
126.4747242774539
 11
187.62503603342859
 21
126.4747242774539
  0
LINE
  5
39C
100
AcDbEntity
  8
1
  6
CONTINUOUS
 62
             7
100
AcDbLine
 10
179.62503603342859
 20
118.174724277454
 11
186.9250360334286
 21
118.174724277454
  0
LINE
  5
39B
100
AcDbEntity
  8
1
  6
CONTINUOUS
 62
             7
100
AcDbLine
 10
186.9250360334286
 20
128.9747242774539
 11
187.62503603342859
 21
128.9747242774539
  0
LINE
  5
39A
100
AcDbEntity
  8
1
  6
CONTINUOUS
 62
             7
100
AcDbLine
 10
188.62503603342859
 20
129.174724277454
 11
188.62503603342859
 21
130.37472427745391
  0
LINE
  5
399
100
AcDbEntity
  8
1
  6
CONTINUOUS
 62
             7
100
AcDbLine
 10
188.62503603342859
 20
129.174724277454
 11
187.62503603342859
 21
128.9747242774539
  0
LINE
  5
398
100
AcDbEntity
  8
1
  6
CONTINUOUS
 62
             7
100
AcDbLine
 10
187.62503603342859
 20
130.5747242774539
 11
179.62503603342859
 21
130.5747242774539
  0
LINE
  5
397
100
AcDbEntity
  8
1
  6
CONTINUOUS
 62
             7
100
AcDbLine
 10
187.62503603342859
 20
130.5747242774539
 11
188.62503603342859
 21
130.37472427745391
  0
LINE
  5
396
100
AcDbEntity
  8
1
  6
CONTINUOUS
 62
             7
100
AcDbLine
 10
186.9250360334286
 20
118.174724277454
 11
186.9250360334286
 21
130.5747242774539
  0
LINE
  5
395
100
AcDbEntity
  8
1
  6
CONTINUOUS
 62
             7
100
AcDbLine
 10
179.62503603342859
 20
130.5747242774539
 11
179.62503603342859
 21
118.174724277454
  0
LINE
  5
394
100
AcDbEntity
  8
1
  6
CONTINUOUS
 62
             7
100
AcDbLine
 10
187.32503603342869
 20
53.67472427745393
 11
186.92503603342871
 21
53.67472427745393
  0
LINE
  5
393
100
AcDbEntity
  8
1
  6
CONTINUOUS
 62
             7
100
AcDbLine
 10
187.32503603342869
 20
53.97472427745394
 11
187.32503603342869
 21
53.67472427745393
  0
LINE
  5
392
100
AcDbEntity
  8
1
  6
CONTINUOUS
 62
             7
100
AcDbLine
 10
186.92503603342871
 20
54.37472427745392
 11
186.92503603342871
 21
57.57472427745391
  0
LINE
  5
391
100
AcDbEntity
  8
1
  6
CONTINUOUS
 62
             7
100
AcDbLine
 10
179.62503603342859
 20
54.87472427745392
 11
179.92503603342871
 21
55.17472427745393
  0
LINE
  5
390
100
AcDbEntity
  8
1
  6
CONTINUOUS
 62
             7
100
AcDbLine
 10
179.92503603342871
 20
56.57472427745391
 11
179.62503603342859
 21
56.87472427745392
  0
LINE
  5
38F
100
AcDbEntity
  8
1
  6
CONTINUOUS
 62
             7
100
AcDbLine
 10
179.62503603342859
 20
54.87472427745392
 11
179.6250360334287
 21
52.87472427745394
  0
LINE
  5
38E
100
AcDbEntity
  8
1
  6
CONTINUOUS
 62
             7
100
AcDbLine
 10
180.62503603342859
 20
55.17472427745393
 11
179.92503603342871
 21
55.17472427745393
  0
LINE
  5
38D
100
AcDbEntity
  8
1
  6
CONTINUOUS
 62
             7
100
AcDbLine
 10
180.92503603342871
 20
56.2747242774539
 11
180.92503603342871
 21
55.47472427745394
  0
LINE
  5
38C
100
AcDbEntity
  8
1
  6
CONTINUOUS
 62
             7
100
AcDbLine
 10
179.92503603342871
 20
56.57472427745391
 11
180.62503603342859
 21
56.57472427745391
  0
LINE
  5
38B
100
AcDbEntity
  8
1
  6
CONTINUOUS
 62
             7
100
AcDbLine
 10
188.32503603342869
 20
53.67472427745393
 11
188.62503603342859
 21
53.37472427745392
  0
LINE
  5
38A
100
AcDbEntity
  8
1
  6
CONTINUOUS
 62
             7
100
AcDbLine
 10
188.32503603342869
 20
53.67472427745393
 11
187.32503603342869
 21
53.67472427745393
  0
LINE
  5
389
100
AcDbEntity
  8
1
  6
CONTINUOUS
 62
             7
100
AcDbLine
 10
188.6250360334287
 20
52.87472427745394
 11
188.62503603342859
 21
53.37472427745392
  0
LINE
  5
388
100
AcDbEntity
  8
1
  6
CONTINUOUS
 62
             7
100
AcDbLine
 10
186.92503603342871
 20
52.87472427745394
 11
188.6250360334287
 21
52.87472427745394
  0
LINE
  5
387
100
AcDbEntity
  8
1
  6
CONTINUOUS
 62
             7
100
AcDbLine
 10
179.62503603342859
 20
57.57472427745391
 11
179.62503603342859
 21
56.87472427745392
  0
LINE
  5
386
100
AcDbEntity
  8
1
  6
CONTINUOUS
 62
             7
100
AcDbLine
 10
186.92503603342871
 20
57.57472427745391
 11
179.62503603342859
 21
57.57472427745391
  0
LINE
  5
385
100
AcDbEntity
  8
1
  6
CONTINUOUS
 62
             7
100
AcDbLine
 10
186.92503603342871
 20
52.87472427745394
 11
186.92503603342871
 21
54.37472427745392
  0
LINE
  5
384
100
AcDbEntity
  8
1
  6
CONTINUOUS
 62
             7
100
AcDbLine
 10
179.6250360334287
 20
52.87472427745394
 11
186.92503603342871
 21
52.87472427745394
  0
LINE
  5
383
100
AcDbEntity
  8
1
  6
CONTINUOUS
 62
             7
100
AcDbLine
 10
226.20003603342801
 20
81.37472427745394
 11
229.0750360334284
 21
81.37472427745394
  0
LINE
  5
382
100
AcDbEntity
  8
1
  6
CONTINUOUS
 62
             7
100
AcDbLine
 10
228.5750360334284
 20
68.47472427745394
 11
222.47503603342841
 21
68.47472427745394
  0
LINE
  5
381
100
AcDbEntity
  8
1
  6
CONTINUOUS
 62
             7
100
AcDbLine
 10
221.47503603342841
 20
69.47472427745394
 11
221.47503603342841
 21
70.13308349095404
  0
LINE
  5
380
100
AcDbEntity
  8
1
  6
CONTINUOUS
 62
             7
100
AcDbLine
 10
221.47503603342841
 20
78.00725405383113
 11
221.47503603342841
 21
80.87472427745394
  0
LINE
  5
37F
100
AcDbEntity
  8
1
  6
CONTINUOUS
 62
             7
100
AcDbLine
 10
229.5750360334284
 20
80.87472427745394
 11
229.57503603342829
 21
76.97472427745394
  0
LINE
  5
37E
100
AcDbEntity
  8
1
  6
CONTINUOUS
 62
             7
100
AcDbLine
 10
213.97503603342841
 20
81.37472427745394
 11
221.07503603342849
 21
81.37472427745394
  0
LINE
  5
37D
100
AcDbEntity
  8
1
  6
CONTINUOUS
 62
             7
100
AcDbLine
 10
220.57503603342849
 20
68.47472427745394
 11
214.47503603342841
 21
68.47472427745394
  0
LINE
  5
37C
100
AcDbEntity
  8
1
  6
CONTINUOUS
 62
             7
100
AcDbLine
 10
213.47503603342841
 20
69.47472427745394
 11
213.47503603342841
 21
70.13308349095404
  0
LINE
  5
37B
100
AcDbEntity
  8
1
  6
CONTINUOUS
 62
             7
100
AcDbLine
 10
197.97503603342841
 20
81.37472427745394
 11
205.07503603342849
 21
81.37472427745394
  0
LINE
  5
37A
100
AcDbEntity
  8
1
  6
CONTINUOUS
 62
             7
100
AcDbLine
 10
204.57503603342849
 20
68.47472427745396
 11
198.47503603342841
 21
68.47472427745394
  0
LINE
  5
379
100
AcDbEntity
  8
1
  6
CONTINUOUS
 62
             7
100
AcDbLine
 10
197.47503603342841
 20
69.47472427745394
 11
197.47503603342841
 21
70.13308349095404
  0
LINE
  5
378
100
AcDbEntity
  8
1
  6
CONTINUOUS
 62
             7
100
AcDbLine
 10
197.47503603342849
 20
72.81636506395381
 11
197.47503603342841
 21
80.87472427745394
  0
LINE
  5
377
100
AcDbEntity
  8
1
  6
CONTINUOUS
 62
             7
100
AcDbLine
 10
205.57503603342849
 20
70.13308349095405
 11
205.57503603342849
 21
69.47472427745394
  0
LINE
  5
376
100
AcDbEntity
  8
1
  6
CONTINUOUS
 62
             7
100
AcDbLine
 10
179.62503603342859
 20
138.52472427745431
 11
186.9250360334286
 21
138.52472427745391
  0
LINE
  5
375
100
AcDbEntity
  8
1
  6
CONTINUOUS
 62
             7
100
AcDbLine
 10
179.62503603342859
 20
138.52472427745431
 11
179.62503603342859
 21
131.12472427745399
  0
LINE
  5
374
100
AcDbEntity
  8
1
  6
CONTINUOUS
 62
             7
100
AcDbLine
 10
186.9250360334286
 20
131.12472427745399
 11
186.9250360334286
 21
138.52472427745391
  0
LINE
  5
373
100
AcDbEntity
  8
1
  6
CONTINUOUS
 62
             7
100
AcDbLine
 10
179.62503603342859
 20
131.12472427745399
 11
186.9250360334286
 21
131.12472427745399
  0
LINE
  5
372
100
AcDbEntity
  8
1
  6
CONTINUOUS
 62
             7
100
AcDbLine
 10
186.9250360334286
 20
136.924724277454
 11
187.62503603342859
 21
136.924724277454
  0
LINE
  5
371
100
AcDbEntity
  8
1
  6
CONTINUOUS
 62
             7
100
AcDbLine
 10
188.62503603342859
 20
137.12472427745399
 11
188.62503603342859
 21
138.3247242774539
  0
LINE
  5
370
100
AcDbEntity
  8
1
  6
CONTINUOUS
 62
             7
100
AcDbLine
 10
188.62503603342859
 20
137.12472427745399
 11
187.62503603342859
 21
136.924724277454
  0
LINE
  5
36F
100
AcDbEntity
  8
1
  6
CONTINUOUS
 62
             7
100
AcDbLine
 10
187.62503603342859
 20
138.52472427745391
 11
188.62503603342859
 21
138.3247242774539
  0
LINE
  5
36E
100
AcDbEntity
  8
1
  6
CONTINUOUS
 62
             7
100
AcDbLine
 10
186.9250360334286
 20
134.424724277454
 11
187.62503603342859
 21
134.424724277454
  0
LINE
  5
36D
100
AcDbEntity
  8
1
  6
CONTINUOUS
 62
             7
100
AcDbLine
 10
188.62503603342859
 20
134.62472427745399
 11
188.62503603342859
 21
135.8247242774539
  0
LINE
  5
36C
100
AcDbEntity
  8
1
  6
CONTINUOUS
 62
             7
100
AcDbLine
 10
188.62503603342859
 20
134.62472427745399
 11
187.62503603342859
 21
134.424724277454
  0
LINE
  5
36B
100
AcDbEntity
  8
1
  6
CONTINUOUS
 62
             7
100
AcDbLine
 10
187.62503603342859
 20
136.02472427745391
 11
188.62503603342859
 21
135.8247242774539
  0
LINE
  5
36A
100
AcDbEntity
  8
1
  6
CONTINUOUS
 62
             7
100
AcDbLine
 10
186.9250360334286
 20
131.924724277454
 11
187.62503603342859
 21
131.924724277454
  0
LINE
  5
369
100
AcDbEntity
  8
1
  6
CONTINUOUS
 62
             7
100
AcDbLine
 10
188.62503603342859
 20
132.12472427745399
 11
188.62503603342859
 21
133.3247242774539
  0
LINE
  5
368
100
AcDbEntity
  8
1
  6
CONTINUOUS
 62
             7
100
AcDbLine
 10
188.62503603342859
 20
132.12472427745399
 11
187.62503603342859
 21
131.924724277454
  0
LINE
  5
367
100
AcDbEntity
  8
1
  6
CONTINUOUS
 62
             7
100
AcDbLine
 10
187.62503603342859
 20
133.52472427745391
 11
188.62503603342859
 21
133.3247242774539
  0
LINE
  5
366
100
AcDbEntity
  8
1
  6
CONTINUOUS
 62
             7
100
AcDbLine
 10
187.62503603342859
 20
138.52472427745391
 11
186.9250360334286
 21
138.52472427745391
  0
LINE
  5
365
100
AcDbEntity
  8
1
  6
CONTINUOUS
 62
             7
100
AcDbLine
 10
187.62503603342859
 20
136.02472427745391
 11
186.9250360334286
 21
136.02472427745391
  0
LINE
  5
364
100
AcDbEntity
  8
1
  6
CONTINUOUS
 62
             7
100
AcDbLine
 10
187.62503603342859
 20
133.52472427745391
 11
186.9250360334286
 21
133.52472427745391
  0
LINE
  5
363
100
AcDbEntity
  8
1
  6
CONTINUOUS
 62
             7
100
AcDbLine
 10
187.3250360334286
 20
136.924724277454
 11
187.3250360334286
 21
136.02472427745391
  0
LINE
  5
362
100
AcDbEntity
  8
1
  6
CONTINUOUS
 62
             7
100
AcDbLine
 10
187.3250360334286
 20
134.424724277454
 11
187.3250360334286
 21
133.52472427745391
  0
LINE
  5
361
100
AcDbEntity
  8
1
  6
CONTINUOUS
 62
             7
100
AcDbLine
 10
181.62503603342859
 20
135.52472427745391
 11
181.62503603342859
 21
134.02472427745391
  0
LINE
  5
360
100
AcDbEntity
  8
1
  6
CONTINUOUS
 62
             7
100
AcDbLine
 10
181.62503603342859
 20
134.02472427745391
 11
186.9250360334286
 21
134.02472427745391
  0
LINE
  5
35F
100
AcDbEntity
  8
1
  6
CONTINUOUS
 62
             7
100
AcDbLine
 10
181.62503603342859
 20
135.52472427745391
 11
186.9250360334286
 21
135.52472427745391
  0
LINE
  5
35E
100
AcDbEntity
  8
1
  6
CONTINUOUS
 62
             7
100
AcDbLine
 10
184.9250360334286
 20
135.52472427745391
 11
184.9250360334286
 21
134.02472427745391
  0
LINE
  5
355
100
AcDbEntity
  8
0
  6
CONTINUOUS
 62
             7
100
AcDbLine
 10
275.66622970308242
 20
119.2147242774541
 11
282.02503603342922
 21
119.2147242774541
  0
LINE
  5
354
100
AcDbEntity
  8
0
  6
CONTINUOUS
 62
             7
100
AcDbLine
 10
272.5250360334291
 20
122.6147242774539
 11
282.42503603342908
 21
122.6147242774539
  0
LINE
  5
353
100
AcDbEntity
  8
0
  6
CONTINUOUS
 62
             7
100
AcDbLine
 10
272.5250360334291
 20
121.914724277454
 11
275.66622970308231
 21
121.914724277454
  0
LINE
  5
352
100
AcDbEntity
  8
0
  6
CONTINUOUS
 62
             7
100
AcDbLine
 10
275.48226043714078
 20
122.6147242774539
 11
275.48226043714078
 21
121.914724277454
  0
LINE
  5
351
100
AcDbEntity
  8
0
  6
CONTINUOUS
 62
             7
100
AcDbLine
 10
274.90868400078972
 20
122.6147242774539
 11
274.90868400078972
 21
121.914724277454
  0
LINE
  5
350
100
AcDbEntity
  8
0
  6
CONTINUOUS
 62
             7
100
AcDbLine
 10
275.66622970308231
 20
121.914724277454
 11
275.66622970308242
 21
119.2147242774541
  0
LINE
  5
34F
100
AcDbEntity
  8
0
  6
CONTINUOUS
 62
             7
100
AcDbLine
 10
275.4662297030826
 20
118.93188156497941
 11
275.4662297030826
 21
121.914724277454
  0
LINE
  5
34E
100
AcDbEntity
  8
0
  6
CONTINUOUS
 62
             7
100
AcDbLine
 10
272.5250360334291
 20
122.6847242774539
 11
282.42503603342908
 21
122.6847242774539
  0
LINE
  5
34D
100
AcDbEntity
  8
0
  6
CONTINUOUS
 62
             7
100
AcDbLine
 10
275.49302462232561
 20
118.914724277454
 11
282.42503603342908
 21
118.914724277454
  0
LINE
  5
34C
100
AcDbEntity
  8
0
  6
CONTINUOUS
 62
             7
100
AcDbLine
 10
282.42503603342908
 20
118.87472427745389
 11
272.5250360334291
 21
118.87472427745389
  0
LINE
  5
34B
100
AcDbEntity
  8
0
  6
CONTINUOUS
 62
             7
100
AcDbLine
 10
278.92570518324499
 20
119.6147242774539
 11
280.95512822064842
 21
119.6147242774539
  0
LINE
  5
34A
100
AcDbEntity
  8
0
  6
CONTINUOUS
 62
             7
100
AcDbLine
 10
280.75512822064832
 20
119.51472427745399
 11
279.04117523708283
 21
119.51472427745399
  0
LINE
  5
349
100
AcDbEntity
  8
0
  6
CONTINUOUS
 62
             7
100
AcDbLine
 10
282.42503603342908
 20
137.924724277454
 11
282.42503603342908
 21
118.87472427745389
  0
LINE
  5
348
100
AcDbEntity
  8
0
  6
CONTINUOUS
 62
             7
100
AcDbLine
 10
272.59866276059961
 20
122.6147242774539
 11
272.59866276059961
 21
121.914724277454
  0
LINE
  5
347
100
AcDbEntity
  8
0
  6
CONTINUOUS
 62
             7
100
AcDbLine
 10
281.92503603342908
 20
118.87472427745389
 11
281.92503603342908
 21
118.914724277454
  0
LINE
  5
346
100
AcDbEntity
  8
0
  6
CONTINUOUS
 62
             7
100
AcDbLine
 10
281.92503603342908
 20
122.6147242774539
 11
281.92503603342908
 21
122.724724277454
  0
LINE
  5
345
100
AcDbEntity
  8
0
  6
CONTINUOUS
 62
             7
100
AcDbLine
 10
280.95512822064842
 20
119.6147242774539
 11
280.95512822064842
 21
122.6147242774539
  0
LINE
  5
344
100
AcDbEntity
  8
0
  6
CONTINUOUS
 62
             7
100
AcDbLine
 10
282.02503603342922
 20
122.6147242774539
 11
282.02503603342922
 21
119.2147242774541
  0
LINE
  5
343
100
AcDbEntity
  8
0
  6
CONTINUOUS
 62
             7
100
AcDbLine
 10
279.20790699223181
 20
122.6147242774539
 11
279.20790699223181
 21
119.6147242774539
  0
LINE
  5
342
100
AcDbEntity
  8
0
  6
CONTINUOUS
 62
             7
100
AcDbLine
 10
279.03298567354852
 20
122.6147242774539
 11
279.03298567354852
 21
119.6147242774539
  0
LINE
  5
341
100
AcDbEntity
  8
0
  6
CONTINUOUS
 62
             7
100
AcDbLine
 10
278.92570518324499
 20
122.6147242774539
 11
278.92570518324499
 21
119.6147242774539
  0
LINE
  5
340
100
AcDbEntity
  8
0
  6
CONTINUOUS
 62
             7
100
AcDbLine
 10
275.49302462232572
 20
137.96472427745391
 11
282.42503603342931
 21
137.96472427745391
  0
LINE
  5
33F
100
AcDbEntity
  8
0
  6
CONTINUOUS
 62
             7
100
AcDbLine
 10
275.66622970308242
 20
138.26472427745389
 11
282.02503603342922
 21
138.26472427745389
  0
LINE
  5
33E
100
AcDbEntity
  8
0
  6
CONTINUOUS
 62
             7
100
AcDbLine
 10
281.92503603342908
 20
137.924724277454
 11
281.92503603342931
 21
137.96472427745391
  0
LINE
  5
33D
100
AcDbEntity
  8
0
  6
CONTINUOUS
 62
             7
100
AcDbLine
 10
281.92503603342931
 20
141.6647242774539
 11
281.92503603342931
 21
144.27472427745391
  0
LINE
  5
33C
100
AcDbEntity
  8
0
  6
CONTINUOUS
 62
             7
100
AcDbLine
 10
282.42503603342931
 20
137.96472427745391
 11
282.42503603342908
 21
137.924724277454
  0
LINE
  5
33B
100
AcDbEntity
  8
0
  6
CONTINUOUS
 62
             7
100
AcDbLine
 10
282.42503603342931
 20
144.27472427745391
 11
272.5250360334291
 21
144.27472427745391
  0
LINE
  5
33A
100
AcDbEntity
  8
0
  6
CONTINUOUS
 62
             7
100
AcDbLine
 10
282.42503603342931
 20
137.96472427745391
 11
282.42503603342931
 21
144.27472427745391
  0
LINE
  5
339
100
AcDbEntity
  8
0
  6
CONTINUOUS
 62
             7
100
AcDbLine
 10
282.42503603342931
 20
141.6647242774539
 11
272.5250360334291
 21
141.6647242774539
  0
LINE
  5
338
100
AcDbEntity
  8
0
  6
CONTINUOUS
 62
             7
100
AcDbLine
 10
282.02503603342939
 20
141.6647242774539
 11
282.02503603342922
 21
138.26472427745389
  0
LINE
  5
337
100
AcDbEntity
  8
0
  6
CONTINUOUS
 62
             7
100
AcDbLine
 10
280.95512822064831
 20
141.6647242774539
 11
280.95512822064831
 21
138.56472427745391
  0
LINE
  5
336
100
AcDbEntity
  8
0
  6
CONTINUOUS
 62
             7
100
AcDbLine
 10
278.92570518324499
 20
138.56472427745391
 11
280.95512822064831
 21
138.56472427745391
  0
LINE
  5
335
100
AcDbEntity
  8
0
  6
CONTINUOUS
 62
             7
100
AcDbLine
 10
279.03298567354841
 20
141.6647242774539
 11
279.03298567354841
 21
138.56472427745391
  0
LINE
  5
334
100
AcDbEntity
  8
0
  6
CONTINUOUS
 62
             7
100
AcDbLine
 10
275.48226043714072
 20
141.6647242774539
 11
275.48226043714072
 21
140.96472427745391
  0
LINE
  5
333
100
AcDbEntity
  8
0
  6
CONTINUOUS
 62
             7
100
AcDbLine
 10
272.5250360334291
 20
140.96472427745391
 11
275.66622970308242
 21
140.96472427745391
  0
LINE
  5
332
100
AcDbEntity
  8
0
  6
CONTINUOUS
 62
             7
100
AcDbLine
 10
275.66622970308242
 20
140.96472427745391
 11
275.66622970308242
 21
138.26472427745389
  0
LINE
  5
331
100
AcDbEntity
  8
0
  6
CONTINUOUS
 62
             7
100
AcDbLine
 10
275.46622970308238
 20
137.9818815649794
 11
275.46622970308238
 21
140.96472427745391
  0
LINE
  5
330
100
AcDbEntity
  8
0
  6
CONTINUOUS
 62
             7
100
AcDbLine
 10
272.59866276059938
 20
141.6647242774539
 11
272.59866276059938
 21
140.96472427745391
  0
LINE
  5
32F
100
AcDbEntity
  8
0
  6
CONTINUOUS
 62
             7
100
AcDbLine
 10
274.90868400078972
 20
141.6647242774539
 11
274.90868400078972
 21
140.96472427745391
  0
LINE
  5
32E
100
AcDbEntity
  8
0
  6
CONTINUOUS
 62
             7
100
AcDbLine
 10
278.92570518324499
 20
141.6647242774539
 11
278.92570518324499
 21
138.56472427745391
  0
LINE
  5
32D
100
AcDbEntity
  8
0
  6
CONTINUOUS
 62
             7
100
AcDbLine
 10
279.20790700932798
 20
141.6647242774539
 11
279.20790700932798
 21
138.56472427745391
  0
LINE
  5
324
100
AcDbEntity
  8
0
  6
CONTINUOUS
 62
             7
100
AcDbLine
 10
272.5250360334291
 20
126.4947242774539
 11
282.42503603342908
 21
126.4947242774539
  0
LINE
  5
323
100
AcDbEntity
  8
0
  6
CONTINUOUS
 62
             7
100
AcDbLine
 10
275.66622970308242
 20
123.0247242774541
 11
282.02503603342922
 21
123.0247242774541
  0
LINE
  5
322
100
AcDbEntity
  8
0
  6
CONTINUOUS
 62
             7
100
AcDbLine
 10
278.92570518324499
 20
126.424724277454
 11
278.92570518324499
 21
123.424724277454
  0
LINE
  5
321
100
AcDbEntity
  8
0
  6
CONTINUOUS
 62
             7
100
AcDbLine
 10
278.92570518324499
 20
123.424724277454
 11
280.95512822064842
 21
123.424724277454
  0
LINE
  5
320
100
AcDbEntity
  8
0
  6
CONTINUOUS
 62
             7
100
AcDbLine
 10
280.75512822064832
 20
123.324724277454
 11
279.04117523708283
 21
123.324724277454
  0
LINE
  5
31F
100
AcDbEntity
  8
0
  6
CONTINUOUS
 62
             7
100
AcDbLine
 10
279.03298567354852
 20
126.424724277454
 11
279.03298567354852
 21
123.424724277454
  0
LINE
  5
31E
100
AcDbEntity
  8
0
  6
CONTINUOUS
 62
             7
100
AcDbLine
 10
279.20790699223181
 20
126.424724277454
 11
279.20790699223181
 21
123.424724277454
  0
LINE
  5
31D
100
AcDbEntity
  8
0
  6
CONTINUOUS
 62
             7
100
AcDbLine
 10
282.02503603342922
 20
126.424724277454
 11
282.02503603342922
 21
123.0247242774541
  0
LINE
  5
31C
100
AcDbEntity
  8
0
  6
CONTINUOUS
 62
             7
100
AcDbLine
 10
280.95512822064842
 20
123.424724277454
 11
280.95512822064842
 21
126.424724277454
  0
LINE
  5
31B
100
AcDbEntity
  8
0
  6
CONTINUOUS
 62
             7
100
AcDbLine
 10
272.5250360334291
 20
126.424724277454
 11
282.42503603342908
 21
126.424724277454
  0
LINE
  5
31A
100
AcDbEntity
  8
0
  6
CONTINUOUS
 62
             7
100
AcDbLine
 10
281.92503603342908
 20
126.424724277454
 11
281.92503603342908
 21
126.5347242774541
  0
LINE
  5
319
100
AcDbEntity
  8
0
  6
CONTINUOUS
 62
             7
100
AcDbLine
 10
272.59866276059961
 20
126.424724277454
 11
272.59866276059961
 21
125.724724277454
  0
LINE
  5
318
100
AcDbEntity
  8
0
  6
CONTINUOUS
 62
             7
100
AcDbLine
 10
275.66622970308231
 20
125.724724277454
 11
272.5250360334291
 21
125.724724277454
  0
LINE
  5
317
100
AcDbEntity
  8
0
  6
CONTINUOUS
 62
             7
100
AcDbLine
 10
275.49302462232561
 20
122.724724277454
 11
282.42503603342908
 21
122.724724277454
  0
LINE
  5
316
100
AcDbEntity
  8
0
  6
CONTINUOUS
 62
             7
100
AcDbLine
 10
275.4662297030826
 20
122.74188156497939
 11
275.4662297030826
 21
125.724724277454
  0
LINE
  5
315
100
AcDbEntity
  8
0
  6
CONTINUOUS
 62
             7
100
AcDbLine
 10
275.66622970308231
 20
125.724724277454
 11
275.66622970308242
 21
123.0247242774541
  0
LINE
  5
314
100
AcDbEntity
  8
0
  6
CONTINUOUS
 62
             7
100
AcDbLine
 10
274.90868400078972
 20
126.424724277454
 11
274.90868400078972
 21
125.724724277454
  0
LINE
  5
313
100
AcDbEntity
  8
0
  6
CONTINUOUS
 62
             7
100
AcDbLine
 10
275.48226043714078
 20
126.424724277454
 11
275.48226043714078
 21
125.724724277454
  0
LINE
  5
302
100
AcDbEntity
  8
0
  6
CONTINUOUS
 62
             7
100
AcDbLine
 10
275.66622970308242
 20
126.8347242774541
 11
282.02503603342922
 21
126.8347242774541
  0
LINE
  5
301
100
AcDbEntity
  8
0
  6
CONTINUOUS
 62
             7
100
AcDbLine
 10
272.5250360334291
 20
130.23472427745389
 11
282.42503603342908
 21
130.23472427745389
  0
LINE
  5
300
100
AcDbEntity
  8
0
  6
CONTINUOUS
 62
             7
100
AcDbLine
 10
272.5250360334291
 20
129.5347242774541
 11
275.66622970308231
 21
129.5347242774541
  0
LINE
  5
2FF
100
AcDbEntity
  8
0
  6
CONTINUOUS
 62
             7
100
AcDbLine
 10
275.48226043714078
 20
130.23472427745389
 11
275.48226043714078
 21
129.5347242774541
  0
LINE
  5
2FE
100
AcDbEntity
  8
0
  6
CONTINUOUS
 62
             7
100
AcDbLine
 10
274.90868400078972
 20
130.23472427745389
 11
274.90868400078972
 21
129.5347242774541
  0
LINE
  5
2FD
100
AcDbEntity
  8
0
  6
CONTINUOUS
 62
             7
100
AcDbLine
 10
275.66622970308231
 20
129.5347242774541
 11
275.66622970308242
 21
126.8347242774541
  0
LINE
  5
2FC
100
AcDbEntity
  8
0
  6
CONTINUOUS
 62
             7
100
AcDbLine
 10
275.4662297030826
 20
126.5518815649794
 11
275.4662297030826
 21
129.5347242774541
  0
LINE
  5
2FB
100
AcDbEntity
  8
0
  6
CONTINUOUS
 62
             7
100
AcDbLine
 10
272.5250360334291
 20
130.30472427745389
 11
282.42503603342908
 21
130.30472427745389
  0
LINE
  5
2FA
100
AcDbEntity
  8
0
  6
CONTINUOUS
 62
             7
100
AcDbLine
 10
275.49302462232561
 20
126.5347242774541
 11
282.42503603342908
 21
126.5347242774541
  0
LINE
  5
2F9
100
AcDbEntity
  8
0
  6
CONTINUOUS
 62
             7
100
AcDbLine
 10
278.92570518324499
 20
127.23472427745391
 11
280.95512822064842
 21
127.23472427745391
  0
LINE
  5
2F8
100
AcDbEntity
  8
0
  6
CONTINUOUS
 62
             7
100
AcDbLine
 10
280.75512822064832
 20
127.134724277454
 11
279.04117523708283
 21
127.134724277454
  0
LINE
  5
2F7
100
AcDbEntity
  8
0
  6
CONTINUOUS
 62
             7
100
AcDbLine
 10
272.59866276059961
 20
130.23472427745389
 11
272.59866276059961
 21
129.5347242774541
  0
LINE
  5
2F6
100
AcDbEntity
  8
0
  6
CONTINUOUS
 62
             7
100
AcDbLine
 10
281.92503603342908
 20
130.23472427745389
 11
281.92503603342908
 21
130.34472427745411
  0
LINE
  5
2F5
100
AcDbEntity
  8
0
  6
CONTINUOUS
 62
             7
100
AcDbLine
 10
280.95512822064842
 20
127.23472427745391
 11
280.95512822064842
 21
130.23472427745389
  0
LINE
  5
2F4
100
AcDbEntity
  8
0
  6
CONTINUOUS
 62
             7
100
AcDbLine
 10
282.02503603342922
 20
130.23472427745389
 11
282.02503603342922
 21
126.8347242774541
  0
LINE
  5
2F3
100
AcDbEntity
  8
0
  6
CONTINUOUS
 62
             7
100
AcDbLine
 10
279.20790699223181
 20
130.23472427745389
 11
279.20790699223181
 21
127.23472427745391
  0
LINE
  5
2F2
100
AcDbEntity
  8
0
  6
CONTINUOUS
 62
             7
100
AcDbLine
 10
279.03298567354852
 20
130.23472427745389
 11
279.03298567354852
 21
127.23472427745391
  0
LINE
  5
2F1
100
AcDbEntity
  8
0
  6
CONTINUOUS
 62
             7
100
AcDbLine
 10
278.92570518324499
 20
130.23472427745389
 11
278.92570518324499
 21
127.23472427745391
  0
LINE
  5
2E8
100
AcDbEntity
  8
0
  6
CONTINUOUS
 62
             7
100
AcDbLine
 10
275.66622970308242
 20
130.6447242774542
 11
282.02503603342922
 21
130.6447242774542
  0
LINE
  5
2E7
100
AcDbEntity
  8
0
  6
CONTINUOUS
 62
             7
100
AcDbLine
 10
272.5250360334291
 20
134.04472427745389
 11
282.42503603342908
 21
134.04472427745389
  0
LINE
  5
2E6
100
AcDbEntity
  8
0
  6
CONTINUOUS
 62
             7
100
AcDbLine
 10
272.5250360334291
 20
133.34472427745399
 11
275.66622970308231
 21
133.34472427745399
  0
LINE
  5
2E5
100
AcDbEntity
  8
0
  6
CONTINUOUS
 62
             7
100
AcDbLine
 10
275.48226043714078
 20
134.04472427745389
 11
275.48226043714078
 21
133.34472427745399
  0
LINE
  5
2E4
100
AcDbEntity
  8
0
  6
CONTINUOUS
 62
             7
100
AcDbLine
 10
274.90868400078972
 20
134.04472427745389
 11
274.90868400078972
 21
133.34472427745399
  0
LINE
  5
2E3
100
AcDbEntity
  8
0
  6
CONTINUOUS
 62
             7
100
AcDbLine
 10
275.66622970308231
 20
133.34472427745399
 11
275.66622970308242
 21
130.6447242774542
  0
LINE
  5
2E2
100
AcDbEntity
  8
0
  6
CONTINUOUS
 62
             7
100
AcDbLine
 10
275.4662297030826
 20
130.3618815649794
 11
275.4662297030826
 21
133.34472427745399
  0
LINE
  5
2E1
100
AcDbEntity
  8
0
  6
CONTINUOUS
 62
             7
100
AcDbLine
 10
272.5250360334291
 20
134.11472427745389
 11
282.42503603342908
 21
134.11472427745389
  0
LINE
  5
2E0
100
AcDbEntity
  8
0
  6
CONTINUOUS
 62
             7
100
AcDbLine
 10
275.49302462232561
 20
130.34472427745411
 11
282.42503603342908
 21
130.34472427745411
  0
LINE
  5
2DF
100
AcDbEntity
  8
0
  6
CONTINUOUS
 62
             7
100
AcDbLine
 10
278.92570518324499
 20
131.04472427745389
 11
280.95512822064842
 21
131.04472427745389
  0
LINE
  5
2DE
100
AcDbEntity
  8
0
  6
CONTINUOUS
 62
             7
100
AcDbLine
 10
280.75512822064832
 20
130.94472427745399
 11
279.04117523708283
 21
130.94472427745399
  0
LINE
  5
2DD
100
AcDbEntity
  8
0
  6
CONTINUOUS
 62
             7
100
AcDbLine
 10
272.59866276059961
 20
134.04472427745389
 11
272.59866276059961
 21
133.34472427745399
  0
LINE
  5
2DC
100
AcDbEntity
  8
0
  6
CONTINUOUS
 62
             7
100
AcDbLine
 10
281.92503603342908
 20
134.04472427745389
 11
281.92503603342908
 21
134.15472427745411
  0
LINE
  5
2DB
100
AcDbEntity
  8
0
  6
CONTINUOUS
 62
             7
100
AcDbLine
 10
280.95512822064842
 20
131.04472427745389
 11
280.95512822064842
 21
134.04472427745389
  0
LINE
  5
2DA
100
AcDbEntity
  8
0
  6
CONTINUOUS
 62
             7
100
AcDbLine
 10
282.02503603342922
 20
134.04472427745389
 11
282.02503603342922
 21
130.6447242774542
  0
LINE
  5
2D9
100
AcDbEntity
  8
0
  6
CONTINUOUS
 62
             7
100
AcDbLine
 10
279.20790699223181
 20
134.04472427745389
 11
279.20790699223181
 21
131.04472427745389
  0
LINE
  5
2D8
100
AcDbEntity
  8
0
  6
CONTINUOUS
 62
             7
100
AcDbLine
 10
279.03298567354852
 20
134.04472427745389
 11
279.03298567354852
 21
131.04472427745389
  0
LINE
  5
2D7
100
AcDbEntity
  8
0
  6
CONTINUOUS
 62
             7
100
AcDbLine
 10
278.92570518324499
 20
134.04472427745389
 11
278.92570518324499
 21
131.04472427745389
  0
LINE
  5
2CE
100
AcDbEntity
  8
0
  6
CONTINUOUS
 62
             7
100
AcDbLine
 10
275.66622970308242
 20
134.45472427745401
 11
282.02503603342922
 21
134.45472427745401
  0
LINE
  5
2CD
100
AcDbEntity
  8
0
  6
CONTINUOUS
 62
             7
100
AcDbLine
 10
272.5250360334291
 20
137.8547242774539
 11
282.42503603342908
 21
137.8547242774539
  0
LINE
  5
2CC
100
AcDbEntity
  8
0
  6
CONTINUOUS
 62
             7
100
AcDbLine
 10
272.5250360334291
 20
137.15472427745411
 11
275.66622970308231
 21
137.15472427745411
  0
LINE
  5
2CB
100
AcDbEntity
  8
0
  6
CONTINUOUS
 62
             7
100
AcDbLine
 10
275.48226043714078
 20
137.8547242774539
 11
275.48226043714078
 21
137.15472427745411
  0
LINE
  5
2CA
100
AcDbEntity
  8
0
  6
CONTINUOUS
 62
             7
100
AcDbLine
 10
274.90868400078972
 20
137.8547242774539
 11
274.90868400078972
 21
137.15472427745411
  0
LINE
  5
2C9
100
AcDbEntity
  8
0
  6
CONTINUOUS
 62
             7
100
AcDbLine
 10
275.66622970308231
 20
137.15472427745411
 11
275.66622970308242
 21
134.45472427745401
  0
LINE
  5
2C8
100
AcDbEntity
  8
0
  6
CONTINUOUS
 62
             7
100
AcDbLine
 10
275.4662297030826
 20
134.17188156497929
 11
275.4662297030826
 21
137.15472427745411
  0
LINE
  5
2C7
100
AcDbEntity
  8
0
  6
CONTINUOUS
 62
             7
100
AcDbLine
 10
272.5250360334291
 20
137.924724277454
 11
282.42503603342908
 21
137.924724277454
  0
LINE
  5
2C6
100
AcDbEntity
  8
0
  6
CONTINUOUS
 62
             7
100
AcDbLine
 10
275.49302462232561
 20
134.15472427745411
 11
282.42503603342908
 21
134.15472427745411
  0
LINE
  5
2C5
100
AcDbEntity
  8
0
  6
CONTINUOUS
 62
             7
100
AcDbLine
 10
278.92570518324499
 20
134.8547242774539
 11
280.95512822064842
 21
134.8547242774539
  0
LINE
  5
2C4
100
AcDbEntity
  8
0
  6
CONTINUOUS
 62
             7
100
AcDbLine
 10
280.75512822064832
 20
134.7547242774541
 11
279.04117523708283
 21
134.7547242774541
  0
LINE
  5
2C3
100
AcDbEntity
  8
0
  6
CONTINUOUS
 62
             7
100
AcDbLine
 10
272.59866276059961
 20
137.8547242774539
 11
272.59866276059961
 21
137.15472427745411
  0
LINE
  5
2C2
100
AcDbEntity
  8
0
  6
CONTINUOUS
 62
             7
100
AcDbLine
 10
281.92503603342908
 20
137.8547242774539
 11
281.92503603342908
 21
137.924724277454
  0
LINE
  5
2C1
100
AcDbEntity
  8
0
  6
CONTINUOUS
 62
             7
100
AcDbLine
 10
280.95512822064842
 20
134.8547242774539
 11
280.95512822064842
 21
137.8547242774539
  0
LINE
  5
2C0
100
AcDbEntity
  8
0
  6
CONTINUOUS
 62
             7
100
AcDbLine
 10
282.02503603342922
 20
137.8547242774539
 11
282.02503603342922
 21
134.45472427745401
  0
LINE
  5
2BF
100
AcDbEntity
  8
0
  6
CONTINUOUS
 62
             7
100
AcDbLine
 10
279.20790699223181
 20
137.8547242774539
 11
279.20790699223181
 21
134.8547242774539
  0
LINE
  5
2BE
100
AcDbEntity
  8
0
  6
CONTINUOUS
 62
             7
100
AcDbLine
 10
279.03298567354852
 20
137.8547242774539
 11
279.03298567354852
 21
134.8547242774539
  0
LINE
  5
2BD
100
AcDbEntity
  8
0
  6
CONTINUOUS
 62
             7
100
AcDbLine
 10
278.92570518324499
 20
137.8547242774539
 11
278.92570518324499
 21
134.8547242774539
  0
LINE
  5
2BC
100
AcDbEntity
  8
0
  6
CONTINUOUS
 62
             7
100
AcDbLine
 10
282.42503603342908
 20
65.17472427745393
 11
282.42503603342908
 21
63.47472427745394
  0
LINE
  5
2BB
100
AcDbEntity
  8
0
  6
CONTINUOUS
 62
             7
100
AcDbLine
 10
275.48226043714078
 20
65.5747242774538
 11
282.0250360334291
 21
65.5747242774538
  0
LINE
  5
2BA
100
AcDbEntity
  8
0
  6
CONTINUOUS
 62
             7
100
AcDbLine
 10
274.90868400078978
 20
65.39387632174292
 11
272.59866276059961
 21
63.77638203593715
  0
LINE
  5
2B9
100
AcDbEntity
  8
0
  6
CONTINUOUS
 62
             7
100
AcDbLine
 10
282.42503603342908
 20
62.42472427745393
 11
282.42503603342908
 21
57.9447242774538
  0
LINE
  5
2B8
100
AcDbEntity
  8
0
  6
CONTINUOUS
 62
             7
100
AcDbLine
 10
281.5250360334291
 20
52.87472427745392
 11
270.52503603342927
 21
52.87472427745392
  0
LINE
  5
2B7
100
AcDbEntity
  8
0
  6
CONTINUOUS
 62
             7
100
AcDbLine
 10
282.0250360334291
 20
57.74472427745393
 11
282.22503603342921
 21
57.74472427745393
  0
LINE
  5
2B6
100
AcDbEntity
  8
0
  6
CONTINUOUS
 62
             7
100
AcDbLine
 10
282.0250360334291
 20
57.74472427745393
 11
282.0250360334291
 21
53.37472427745392
  0
LINE
  5
2B5
100
AcDbEntity
  8
0
  6
CONTINUOUS
 62
             7
100
AcDbLine
 10
281.92503603342908
 20
62.92472427745393
 11
270.5250360334291
 21
62.92472427745393
  0
LINE
  5
2B4
100
AcDbEntity
  8
0
  6
CONTINUOUS
 62
             7
100
AcDbLine
 10
279.78388176024112
 20
63.0747242774538
 11
279.52407413910601
 21
62.92472427745393
  0
LINE
  5
2B3
100
AcDbEntity
  8
0
  6
CONTINUOUS
 62
             7
100
AcDbLine
 10
275.59130838439933
 20
65.1892875065406
 11
280.82503603342911
 21
63.0747242774538
  0
LINE
  5
2B2
100
AcDbEntity
  8
0
  6
CONTINUOUS
 62
             7
100
AcDbLine
 10
282.0250360334291
 20
63.0747242774538
 11
279.78388176024112
 21
63.0747242774538
  0
LINE
  5
2B1
100
AcDbEntity
  8
0
  6
CONTINUOUS
 62
             7
100
AcDbLine
 10
258.82503603342923
 20
143.59472427745391
 11
272.42503603342902
 21
143.59472427745391
  0
LINE
  5
2B0
100
AcDbEntity
  8
0
  6
CONTINUOUS
 62
             7
100
AcDbLine
 10
272.42503603342902
 20
120.73472427745401
 11
272.42503603342902
 21
143.59472427745391
  0
LINE
  5
2AF
100
AcDbEntity
  8
0
  6
CONTINUOUS
 62
             7
100
AcDbLine
 10
263.07503603342923
 20
140.96472427745391
 11
272.42503603342902
 21
140.96472427745391
  0
LINE
  5
2AE
100
AcDbEntity
  8
0
  6
CONTINUOUS
 62
             7
100
AcDbLine
 10
271.92503603342902
 20
140.96472427745391
 11
271.92503603342902
 21
143.59472427745391
  0
LINE
  5
2AD
100
AcDbEntity
  8
0
  6
CONTINUOUS
 62
             7
100
AcDbLine
 10
268.92503593545348
 20
140.96472427745391
 11
268.92503593545348
 21
136.71472427745391
  0
LINE
  5
2AC
100
AcDbEntity
  8
0
  6
CONTINUOUS
 62
             7
100
AcDbLine
 10
259.32503603342923
 20
120.73472427745401
 11
259.32503603342923
 21
143.59472427745391
  0
LINE
  5
2AB
100
AcDbEntity
  8
0
  6
CONTINUOUS
 62
             7
100
AcDbLine
 10
272.42503603342902
 20
136.06472427745391
 11
265.34738222145842
 21
136.06472427745391
  0
LINE
  5
2AA
100
AcDbEntity
  8
0
  6
CONTINUOUS
 62
             7
100
AcDbLine
 10
271.92503603342902
 20
135.88472427745401
 11
271.92503603342902
 21
136.06472427745391
  0
LINE
  5
2A9
100
AcDbEntity
  8
0
  6
CONTINUOUS
 62
             7
100
AcDbLine
 10
263.07503603342923
 20
140.1647242774539
 11
265.53331081745358
 21
140.1647242774539
  0
LINE
  5
2A8
100
AcDbEntity
  8
0
  6
CONTINUOUS
 62
             7
100
AcDbLine
 10
270.62791998694928
 20
136.71472427745391
 11
270.62791998694928
 21
140.96472427745391
  0
LINE
  5
2A7
100
AcDbEntity
  8
0
  6
CONTINUOUS
 62
             7
100
AcDbLine
 10
272.0250360334291
 20
140.96472427745391
 11
272.0250360334291
 21
136.06472427745391
  0
LINE
  5
2A6
100
AcDbEntity
  8
0
  6
CONTINUOUS
 62
             7
100
AcDbLine
 10
265.03009140112692
 20
140.96472427745391
 11
265.03009140112692
 21
140.1647242774539
  0
LINE
  5
2A5
100
AcDbEntity
  8
0
  6
CONTINUOUS
 62
             7
100
AcDbLine
 10
263.50145959707822
 20
140.96472427745391
 11
263.50145959707822
 21
140.1647242774539
  0
LINE
  5
2A4
100
AcDbEntity
  8
0
  6
CONTINUOUS
 62
             7
100
AcDbLine
 10
265.53331081745358
 20
140.1647242774539
 11
265.53331081745353
 21
136.06472427745391
  0
LINE
  5
2A3
100
AcDbEntity
  8
0
  6
CONTINUOUS
 62
             7
100
AcDbLine
 10
265.60366783747787
 20
140.96472427745391
 11
265.60366783747787
 21
136.06472427745391
  0
LINE
  5
2A2
100
AcDbEntity
  8
0
  6
CONTINUOUS
 62
             7
100
AcDbLine
 10
265.34738222145847
 20
140.1647242774539
 11
265.34738222145842
 21
136.06472427745391
  0
LINE
  5
2A1
100
AcDbEntity
  8
0
  6
CONTINUOUS
 62
             7
100
AcDbLine
 10
263.07503603342923
 20
140.96472427745391
 11
263.07503603342923
 21
140.1647242774539
  0
LINE
  5
2A0
100
AcDbEntity
  8
0
  6
CONTINUOUS
 62
             7
100
AcDbLine
 10
269.30061584921577
 20
140.96472427745391
 11
269.30061584921577
 21
136.71472427745391
  0
LINE
  5
29F
100
AcDbEntity
  8
0
  6
CONTINUOUS
 62
             7
100
AcDbLine
 10
268.92503593545348
 20
136.71472427745391
 11
270.62791998694928
 21
136.71472427745391
  0
LINE
  5
29E
100
AcDbEntity
  8
0
  6
CONTINUOUS
 62
             7
100
AcDbLine
 10
269.63594127488381
 20
140.96472427745391
 11
269.63594127488381
 21
136.71472427745391
  0
LINE
  5
29D
100
AcDbEntity
  8
0
  6
CONTINUOUS
 62
             7
100
AcDbLine
 10
258.82503603342923
 20
120.73472427745401
 11
258.82503603342923
 21
143.59472427745391
  0
LINE
  5
29C
100
AcDbEntity
  8
0
  6
CONTINUOUS
 62
             7
100
AcDbLine
 10
272.42503603342902
 20
135.9747242774539
 11
258.82503603342923
 21
135.9747242774539
  0
LINE
  5
29B
100
AcDbEntity
  8
0
  6
CONTINUOUS
 62
             7
100
AcDbLine
 10
272.0250360334291
 20
135.88472427745401
 11
272.0250360334291
 21
130.98472427745389
  0
LINE
  5
29A
100
AcDbEntity
  8
0
  6
CONTINUOUS
 62
             7
100
AcDbLine
 10
265.53331081745353
 20
135.08472427745389
 11
263.07503603342923
 21
135.08472427745389
  0
LINE
  5
299
100
AcDbEntity
  8
0
  6
CONTINUOUS
 62
             7
100
AcDbLine
 10
263.07503603342923
 20
135.88472427745401
 11
272.42503603342902
 21
135.88472427745401
  0
LINE
  5
298
100
AcDbEntity
  8
0
  6
CONTINUOUS
 62
             7
100
AcDbLine
 10
265.03009140112692
 20
135.88472427745401
 11
265.03009140112692
 21
135.08472427745389
  0
LINE
  5
297
100
AcDbEntity
  8
0
  6
CONTINUOUS
 62
             7
100
AcDbLine
 10
263.50145959707822
 20
135.88472427745401
 11
263.50145959707811
 21
135.08472427745389
  0
LINE
  5
296
100
AcDbEntity
  8
0
  6
CONTINUOUS
 62
             7
100
AcDbLine
 10
265.53331081745353
 20
135.08472427745389
 11
265.53331081745353
 21
130.98472427745389
  0
LINE
  5
295
100
AcDbEntity
  8
0
  6
CONTINUOUS
 62
             7
100
AcDbLine
 10
265.60366783747787
 20
135.88472427745401
 11
265.60366783747787
 21
130.98472427745389
  0
LINE
  5
294
100
AcDbEntity
  8
0
  6
CONTINUOUS
 62
             7
100
AcDbLine
 10
265.34738222145842
 20
135.08472427745389
 11
265.34738222145842
 21
130.98472427745389
  0
LINE
  5
293
100
AcDbEntity
  8
0
  6
CONTINUOUS
 62
             7
100
AcDbLine
 10
263.07503603342923
 20
135.88472427745401
 11
263.07503603342923
 21
135.08472427745389
  0
LINE
  5
292
100
AcDbEntity
  8
0
  6
CONTINUOUS
 62
             7
100
AcDbLine
 10
269.30061584921577
 20
135.88472427745401
 11
269.30061584921577
 21
131.63472427745401
  0
LINE
  5
291
100
AcDbEntity
  8
0
  6
CONTINUOUS
 62
             7
100
AcDbLine
 10
268.92503593545348
 20
131.63472427745401
 11
270.62791998694928
 21
131.63472427745401
  0
LINE
  5
290
100
AcDbEntity
  8
0
  6
CONTINUOUS
 62
             7
100
AcDbLine
 10
268.92503593545348
 20
135.88472427745401
 11
268.92503593545348
 21
131.63472427745401
  0
LINE
  5
28F
100
AcDbEntity
  8
0
  6
CONTINUOUS
 62
             7
100
AcDbLine
 10
270.62791998694928
 20
131.63472427745401
 11
270.62791998694928
 21
135.88472427745401
  0
LINE
  5
28E
100
AcDbEntity
  8
0
  6
CONTINUOUS
 62
             7
100
AcDbLine
 10
269.63594127488381
 20
135.88472427745401
 11
269.63594127488381
 21
131.63472427745401
  0
LINE
  5
28D
100
AcDbEntity
  8
0
  6
CONTINUOUS
 62
             7
100
AcDbLine
 10
272.42503603342902
 20
130.98472427745389
 11
265.34738222145842
 21
130.98472427745389
  0
LINE
  5
28C
100
AcDbEntity
  8
0
  6
CONTINUOUS
 62
             7
100
AcDbLine
 10
271.92503603342902
 20
130.80472427745389
 11
271.92503603342902
 21
130.98472427745389
  0
LINE
  5
28B
100
AcDbEntity
  8
0
  6
CONTINUOUS
 62
             7
100
AcDbLine
 10
271.92503603342902
 20
125.724724277454
 11
271.92503603342902
 21
125.90472427745389
  0
LINE
  5
28A
100
AcDbEntity
  8
0
  6
CONTINUOUS
 62
             7
100
AcDbLine
 10
272.42503603342902
 20
125.90472427745389
 11
265.34738222145842
 21
125.90472427745389
  0
LINE
  5
289
100
AcDbEntity
  8
0
  6
CONTINUOUS
 62
             7
100
AcDbLine
 10
258.82503603342923
 20
130.894724277454
 11
272.42503603342902
 21
130.894724277454
  0
LINE
  5
288
100
AcDbEntity
  8
0
  6
CONTINUOUS
 62
             7
100
AcDbLine
 10
268.92503593545348
 20
126.5547242774539
 11
270.62791998694928
 21
126.5547242774539
  0
LINE
  5
287
100
AcDbEntity
  8
0
  6
CONTINUOUS
 62
             7
100
AcDbLine
 10
263.07503603342923
 20
130.80472427745389
 11
272.42503603342902
 21
130.80472427745389
  0
LINE
  5
286
100
AcDbEntity
  8
0
  6
CONTINUOUS
 62
             7
100
AcDbLine
 10
263.07503603342923
 20
130.0047242774541
 11
265.53331081745353
 21
130.0047242774541
  0
LINE
  5
285
100
AcDbEntity
  8
0
  6
CONTINUOUS
 62
             7
100
AcDbLine
 10
269.63594127488381
 20
130.80472427745389
 11
269.63594127488381
 21
126.5547242774539
  0
LINE
  5
284
100
AcDbEntity
  8
0
  6
CONTINUOUS
 62
             7
100
AcDbLine
 10
270.62791998694928
 20
126.5547242774539
 11
270.62791998694928
 21
130.80472427745389
  0
LINE
  5
283
100
AcDbEntity
  8
0
  6
CONTINUOUS
 62
             7
100
AcDbLine
 10
268.92503593545348
 20
130.80472427745389
 11
268.92503593545348
 21
126.5547242774539
  0
LINE
  5
282
100
AcDbEntity
  8
0
  6
CONTINUOUS
 62
             7
100
AcDbLine
 10
269.30061584921577
 20
130.80472427745389
 11
269.30061584921577
 21
126.5547242774539
  0
LINE
  5
281
100
AcDbEntity
  8
0
  6
CONTINUOUS
 62
             7
100
AcDbLine
 10
263.07503603342923
 20
130.80472427745389
 11
263.07503603342923
 21
130.0047242774541
  0
LINE
  5
280
100
AcDbEntity
  8
0
  6
CONTINUOUS
 62
             7
100
AcDbLine
 10
265.34738222145842
 20
130.0047242774541
 11
265.34738222145842
 21
125.90472427745389
  0
LINE
  5
27F
100
AcDbEntity
  8
0
  6
CONTINUOUS
 62
             7
100
AcDbLine
 10
265.60366783747787
 20
130.80472427745389
 11
265.60366783747787
 21
125.90472427745389
  0
LINE
  5
27E
100
AcDbEntity
  8
0
  6
CONTINUOUS
 62
             7
100
AcDbLine
 10
265.53331081745353
 20
130.0047242774541
 11
265.53331081745353
 21
125.90472427745389
  0
LINE
  5
27D
100
AcDbEntity
  8
0
  6
CONTINUOUS
 62
             7
100
AcDbLine
 10
263.50145959707822
 20
130.80472427745389
 11
263.50145959707811
 21
130.0047242774541
  0
LINE
  5
27C
100
AcDbEntity
  8
0
  6
CONTINUOUS
 62
             7
100
AcDbLine
 10
265.03009140112692
 20
130.80472427745389
 11
265.03009140112692
 21
130.0047242774541
  0
LINE
  5
27B
100
AcDbEntity
  8
0
  6
CONTINUOUS
 62
             7
100
AcDbLine
 10
272.0250360334291
 20
130.80472427745389
 11
272.0250360334291
 21
125.90472427745389
  0
LINE
  5
27A
100
AcDbEntity
  8
0
  6
CONTINUOUS
 62
             7
100
AcDbLine
 10
272.42503603342902
 20
125.8147242774541
 11
258.82503603342923
 21
125.8147242774541
  0
LINE
  5
279
100
AcDbEntity
  8
0
  6
CONTINUOUS
 62
             7
100
AcDbLine
 10
272.0250360334291
 20
125.724724277454
 11
272.0250360334291
 21
120.824724277454
  0
LINE
  5
278
100
AcDbEntity
  8
0
  6
CONTINUOUS
 62
             7
100
AcDbLine
 10
265.53331081745353
 20
124.924724277454
 11
263.07503603342923
 21
124.924724277454
  0
LINE
  5
277
100
AcDbEntity
  8
0
  6
CONTINUOUS
 62
             7
100
AcDbLine
 10
263.07503603342923
 20
125.724724277454
 11
272.42503603342902
 21
125.724724277454
  0
LINE
  5
276
100
AcDbEntity
  8
0
  6
CONTINUOUS
 62
             7
100
AcDbLine
 10
265.03009140112692
 20
125.724724277454
 11
265.03009140112692
 21
124.924724277454
  0
LINE
  5
275
100
AcDbEntity
  8
0
  6
CONTINUOUS
 62
             7
100
AcDbLine
 10
263.50145959707822
 20
125.724724277454
 11
263.50145959707811
 21
124.924724277454
  0
LINE
  5
274
100
AcDbEntity
  8
0
  6
CONTINUOUS
 62
             7
100
AcDbLine
 10
265.53331081745353
 20
124.924724277454
 11
265.53331081745353
 21
120.824724277454
  0
LINE
  5
273
100
AcDbEntity
  8
0
  6
CONTINUOUS
 62
             7
100
AcDbLine
 10
265.60366783747787
 20
125.724724277454
 11
265.60366783747787
 21
120.824724277454
  0
LINE
  5
272
100
AcDbEntity
  8
0
  6
CONTINUOUS
 62
             7
100
AcDbLine
 10
265.34738222145842
 20
124.924724277454
 11
265.34738222145842
 21
120.824724277454
  0
LINE
  5
271
100
AcDbEntity
  8
0
  6
CONTINUOUS
 62
             7
100
AcDbLine
 10
263.07503603342923
 20
125.724724277454
 11
263.07503603342923
 21
124.924724277454
  0
LINE
  5
270
100
AcDbEntity
  8
0
  6
CONTINUOUS
 62
             7
100
AcDbLine
 10
269.30061584921577
 20
125.724724277454
 11
269.30061584921577
 21
121.474724277454
  0
LINE
  5
26F
100
AcDbEntity
  8
0
  6
CONTINUOUS
 62
             7
100
AcDbLine
 10
268.92503593545348
 20
121.474724277454
 11
270.62791998694928
 21
121.474724277454
  0
LINE
  5
26E
100
AcDbEntity
  8
0
  6
CONTINUOUS
 62
             7
100
AcDbLine
 10
268.92503593545348
 20
125.724724277454
 11
268.92503593545348
 21
121.474724277454
  0
LINE
  5
26D
100
AcDbEntity
  8
0
  6
CONTINUOUS
 62
             7
100
AcDbLine
 10
270.62791998694928
 20
121.474724277454
 11
270.62791998694928
 21
125.724724277454
  0
LINE
  5
26C
100
AcDbEntity
  8
0
  6
CONTINUOUS
 62
             7
100
AcDbLine
 10
269.63594127488381
 20
125.724724277454
 11
269.63594127488381
 21
121.474724277454
  0
LINE
  5
26B
100
AcDbEntity
  8
0
  6
CONTINUOUS
 62
             7
100
AcDbLine
 10
272.42503603342902
 20
120.73472427745401
 11
258.82503603342923
 21
120.73472427745401
  0
LINE
  5
26A
100
AcDbEntity
  8
0
  6
CONTINUOUS
 62
             7
100
AcDbLine
 10
272.42503603342902
 20
120.824724277454
 11
265.34738222145842
 21
120.824724277454
  0
LINE
  5
269
100
AcDbEntity
  8
0
  6
CONTINUOUS
 62
             7
100
AcDbLine
 10
271.92503603342902
 20
120.73472427745401
 11
271.92503603342902
 21
120.824724277454
  0
LINE
  5
268
100
AcDbEntity
  8
0
  6
CONTINUOUS
 62
             7
100
AcDbLine
 10
272.42503603342948
 20
73.54472427745394
 11
272.42503603342948
 21
74.4447242774538
  0
LINE
  5
267
100
AcDbEntity
  8
0
  6
CONTINUOUS
 62
             7
100
AcDbLine
 10
272.02503603342961
 20
73.34472427745395
 11
272.2250360334296
 21
73.34472427745395
  0
LINE
  5
266
100
AcDbEntity
  8
0
  6
CONTINUOUS
 62
             7
100
AcDbLine
 10
272.02503603342961
 20
68.47472427745394
 11
272.02503603342961
 21
73.34472427745395
  0
LINE
  5
265
100
AcDbEntity
  8
0
  6
CONTINUOUS
 62
             7
100
AcDbLine
 10
263.29840075375841
 20
78.47472427745394
 11
263.27024575883843
 21
78.51080548928213
  0
LINE
  5
264
100
AcDbEntity
  8
0
  6
CONTINUOUS
 62
             7
100
AcDbLine
 10
263.29840075375841
 20
78.47472427745394
 11
259.32503603342951
 21
78.47472427745394
  0
LINE
  5
263
100
AcDbEntity
  8
0
  6
CONTINUOUS
 62
             7
100
AcDbLine
 10
268.62503603342952
 20
78.47472427745394
 11
263.29840075375841
 21
78.47472427745394
  0
LINE
  5
262
100
AcDbEntity
  8
0
  6
CONTINUOUS
 62
             7
100
AcDbLine
 10
271.92503603342948
 20
78.47472427745394
 11
268.62503603342952
 21
78.47472427745394
  0
LINE
  5
261
100
AcDbEntity
  8
0
  6
CONTINUOUS
 62
             7
100
AcDbLine
 10
258.82503603342951
 20
77.97472427745394
 11
258.82503603342951
 21
68.47472427745394
  0
LINE
  5
260
100
AcDbEntity
  8
0
  6
CONTINUOUS
 62
             7
100
AcDbLine
 10
272.02503603342961
 20
81.17472427745383
 11
270.62791998694968
 21
81.17472427745383
  0
LINE
  5
25F
100
AcDbEntity
  8
0
  6
CONTINUOUS
 62
             7
100
AcDbLine
 10
270.62791998694968
 20
81.17472427745383
 11
268.92503593545388
 21
81.17472427745383
  0
LINE
  5
25E
100
AcDbEntity
  8
0
  6
CONTINUOUS
 62
             7
100
AcDbLine
 10
272.42503603342948
 20
80.51472427745394
 11
272.42503603342948
 21
80.77472427745394
  0
LINE
  5
25D
100
AcDbEntity
  8
0
  6
CONTINUOUS
 62
             7
100
AcDbLine
 10
272.42503603342948
 20
79.28472427745393
 11
272.42503603342948
 21
80.51472427745394
  0
LINE
  5
25C
100
AcDbEntity
  8
0
  6
CONTINUOUS
 62
             7
100
AcDbLine
 10
272.42503603342948
 20
79.02472427745394
 11
272.42503603342948
 21
79.28472427745393
  0
LINE
  5
25B
100
AcDbEntity
  8
0
  6
CONTINUOUS
 62
             7
100
AcDbLine
 10
268.92503593545388
 20
81.17472427745383
 11
265.60366783747821
 21
81.17472427745383
  0
LINE
  5
25A
100
AcDbEntity
  8
0
  6
CONTINUOUS
 62
             7
100
AcDbLine
 10
265.03009140112721
 20
80.99387632174293
 11
263.50145959707851
 21
79.92351680940094
  0
LINE
  5
259
100
AcDbEntity
  8
0
  6
CONTINUOUS
 62
             7
100
AcDbLine
 10
268.62503603342952
 20
78.62472427745394
 11
270.82503603342951
 21
78.62472427745394
  0
LINE
  5
258
100
AcDbEntity
  8
0
  6
CONTINUOUS
 62
             7
100
AcDbLine
 10
268.62503603342952
 20
78.47472427745394
 11
268.62503603342952
 21
78.62472427745394
  0
LINE
  5
257
100
AcDbEntity
  8
0
  6
CONTINUOUS
 62
             7
100
AcDbLine
 10
270.82503603342951
 20
78.62472427745394
 11
265.47246090277571
 21
80.78730500599114
  0
LINE
  5
256
100
AcDbEntity
  8
0
  6
CONTINUOUS
 62
             7
100
AcDbLine
 10
272.42503603342948
 20
74.4447242774538
 11
272.42503603342948
 21
77.94472427745384
  0
LINE
  5
255
100
AcDbEntity
  8
0
  6
CONTINUOUS
 62
             7
100
AcDbLine
 10
272.42503603342948
 20
77.94472427745384
 11
272.42503603342948
 21
77.97472427745394
  0
LINE
  5
254
100
AcDbEntity
  8
0
  6
CONTINUOUS
 62
             7
100
AcDbLine
 10
270.82503603342951
 20
78.62472427745394
 11
272.02503603342961
 21
78.62472427745394
  0
LINE
  5
253
100
AcDbEntity
  8
1
  6
CONTINUOUS
 62
             7
100
AcDbLine
 10
122.92503603342951
 20
161.1247242774507
 11
122.92503603342951
 21
190.37472427745351
  0
LINE
  5
252
100
AcDbEntity
  8
1
  6
CONTINUOUS
 62
             7
100
AcDbLine
 10
132.92503603342951
 20
190.37472427745351
 11
132.92503603342951
 21
161.1247242774507
  0
LINE
  5
251
100
AcDbEntity
  8
1
  6
CONTINUOUS
 62
             7
100
AcDbLine
 10
231.52503603342089
 20
52.87472427745404
 11
221.0250360334301
 21
52.87472427745381
  0
LINE
  5
250
100
AcDbEntity
  8
1
  6
CONTINUOUS
 62
             7
100
AcDbLine
 10
221.0250360334301
 20
66.87472427745415
 11
231.52503603342089
 21
66.87472427745404
  0
LINE
  5
24F
100
AcDbEntity
  8
1
  6
CONTINUOUS
 62
             7
100
AcDbLine
 10
121.3250360334298
 20
181.2247242774539
 11
121.3250360334298
 21
186.524724277454
  0
LINE
  5
24E
100
AcDbEntity
  8
1
  6
CONTINUOUS
 62
             7
100
AcDbLine
 10
121.3250360334294
 20
188.62472427745391
 11
118.8250360334297
 21
188.62472427745391
  0
LINE
  5
24D
100
AcDbEntity
  8
1
  6
CONTINUOUS
 62
             7
100
AcDbLine
 10
121.3250360334294
 20
176.62472427745391
 11
118.8250360334297
 21
176.62472427745391
  0
LINE
  5
24C
100
AcDbEntity
  8
0
  6
CONTINUOUS
 62
             7
100
AcDbLine
 10
118.8250360334297
 20
178.3247242774539
 11
118.8250360334297
 21
177.12472427745399
  0
LINE
  5
24B
100
AcDbEntity
  8
1
  6
CONTINUOUS
 62
             7
100
AcDbLine
 10
117.67503603342929
 20
169.42472427745381
 11
120.22503603342921
 21
169.42472427745381
  0
LINE
  5
24A
100
AcDbEntity
  8
1
  6
CONTINUOUS
 62
             7
100
AcDbLine
 10
120.22503603342921
 20
169.42472427745381
 11
120.22503603342921
 21
168.46309364609169
  0
LINE
  5
249
100
AcDbEntity
  8
1
  6
CONTINUOUS
 62
             7
100
AcDbLine
 10
119.3402456060611
 20
166.3247242774539
 11
117.67503603342929
 21
166.32472427745401
  0
LINE
  5
248
100
AcDbEntity
  8
1
  6
CONTINUOUS
 62
             7
100
AcDbLine
 10
120.22503603342921
 20
169.42472427745381
 11
120.22503603342921
 21
169.62472427745391
  0
LINE
  5
247
100
AcDbEntity
  8
1
  6
CONTINUOUS
 62
             7
100
AcDbLine
 10
120.22503603342921
 20
169.62472427745391
 11
120.42503603342929
 21
169.62472427745391
  0
LINE
  5
246
100
AcDbEntity
  8
1
  6
CONTINUOUS
 62
             7
100
AcDbLine
 10
120.42503603342929
 20
168.5140627990001
 11
120.42503603342929
 21
169.7747242774538
  0
LINE
  5
245
100
AcDbEntity
  8
1
  6
CONTINUOUS
 62
             7
100
AcDbLine
 10
120.42503603342929
 20
169.7747242774538
 11
121.3250360334294
 21
169.7747242774538
  0
LINE
  5
244
100
AcDbEntity
  8
1
  6
CONTINUOUS
 62
             7
100
AcDbLine
 10
121.3250360334294
 20
169.7747242774538
 11
121.3250360334294
 21
167.67046448402129
  0
LINE
  5
243
100
AcDbEntity
  8
1
  6
CONTINUOUS
 62
             7
100
AcDbLine
 10
121.3250360334294
 20
172.2163179743643
 11
121.3250360334294
 21
171.9747242774539
  0
LINE
  5
242
100
AcDbEntity
  8
1
  6
CONTINUOUS
 62
             7
100
AcDbLine
 10
121.3250360334294
 20
173.67046448402129
 11
121.3250360334294
 21
172.2163179743643
  0
LINE
  5
241
100
AcDbEntity
  8
1
  6
CONTINUOUS
 62
             7
100
AcDbLine
 10
121.3250360334294
 20
171.9747242774539
 11
120.42503603342929
 21
171.9747242774539
  0
LINE
  5
240
100
AcDbEntity
  8
1
  6
CONTINUOUS
 62
             7
100
AcDbLine
 10
121.3250360334294
 20
175.7747242774538
 11
121.3250360334294
 21
173.67046448402129
  0
LINE
  5
23F
100
AcDbEntity
  8
1
  6
CONTINUOUS
 62
             7
100
AcDbLine
 10
120.42503603342929
 20
175.7747242774538
 11
121.3250360334294
 21
175.7747242774538
  0
LINE
  5
23E
100
AcDbEntity
  8
1
  6
CONTINUOUS
 62
             7
100
AcDbLine
 10
120.42503603342929
 20
171.9747242774539
 11
120.42503603342929
 21
175.7747242774538
  0
LINE
  5
23D
100
AcDbEntity
  8
1
  6
CONTINUOUS
 62
             7
100
AcDbLine
 10
120.22503603342921
 20
172.12472427745391
 11
120.42503603342929
 21
172.12472427745391
  0
LINE
  5
23C
100
AcDbEntity
  8
1
  6
CONTINUOUS
 62
             7
100
AcDbLine
 10
120.22503603342921
 20
172.32472427745381
 11
120.22503603342921
 21
172.12472427745391
  0
LINE
  5
23B
100
AcDbEntity
  8
1
  6
CONTINUOUS
 62
             7
100
AcDbLine
 10
120.22503603342921
 20
175.62472427745391
 11
120.42503603342929
 21
175.62472427745391
  0
LINE
  5
23A
100
AcDbEntity
  8
1
  6
CONTINUOUS
 62
             7
100
AcDbLine
 10
120.22503603342921
 20
175.42472427745381
 11
120.22503603342921
 21
175.62472427745391
  0
LINE
  5
239
100
AcDbEntity
  8
1
  6
CONTINUOUS
 62
             7
100
AcDbLine
 10
120.22503603342921
 20
172.32472427745381
 11
117.67503603342929
 21
172.32472427745401
  0
LINE
  5
238
100
AcDbEntity
  8
1
  6
CONTINUOUS
 62
             7
100
AcDbLine
 10
120.22503603342921
 20
175.42472427745381
 11
120.22503603342921
 21
172.32472427745381
  0
LINE
  5
237
100
AcDbEntity
  8
1
  6
CONTINUOUS
 62
             7
100
AcDbLine
 10
117.67503603342929
 20
175.42472427745381
 11
120.22503603342921
 21
175.42472427745381
  0
LINE
  5
236
100
AcDbEntity
  8
1
  6
CONTINUOUS
 62
             7
100
AcDbLine
 10
117.67503603342929
 20
181.42472427745381
 11
119.9706701289731
 21
181.42472427745381
  0
LINE
  5
235
100
AcDbEntity
  8
1
  6
CONTINUOUS
 62
             7
100
AcDbLine
 10
120.22503603342921
 20
181.28635490881609
 11
120.22503603342921
 21
178.32472427745381
  0
LINE
  5
234
100
AcDbEntity
  8
1
  6
CONTINUOUS
 62
             7
100
AcDbLine
 10
120.22503603342921
 20
178.32472427745381
 11
117.67503603342929
 21
178.32472427745401
  0
LINE
  5
233
100
AcDbEntity
  8
1
  6
CONTINUOUS
 62
             7
100
AcDbLine
 10
120.22503603342921
 20
178.32472427745381
 11
120.22503603342921
 21
178.12472427745391
  0
LINE
  5
232
100
AcDbEntity
  8
1
  6
CONTINUOUS
 62
             7
100
AcDbLine
 10
120.22503603342921
 20
178.12472427745391
 11
120.42503603342929
 21
178.12472427745391
  0
LINE
  5
231
100
AcDbEntity
  8
1
  6
CONTINUOUS
 62
             7
100
AcDbLine
 10
120.42503603342929
 20
177.9747242774539
 11
120.42503603342929
 21
181.23538575590771
  0
LINE
  5
230
100
AcDbEntity
  8
1
  6
CONTINUOUS
 62
             7
100
AcDbLine
 10
121.3250360334294
 20
181.7747242774538
 11
121.3250360334294
 21
179.67046448402129
  0
LINE
  5
22F
100
AcDbEntity
  8
1
  6
CONTINUOUS
 62
             7
100
AcDbLine
 10
121.3250360334294
 20
177.9747242774539
 11
120.42503603342929
 21
177.9747242774539
  0
LINE
  5
22E
100
AcDbEntity
  8
1
  6
CONTINUOUS
 62
             7
100
AcDbLine
 10
121.3250360334294
 20
179.67046448402129
 11
121.3250360334294
 21
178.2163179743643
  0
LINE
  5
22D
100
AcDbEntity
  8
1
  6
CONTINUOUS
 62
             7
100
AcDbLine
 10
121.3250360334294
 20
178.2163179743643
 11
121.3250360334294
 21
177.9747242774539
  0
LINE
  5
22C
100
AcDbEntity
  8
1
  6
CONTINUOUS
 62
             7
100
AcDbLine
 10
121.3250360334294
 20
185.67046448402129
 11
121.3250360334294
 21
184.2163179743643
  0
LINE
  5
22B
100
AcDbEntity
  8
1
  6
CONTINUOUS
 62
             7
100
AcDbLine
 10
121.3250360334294
 20
187.7747242774538
 11
121.3250360334294
 21
185.67046448402129
  0
LINE
  5
22A
100
AcDbEntity
  8
1
  6
CONTINUOUS
 62
             7
100
AcDbLine
 10
120.42503603342929
 20
187.7747242774538
 11
121.3250360334294
 21
187.7747242774538
  0
LINE
  5
229
100
AcDbEntity
  8
1
  6
CONTINUOUS
 62
             7
100
AcDbLine
 10
120.42503603342929
 20
186.5140627990001
 11
120.42503603342929
 21
187.7747242774538
  0
LINE
  5
228
100
AcDbEntity
  8
1
  6
CONTINUOUS
 62
             7
100
AcDbLine
 10
120.22503603342921
 20
187.62472427745379
 11
120.42503603342929
 21
187.62472427745379
  0
LINE
  5
227
100
AcDbEntity
  8
1
  6
CONTINUOUS
 62
             7
100
AcDbLine
 10
120.22503603342921
 20
187.42472427745381
 11
120.22503603342921
 21
187.62472427745379
  0
LINE
  5
226
100
AcDbEntity
  8
1
  6
CONTINUOUS
 62
             7
100
AcDbLine
 10
119.3402456060611
 20
184.32472427745381
 11
117.67503603342929
 21
184.32472427745401
  0
LINE
  5
225
100
AcDbEntity
  8
1
  6
CONTINUOUS
 62
             7
100
AcDbLine
 10
120.22503603342921
 20
187.42472427745381
 11
120.22503603342921
 21
186.46309364609169
  0
LINE
  5
224
100
AcDbEntity
  8
1
  6
CONTINUOUS
 62
             7
100
AcDbLine
 10
117.67503603342929
 20
187.42472427745381
 11
120.22503603342921
 21
187.42472427745381
  0
LINE
  5
223
100
AcDbEntity
  8
1
  6
CONTINUOUS
 62
             7
100
AcDbLine
 10
117.67503603342929
 20
193.42472427745381
 11
120.22503603342921
 21
193.42472427745381
  0
LINE
  5
222
100
AcDbEntity
  8
1
  6
CONTINUOUS
 62
             7
100
AcDbLine
 10
120.22503603342921
 20
193.42472427745381
 11
120.22503603342921
 21
190.32472427745381
  0
LINE
  5
221
100
AcDbEntity
  8
1
  6
CONTINUOUS
 62
             7
100
AcDbLine
 10
120.22503603342921
 20
190.32472427745381
 11
117.67503603342929
 21
190.3247242774539
  0
LINE
  5
220
100
AcDbEntity
  8
1
  6
CONTINUOUS
 62
             7
100
AcDbLine
 10
120.22503603342921
 20
193.42472427745381
 11
120.22503603342921
 21
193.62472427745379
  0
LINE
  5
21F
100
AcDbEntity
  8
1
  6
CONTINUOUS
 62
             7
100
AcDbLine
 10
120.22503603342921
 20
193.62472427745379
 11
120.42503603342929
 21
193.62472427745379
  0
LINE
  5
21E
100
AcDbEntity
  8
1
  6
CONTINUOUS
 62
             7
100
AcDbLine
 10
120.22503603342921
 20
190.32472427745381
 11
120.22503603342921
 21
190.12472427745379
  0
LINE
  5
21D
100
AcDbEntity
  8
1
  6
CONTINUOUS
 62
             7
100
AcDbLine
 10
120.22503603342921
 20
190.12472427745379
 11
120.42503603342929
 21
190.12472427745379
  0
LINE
  5
21C
100
AcDbEntity
  8
1
  6
CONTINUOUS
 62
             7
100
AcDbLine
 10
120.42503603342929
 20
189.9747242774539
 11
120.42503603342929
 21
193.7747242774538
  0
LINE
  5
21B
100
AcDbEntity
  8
1
  6
CONTINUOUS
 62
             7
100
AcDbLine
 10
120.42503603342929
 20
193.7747242774538
 11
121.3250360334294
 21
193.7747242774538
  0
LINE
  5
21A
100
AcDbEntity
  8
1
  6
CONTINUOUS
 62
             7
100
AcDbLine
 10
121.3250360334294
 20
193.7747242774538
 11
121.3250360334294
 21
191.67046448402129
  0
LINE
  5
219
100
AcDbEntity
  8
1
  6
CONTINUOUS
 62
             7
100
AcDbLine
 10
121.3250360334294
 20
189.9747242774539
 11
120.42503603342929
 21
189.9747242774539
  0
LINE
  5
218
100
AcDbEntity
  8
1
  6
CONTINUOUS
 62
             7
100
AcDbLine
 10
121.3250360334294
 20
191.67046448402129
 11
121.3250360334294
 21
190.2163179743643
  0
LINE
  5
217
100
AcDbEntity
  8
1
  6
CONTINUOUS
 62
             7
100
AcDbLine
 10
121.3250360334294
 20
190.2163179743643
 11
121.3250360334294
 21
189.9747242774539
  0
LINE
  5
216
100
AcDbEntity
  8
0
  6
CONTINUOUS
 62
             7
100
AcDbLine
 10
114.5250360334294
 20
171.37472427745391
 11
114.5250360334294
 21
182.37472427745391
  0
LINE
  5
215
100
AcDbEntity
  8
0
  6
CONTINUOUS
 62
             7
100
AcDbLine
 10
114.5250360334294
 20
182.37472427745391
 11
119.49603210447999
 21
182.37472427745391
  0
LINE
  5
214
100
AcDbEntity
  8
0
  6
CONTINUOUS
 62
             7
100
AcDbLine
 10
119.5250360334294
 20
182.25428031762431
 11
119.5250360334294
 21
181.42472427745381
  0
LINE
  5
213
100
AcDbEntity
  8
0
  6
CONTINUOUS
 62
             7
100
AcDbLine
 10
119.5250360334294
 20
172.32472427745381
 11
119.5250360334294
 21
171.37472427745391
  0
LINE
  5
212
100
AcDbEntity
  8
0
  6
CONTINUOUS
 62
             7
100
AcDbLine
 10
119.5250360334294
 20
171.37472427745391
 11
114.5250360334294
 21
171.37472427745391
  0
LINE
  5
211
100
AcDbEntity
  8
1
  6
CONTINUOUS
 62
             7
100
AcDbLine
 10
118.8250360334297
 20
177.12472427745399
 11
121.3250360334294
 21
177.12472427745391
  0
LINE
  5
210
100
AcDbEntity
  8
0
  6
CONTINUOUS
 62
             7
100
AcDbLine
 10
118.8250360334297
 20
177.12472427745399
 11
118.8250360334297
 21
176.62472427745391
  0
LINE
  5
20F
100
AcDbEntity
  8
0
  6
CONTINUOUS
 62
             7
100
AcDbLine
 10
118.8250360334297
 20
176.62472427745391
 11
118.8250360334297
 21
175.42472427745381
  0
LINE
  5
20E
100
AcDbEntity
  8
0
  6
CONTINUOUS
 62
             7
100
AcDbLine
 10
118.8250360334297
 20
190.3247242774539
 11
118.8250360334297
 21
189.12472427745391
  0
LINE
  5
20D
100
AcDbEntity
  8
0
  6
CONTINUOUS
 62
             7
100
AcDbLine
 10
118.8250360334297
 20
188.62472427745391
 11
118.8250360334297
 21
187.42472427745381
  0
LINE
  5
20C
100
AcDbEntity
  8
0
  6
CONTINUOUS
 62
             7
100
AcDbLine
 10
118.8250360334297
 20
189.12472427745391
 11
118.8250360334297
 21
188.62472427745391
  0
LINE
  5
20B
100
AcDbEntity
  8
1
  6
CONTINUOUS
 62
             7
100
AcDbLine
 10
118.8250360334297
 20
189.12472427745391
 11
121.3250360334294
 21
189.12472427745391
  0
LINE
  5
20A
100
AcDbEntity
  8
0
  6
CONTINUOUS
 62
             7
100
AcDbLine
 10
119.3438183236927
 20
183.37472427745391
 11
114.5250360334294
 21
183.37472427745391
  0
LINE
  5
209
100
AcDbEntity
  8
0
  6
CONTINUOUS
 62
             7
100
AcDbLine
 10
119.5250360334294
 20
194.37472427745391
 11
119.5250360334294
 21
193.42472427745381
  0
LINE
  5
208
100
AcDbEntity
  8
0
  6
CONTINUOUS
 62
             7
100
AcDbLine
 10
114.5250360334294
 20
194.37472427745391
 11
119.5250360334294
 21
194.37472427745391
  0
LINE
  5
207
100
AcDbEntity
  8
0
  6
CONTINUOUS
 62
             7
100
AcDbLine
 10
114.5250360334294
 20
183.37472427745391
 11
114.5250360334294
 21
194.37472427745391
  0
LINE
  5
206
100
AcDbEntity
  8
0
  6
CONTINUOUS
 62
             7
100
AcDbLine
 10
67.4882400448581
 20
184.87472427745391
 11
65.0512161763323
 21
184.87472427745391
  0
LINE
  5
205
100
AcDbEntity
  8
0
  6
CONTINUOUS
 62
             7
100
AcDbLine
 10
65.0512161763323
 20
184.87472427745391
 11
64.84413384579861
 21
185.12151538882901
  0
LINE
  5
204
100
AcDbEntity
  8
0
  6
CONTINUOUS
 62
             7
100
AcDbLine
 10
64.37993647139061
 20
185.674724277454
 11
64.87365201737421
 21
188.47472427745399
  0
LINE
  5
203
100
AcDbEntity
  8
0
  6
CONTINUOUS
 62
             7
100
AcDbLine
 10
64.87365201737421
 20
188.47472427745399
 11
65.19714456578811
 21
188.74616675551599
  0
LINE
  5
202
100
AcDbEntity
  8
0
  6
CONTINUOUS
 62
             7
100
AcDbLine
 10
68.9446515394535
 20
188.5274279221201
 11
68.46431405530061
 21
185.80329868096101
  0
LINE
  5
201
100
AcDbEntity
  8
0
  6
CONTINUOUS
 62
             7
100
AcDbLine
 10
68.46431405530061
 20
185.80329868096101
 11
68.10321387087771
 21
185.421082426499
  0
LINE
  5
200
100
AcDbEntity
  8
0
  6
CONTINUOUS
 62
             7
100
AcDbLine
 10
69.076420049484
 20
189.274724277454
 11
69.57013559546761
 21
192.07472427745299
  0
LINE
  5
1FF
100
AcDbEntity
  8
0
  6
CONTINUOUS
 62
             7
100
AcDbLine
 10
69.57013559546761
 20
192.07472427745299
 11
69.36305326493411
 21
192.32151538882999
  0
LINE
  5
1FE
100
AcDbEntity
  8
0
  6
CONTINUOUS
 62
             7
100
AcDbLine
 10
68.89885589052581
 20
192.87472427745391
 11
66.46183202200001
 21
192.87472427745391
  0
LINE
  5
1FD
100
AcDbEntity
  8
0
  6
CONTINUOUS
 62
             7
100
AcDbLine
 10
66.46183202200001
 20
192.87472427745391
 11
66.1383394735862
 21
192.603281799391
  0
LINE
  5
1FC
100
AcDbEntity
  8
0
  6
CONTINUOUS
 62
             7
100
AcDbLine
 10
65.5084291479246
 20
192.07472427745299
 11
65.01471360194091
 21
189.274724277454
  0
LINE
  5
1FB
100
AcDbEntity
  8
0
  6
CONTINUOUS
 62
             7
100
AcDbLine
 10
65.01471360194091
 20
189.274724277454
 11
65.22179593247451
 21
189.02793316607699
  0
LINE
  5
1FA
100
AcDbEntity
  8
0
  6
CONTINUOUS
 62
             7
100
AcDbLine
 10
63.47503603342911
 20
183.37472427745391
 11
70.575036033429
 21
183.37472427745391
  0
LINE
  5
1F9
100
AcDbEntity
  8
0
  6
CONTINUOUS
 62
             7
100
AcDbLine
 10
70.575036033429
 20
183.37472427745391
 11
70.575036033429
 21
194.37472427745391
  0
LINE
  5
1F8
100
AcDbEntity
  8
0
  6
CONTINUOUS
 62
             7
100
AcDbLine
 10
70.575036033429
 20
194.37472427745391
 11
63.47503603342911
 21
194.37472427745391
  0
LINE
  5
1F7
100
AcDbEntity
  8
0
  6
CONTINUOUS
 62
             7
100
AcDbLine
 10
63.47503603342911
 20
194.37472427745391
 11
63.47503603342911
 21
183.37472427745391
  0
LINE
  5
1F6
100
AcDbEntity
  8
0
  6
CONTINUOUS
 62
             7
100
AcDbLine
 10
67.67463794880601
 20
185.931839321328
 11
68.10321387087771
 21
185.421082426499
  0
LINE
  5
1F5
100
AcDbEntity
  8
0
  6
CONTINUOUS
 62
             7
100
AcDbLine
 10
67.67463794880601
 20
185.931839321328
 11
68.06898745391101
 21
188.16830650020501
  0
LINE
  5
1F4
100
AcDbEntity
  8
0
  6
CONTINUOUS
 62
             7
100
AcDbLine
 10
67.81173259327201
 20
185.14616675551591
 11
67.36822017155841
 21
185.674724277454
  0
LINE
  5
1F3
100
AcDbEntity
  8
0
  6
CONTINUOUS
 62
             7
100
AcDbLine
 10
67.81173259327201
 20
185.14616675551591
 11
67.4882400448581
 21
184.87472427745391
  0
LINE
  5
1F2
100
AcDbEntity
  8
0
  6
CONTINUOUS
 62
             7
100
AcDbLine
 10
64.587018801924
 20
185.42793316607711
 11
65.2463074823967
 21
185.9811420547
  0
LINE
  5
1F1
100
AcDbEntity
  8
0
  6
CONTINUOUS
 62
             7
100
AcDbLine
 10
64.587018801924
 20
185.42793316607711
 11
64.37993647139061
 21
185.674724277454
  0
LINE
  5
1F0
100
AcDbEntity
  8
0
  6
CONTINUOUS
 62
             7
100
AcDbLine
 10
64.84413384579861
 20
185.12151538882901
 11
65.50342252627121
 21
185.674724277454
  0
LINE
  5
1EF
100
AcDbEntity
  8
0
  6
CONTINUOUS
 62
             7
100
AcDbLine
 10
65.50342252627121
 20
185.674724277454
 11
67.36822017155841
 21
185.674724277454
  0
LINE
  5
1EE
100
AcDbEntity
  8
0
  6
CONTINUOUS
 62
             7
100
AcDbLine
 10
65.22179593247451
 20
189.02793316607699
 11
65.88108461294711
 21
189.58114205469991
  0
LINE
  5
1ED
100
AcDbEntity
  8
0
  6
CONTINUOUS
 62
             7
100
AcDbLine
 10
65.88108461294711
 20
189.58114205469991
 11
66.2754341180522
 21
191.81760923357891
  0
LINE
  5
1EC
100
AcDbEntity
  8
0
  6
CONTINUOUS
 62
             7
100
AcDbLine
 10
65.66149821978401
 20
188.87472427745391
 11
66.13819965682171
 21
189.274724277454
  0
LINE
  5
1EB
100
AcDbEntity
  8
0
  6
CONTINUOUS
 62
             7
100
AcDbLine
 10
65.66149821978401
 20
188.87472427745391
 11
65.9470747647493
 21
188.47472427745399
  0
LINE
  5
1EA
100
AcDbEntity
  8
0
  6
CONTINUOUS
 62
             7
100
AcDbLine
 10
65.19714456578811
 20
188.74616675551599
 11
65.6406569875017
 21
188.217609233579
  0
LINE
  5
1E9
100
AcDbEntity
  8
0
  6
CONTINUOUS
 62
             7
100
AcDbLine
 10
65.6406569875017
 20
188.217609233579
 11
65.2463074823967
 21
185.9811420547
  0
LINE
  5
1E8
100
AcDbEntity
  8
0
  6
CONTINUOUS
 62
             7
100
AcDbLine
 10
67.8118724100364
 20
188.47472427745399
 11
68.2885738470742
 21
188.87472427745391
  0
LINE
  5
1E7
100
AcDbEntity
  8
0
  6
CONTINUOUS
 62
             7
100
AcDbLine
 10
67.8118724100364
 20
188.47472427745399
 11
65.9470747647493
 21
188.47472427745399
  0
LINE
  5
1E6
100
AcDbEntity
  8
0
  6
CONTINUOUS
 62
             7
100
AcDbLine
 10
68.2885738470742
 20
188.87472427745391
 11
68.00299730210881
 21
189.274724277454
  0
LINE
  5
1E5
100
AcDbEntity
  8
0
  6
CONTINUOUS
 62
             7
100
AcDbLine
 10
68.00299730210881
 20
189.274724277454
 11
66.13819965682171
 21
189.274724277454
  0
LINE
  5
1E4
100
AcDbEntity
  8
0
  6
CONTINUOUS
 62
             7
100
AcDbLine
 10
68.3094150793563
 20
189.53183932132791
 11
68.7529275010701
 21
189.003281799391
  0
LINE
  5
1E3
100
AcDbEntity
  8
0
  6
CONTINUOUS
 62
             7
100
AcDbLine
 10
68.7529275010701
 20
189.003281799391
 11
69.076420049484
 21
189.274724277454
  0
LINE
  5
1E2
100
AcDbEntity
  8
0
  6
CONTINUOUS
 62
             7
100
AcDbLine
 10
68.9446515394535
 20
188.5274279221201
 11
68.7411532388013
 21
188.73232056239701
  0
LINE
  5
1E1
100
AcDbEntity
  8
0
  6
CONTINUOUS
 62
             7
100
AcDbLine
 10
68.7411532388013
 20
188.73232056239701
 11
68.06898745391101
 21
188.16830650020501
  0
LINE
  5
1E0
100
AcDbEntity
  8
0
  6
CONTINUOUS
 62
             7
100
AcDbLine
 10
65.83192169633851
 20
192.34616675551499
 11
66.2754341180522
 21
191.81760923357891
  0
LINE
  5
1DF
100
AcDbEntity
  8
0
  6
CONTINUOUS
 62
             7
100
AcDbLine
 10
65.83192169633851
 20
192.34616675551499
 11
65.5084291479246
 21
192.07472427745299
  0
LINE
  5
1DE
100
AcDbEntity
  8
0
  6
CONTINUOUS
 62
             7
100
AcDbLine
 10
66.58185189529981
 20
192.07472427745299
 11
66.1383394735862
 21
192.603281799391
  0
LINE
  5
1DD
100
AcDbEntity
  8
0
  6
CONTINUOUS
 62
             7
100
AcDbLine
 10
66.58185189529981
 20
192.07472427745299
 11
68.4466495405869
 21
192.07472427745299
  0
LINE
  5
1DC
100
AcDbEntity
  8
0
  6
CONTINUOUS
 62
             7
100
AcDbLine
 10
68.4466495405869
 20
192.07472427745299
 11
69.1059382210595
 21
192.62793316607599
  0
LINE
  5
1DB
100
AcDbEntity
  8
0
  6
CONTINUOUS
 62
             7
100
AcDbLine
 10
69.1059382210595
 20
192.62793316607599
 11
68.89885589052581
 21
192.87472427745391
  0
LINE
  5
1DA
100
AcDbEntity
  8
0
  6
CONTINUOUS
 62
             7
100
AcDbLine
 10
69.36305326493411
 20
192.32151538882999
 11
68.70376458446151
 21
191.768306500205
  0
LINE
  5
1D9
100
AcDbEntity
  8
0
  6
CONTINUOUS
 62
             7
100
AcDbLine
 10
68.70376458446151
 20
191.768306500205
 11
68.3094150793563
 21
189.53183932132791
  0
LINE
  5
1D8
100
AcDbEntity
  8
0
  6
CONTINUOUS
 62
             7
100
AcDbLine
 10
68.70376458446151
 20
179.768306500205
 11
68.3094150793563
 21
177.53183932132791
  0
LINE
  5
1D7
100
AcDbEntity
  8
0
  6
CONTINUOUS
 62
             7
100
AcDbLine
 10
69.36305326493411
 20
180.32151538882999
 11
68.70376458446151
 21
179.768306500205
  0
LINE
  5
1D6
100
AcDbEntity
  8
0
  6
CONTINUOUS
 62
             7
100
AcDbLine
 10
69.1059382210595
 20
180.62793316607599
 11
68.89885589052581
 21
180.87472427745391
  0
LINE
  5
1D5
100
AcDbEntity
  8
0
  6
CONTINUOUS
 62
             7
100
AcDbLine
 10
68.4466495405869
 20
180.0747242774531
 11
69.1059382210595
 21
180.62793316607599
  0
LINE
  5
1D4
100
AcDbEntity
  8
0
  6
CONTINUOUS
 62
             7
100
AcDbLine
 10
66.58185189529981
 20
180.0747242774531
 11
68.4466495405869
 21
180.0747242774531
  0
LINE
  5
1D3
100
AcDbEntity
  8
0
  6
CONTINUOUS
 62
             7
100
AcDbLine
 10
66.58185189529981
 20
180.0747242774531
 11
66.1383394735862
 21
180.603281799391
  0
LINE
  5
1D2
100
AcDbEntity
  8
0
  6
CONTINUOUS
 62
             7
100
AcDbLine
 10
65.83192169633851
 20
180.34616675551499
 11
65.5084291479246
 21
180.0747242774531
  0
LINE
  5
1D1
100
AcDbEntity
  8
0
  6
CONTINUOUS
 62
             7
100
AcDbLine
 10
65.83192169633851
 20
180.34616675551499
 11
66.2754341180522
 21
179.81760923357891
  0
LINE
  5
1D0
100
AcDbEntity
  8
0
  6
CONTINUOUS
 62
             7
100
AcDbLine
 10
68.7411532388013
 20
176.73232056239709
 11
68.06898745391101
 21
176.16830650020509
  0
LINE
  5
1CF
100
AcDbEntity
  8
0
  6
CONTINUOUS
 62
             7
100
AcDbLine
 10
68.9446515394535
 20
176.5274279221201
 11
68.7411532388013
 21
176.73232056239709
  0
LINE
  5
1CE
100
AcDbEntity
  8
0
  6
CONTINUOUS
 62
             7
100
AcDbLine
 10
68.7529275010701
 20
177.00328179939109
 11
69.076420049484
 21
177.274724277454
  0
LINE
  5
1CD
100
AcDbEntity
  8
0
  6
CONTINUOUS
 62
             7
100
AcDbLine
 10
68.3094150793563
 20
177.53183932132791
 11
68.7529275010701
 21
177.00328179939109
  0
LINE
  5
1CC
100
AcDbEntity
  8
0
  6
CONTINUOUS
 62
             7
100
AcDbLine
 10
68.00299730210881
 20
177.274724277454
 11
66.13819965682171
 21
177.274724277454
  0
LINE
  5
1CB
100
AcDbEntity
  8
0
  6
CONTINUOUS
 62
             7
100
AcDbLine
 10
68.2885738470742
 20
176.87472427745391
 11
68.00299730210881
 21
177.274724277454
  0
LINE
  5
1CA
100
AcDbEntity
  8
0
  6
CONTINUOUS
 62
             7
100
AcDbLine
 10
67.8118724100364
 20
176.4747242774541
 11
65.9470747647493
 21
176.4747242774541
  0
LINE
  5
1C9
100
AcDbEntity
  8
0
  6
CONTINUOUS
 62
             7
100
AcDbLine
 10
67.8118724100364
 20
176.4747242774541
 11
68.2885738470742
 21
176.87472427745391
  0
LINE
  5
1C8
100
AcDbEntity
  8
0
  6
CONTINUOUS
 62
             7
100
AcDbLine
 10
65.6406569875017
 20
176.217609233579
 11
65.2463074823967
 21
173.98114205470009
  0
LINE
  5
1C7
100
AcDbEntity
  8
0
  6
CONTINUOUS
 62
             7
100
AcDbLine
 10
65.19714456578811
 20
176.7461667555161
 11
65.6406569875017
 21
176.217609233579
  0
LINE
  5
1C6
100
AcDbEntity
  8
0
  6
CONTINUOUS
 62
             7
100
AcDbLine
 10
65.66149821978401
 20
176.87472427745391
 11
65.9470747647493
 21
176.4747242774541
  0
LINE
  5
1C5
100
AcDbEntity
  8
0
  6
CONTINUOUS
 62
             7
100
AcDbLine
 10
65.66149821978401
 20
176.87472427745391
 11
66.13819965682171
 21
177.274724277454
  0
LINE
  5
1C4
100
AcDbEntity
  8
0
  6
CONTINUOUS
 62
             7
100
AcDbLine
 10
65.88108461294711
 20
177.5811420547
 11
66.2754341180522
 21
179.81760923357891
  0
LINE
  5
1C3
100
AcDbEntity
  8
0
  6
CONTINUOUS
 62
             7
100
AcDbLine
 10
65.22179593247451
 20
177.02793316607699
 11
65.88108461294711
 21
177.5811420547
  0
LINE
  5
1C2
100
AcDbEntity
  8
0
  6
CONTINUOUS
 62
             7
100
AcDbLine
 10
65.50342252627121
 20
173.67472427745409
 11
67.36822017155841
 21
173.67472427745409
  0
LINE
  5
1C1
100
AcDbEntity
  8
0
  6
CONTINUOUS
 62
             7
100
AcDbLine
 10
64.84413384579861
 20
173.1215153888291
 11
65.50342252627121
 21
173.67472427745409
  0
LINE
  5
1C0
100
AcDbEntity
  8
0
  6
CONTINUOUS
 62
             7
100
AcDbLine
 10
64.587018801924
 20
173.42793316607711
 11
64.37993647139061
 21
173.67472427745409
  0
LINE
  5
1BF
100
AcDbEntity
  8
0
  6
CONTINUOUS
 62
             7
100
AcDbLine
 10
64.587018801924
 20
173.42793316607711
 11
65.2463074823967
 21
173.98114205470009
  0
LINE
  5
1BE
100
AcDbEntity
  8
0
  6
CONTINUOUS
 62
             7
100
AcDbLine
 10
67.81173259327201
 20
173.14616675551591
 11
67.4882400448581
 21
172.87472427745391
  0
LINE
  5
1BD
100
AcDbEntity
  8
0
  6
CONTINUOUS
 62
             7
100
AcDbLine
 10
67.81173259327201
 20
173.14616675551591
 11
67.36822017155841
 21
173.67472427745409
  0
LINE
  5
1BC
100
AcDbEntity
  8
0
  6
CONTINUOUS
 62
             7
100
AcDbLine
 10
67.67463794880601
 20
173.931839321328
 11
68.06898745391101
 21
176.16830650020509
  0
LINE
  5
1BB
100
AcDbEntity
  8
0
  6
CONTINUOUS
 62
             7
100
AcDbLine
 10
67.67463794880601
 20
173.931839321328
 11
68.10321387087771
 21
173.421082426499
  0
LINE
  5
1BA
100
AcDbEntity
  8
0
  6
CONTINUOUS
 62
             7
100
AcDbLine
 10
63.47503603342911
 20
182.37472427745391
 11
63.47503603342911
 21
171.37472427745391
  0
LINE
  5
1B9
100
AcDbEntity
  8
0
  6
CONTINUOUS
 62
             7
100
AcDbLine
 10
70.575036033429
 20
182.37472427745391
 11
63.47503603342911
 21
182.37472427745391
  0
LINE
  5
1B8
100
AcDbEntity
  8
0
  6
CONTINUOUS
 62
             7
100
AcDbLine
 10
70.575036033429
 20
171.37472427745391
 11
70.575036033429
 21
182.37472427745391
  0
LINE
  5
1B7
100
AcDbEntity
  8
0
  6
CONTINUOUS
 62
             7
100
AcDbLine
 10
63.47503603342911
 20
171.37472427745391
 11
70.575036033429
 21
171.37472427745391
  0
LINE
  5
1B6
100
AcDbEntity
  8
0
  6
CONTINUOUS
 62
             7
100
AcDbLine
 10
65.01471360194091
 20
177.274724277454
 11
65.22179593247451
 21
177.02793316607699
  0
LINE
  5
1B5
100
AcDbEntity
  8
0
  6
CONTINUOUS
 62
             7
100
AcDbLine
 10
65.5084291479246
 20
180.0747242774531
 11
65.01471360194091
 21
177.274724277454
  0
LINE
  5
1B4
100
AcDbEntity
  8
0
  6
CONTINUOUS
 62
             7
100
AcDbLine
 10
66.46183202200001
 20
180.87472427745391
 11
66.1383394735862
 21
180.603281799391
  0
LINE
  5
1B3
100
AcDbEntity
  8
0
  6
CONTINUOUS
 62
             7
100
AcDbLine
 10
68.89885589052581
 20
180.87472427745391
 11
66.46183202200001
 21
180.87472427745391
  0
LINE
  5
1B2
100
AcDbEntity
  8
0
  6
CONTINUOUS
 62
             7
100
AcDbLine
 10
69.57013559546761
 20
180.0747242774531
 11
69.36305326493411
 21
180.32151538882999
  0
LINE
  5
1B1
100
AcDbEntity
  8
0
  6
CONTINUOUS
 62
             7
100
AcDbLine
 10
69.076420049484
 20
177.274724277454
 11
69.57013559546761
 21
180.0747242774531
  0
LINE
  5
1B0
100
AcDbEntity
  8
0
  6
CONTINUOUS
 62
             7
100
AcDbLine
 10
68.46431405530061
 20
173.80329868096101
 11
68.10321387087771
 21
173.421082426499
  0
LINE
  5
1AF
100
AcDbEntity
  8
0
  6
CONTINUOUS
 62
             7
100
AcDbLine
 10
68.9446515394535
 20
176.5274279221201
 11
68.46431405530061
 21
173.80329868096101
  0
LINE
  5
1AE
100
AcDbEntity
  8
0
  6
CONTINUOUS
 62
             7
100
AcDbLine
 10
64.87365201737421
 20
176.4747242774541
 11
65.19714456578811
 21
176.7461667555161
  0
LINE
  5
1AD
100
AcDbEntity
  8
0
  6
CONTINUOUS
 62
             7
100
AcDbLine
 10
64.37993647139061
 20
173.67472427745409
 11
64.87365201737421
 21
176.4747242774541
  0
LINE
  5
1AC
100
AcDbEntity
  8
0
  6
CONTINUOUS
 62
             7
100
AcDbLine
 10
65.0512161763323
 20
172.87472427745391
 11
64.84413384579861
 21
173.1215153888291
  0
LINE
  5
1AB
100
AcDbEntity
  8
0
  6
CONTINUOUS
 62
             7
100
AcDbLine
 10
67.4882400448581
 20
172.87472427745391
 11
65.0512161763323
 21
172.87472427745391
  0
LINE
  5
1AA
100
AcDbEntity
  8
0
  6
CONTINUOUS
 62
             7
100
AcDbLine
 10
59.9882400448581
 20
184.87472427745391
 11
57.5512161763323
 21
184.87472427745391
  0
LINE
  5
1A9
100
AcDbEntity
  8
0
  6
CONTINUOUS
 62
             7
100
AcDbLine
 10
57.5512161763323
 20
184.87472427745391
 11
57.34413384579861
 21
185.12151538882901
  0
LINE
  5
1A8
100
AcDbEntity
  8
0
  6
CONTINUOUS
 62
             7
100
AcDbLine
 10
56.87993647139061
 20
185.674724277454
 11
57.37365201737421
 21
188.47472427745399
  0
LINE
  5
1A7
100
AcDbEntity
  8
0
  6
CONTINUOUS
 62
             7
100
AcDbLine
 10
57.37365201737421
 20
188.47472427745399
 11
57.69714456578811
 21
188.74616675551599
  0
LINE
  5
1A6
100
AcDbEntity
  8
0
  6
CONTINUOUS
 62
             7
100
AcDbLine
 10
61.4446515394535
 20
188.5274279221201
 11
60.96431405530061
 21
185.80329868096101
  0
LINE
  5
1A5
100
AcDbEntity
  8
0
  6
CONTINUOUS
 62
             7
100
AcDbLine
 10
60.96431405530061
 20
185.80329868096101
 11
60.60321387087771
 21
185.421082426499
  0
LINE
  5
1A4
100
AcDbEntity
  8
0
  6
CONTINUOUS
 62
             7
100
AcDbLine
 10
61.576420049484
 20
189.274724277454
 11
62.07013559546761
 21
192.07472427745299
  0
LINE
  5
1A3
100
AcDbEntity
  8
0
  6
CONTINUOUS
 62
             7
100
AcDbLine
 10
62.07013559546761
 20
192.07472427745299
 11
61.86305326493411
 21
192.32151538882999
  0
LINE
  5
1A2
100
AcDbEntity
  8
0
  6
CONTINUOUS
 62
             7
100
AcDbLine
 10
61.39885589052581
 20
192.87472427745391
 11
58.96183202200001
 21
192.87472427745391
  0
LINE
  5
1A1
100
AcDbEntity
  8
0
  6
CONTINUOUS
 62
             7
100
AcDbLine
 10
58.96183202200001
 20
192.87472427745391
 11
58.6383394735862
 21
192.603281799391
  0
LINE
  5
1A0
100
AcDbEntity
  8
0
  6
CONTINUOUS
 62
             7
100
AcDbLine
 10
58.0084291479246
 20
192.07472427745299
 11
57.51471360194091
 21
189.274724277454
  0
LINE
  5
19F
100
AcDbEntity
  8
0
  6
CONTINUOUS
 62
             7
100
AcDbLine
 10
57.51471360194091
 20
189.274724277454
 11
57.72179593247451
 21
189.02793316607699
  0
LINE
  5
19E
100
AcDbEntity
  8
0
  6
CONTINUOUS
 62
             7
100
AcDbLine
 10
55.97503603342911
 20
183.37472427745391
 11
63.075036033429
 21
183.37472427745391
  0
LINE
  5
19D
100
AcDbEntity
  8
0
  6
CONTINUOUS
 62
             7
100
AcDbLine
 10
63.075036033429
 20
183.37472427745391
 11
63.075036033429
 21
194.37472427745391
  0
LINE
  5
19C
100
AcDbEntity
  8
0
  6
CONTINUOUS
 62
             7
100
AcDbLine
 10
63.075036033429
 20
194.37472427745391
 11
55.97503603342911
 21
194.37472427745391
  0
LINE
  5
19B
100
AcDbEntity
  8
0
  6
CONTINUOUS
 62
             7
100
AcDbLine
 10
55.97503603342911
 20
194.37472427745391
 11
55.97503603342911
 21
183.37472427745391
  0
LINE
  5
19A
100
AcDbEntity
  8
0
  6
CONTINUOUS
 62
             7
100
AcDbLine
 10
60.17463794880601
 20
185.931839321328
 11
60.60321387087771
 21
185.421082426499
  0
LINE
  5
199
100
AcDbEntity
  8
0
  6
CONTINUOUS
 62
             7
100
AcDbLine
 10
60.17463794880601
 20
185.931839321328
 11
60.56898745391101
 21
188.16830650020501
  0
LINE
  5
198
100
AcDbEntity
  8
0
  6
CONTINUOUS
 62
             7
100
AcDbLine
 10
60.31173259327201
 20
185.14616675551591
 11
59.86822017155841
 21
185.674724277454
  0
LINE
  5
197
100
AcDbEntity
  8
0
  6
CONTINUOUS
 62
             7
100
AcDbLine
 10
60.31173259327201
 20
185.14616675551591
 11
59.9882400448581
 21
184.87472427745391
  0
LINE
  5
196
100
AcDbEntity
  8
0
  6
CONTINUOUS
 62
             7
100
AcDbLine
 10
57.087018801924
 20
185.42793316607711
 11
57.7463074823967
 21
185.9811420547
  0
LINE
  5
195
100
AcDbEntity
  8
0
  6
CONTINUOUS
 62
             7
100
AcDbLine
 10
57.087018801924
 20
185.42793316607711
 11
56.87993647139061
 21
185.674724277454
  0
LINE
  5
194
100
AcDbEntity
  8
0
  6
CONTINUOUS
 62
             7
100
AcDbLine
 10
57.34413384579861
 20
185.12151538882901
 11
58.00342252627121
 21
185.674724277454
  0
LINE
  5
193
100
AcDbEntity
  8
0
  6
CONTINUOUS
 62
             7
100
AcDbLine
 10
58.00342252627121
 20
185.674724277454
 11
59.86822017155841
 21
185.674724277454
  0
LINE
  5
192
100
AcDbEntity
  8
0
  6
CONTINUOUS
 62
             7
100
AcDbLine
 10
57.72179593247451
 20
189.02793316607699
 11
58.38108461294711
 21
189.58114205469991
  0
LINE
  5
191
100
AcDbEntity
  8
0
  6
CONTINUOUS
 62
             7
100
AcDbLine
 10
58.38108461294711
 20
189.58114205469991
 11
58.7754341180522
 21
191.81760923357891
  0
LINE
  5
190
100
AcDbEntity
  8
0
  6
CONTINUOUS
 62
             7
100
AcDbLine
 10
58.16149821978401
 20
188.87472427745391
 11
58.63819965682171
 21
189.274724277454
  0
LINE
  5
18F
100
AcDbEntity
  8
0
  6
CONTINUOUS
 62
             7
100
AcDbLine
 10
58.16149821978401
 20
188.87472427745391
 11
58.4470747647493
 21
188.47472427745399
  0
LINE
  5
18E
100
AcDbEntity
  8
0
  6
CONTINUOUS
 62
             7
100
AcDbLine
 10
57.69714456578811
 20
188.74616675551599
 11
58.1406569875017
 21
188.217609233579
  0
LINE
  5
18D
100
AcDbEntity
  8
0
  6
CONTINUOUS
 62
             7
100
AcDbLine
 10
58.1406569875017
 20
188.217609233579
 11
57.7463074823967
 21
185.9811420547
  0
LINE
  5
18C
100
AcDbEntity
  8
0
  6
CONTINUOUS
 62
             7
100
AcDbLine
 10
60.3118724100364
 20
188.47472427745399
 11
60.7885738470742
 21
188.87472427745391
  0
LINE
  5
18B
100
AcDbEntity
  8
0
  6
CONTINUOUS
 62
             7
100
AcDbLine
 10
60.3118724100364
 20
188.47472427745399
 11
58.4470747647493
 21
188.47472427745399
  0
LINE
  5
18A
100
AcDbEntity
  8
0
  6
CONTINUOUS
 62
             7
100
AcDbLine
 10
60.7885738470742
 20
188.87472427745391
 11
60.50299730210881
 21
189.274724277454
  0
LINE
  5
189
100
AcDbEntity
  8
0
  6
CONTINUOUS
 62
             7
100
AcDbLine
 10
60.50299730210881
 20
189.274724277454
 11
58.63819965682171
 21
189.274724277454
  0
LINE
  5
188
100
AcDbEntity
  8
0
  6
CONTINUOUS
 62
             7
100
AcDbLine
 10
60.8094150793563
 20
189.53183932132791
 11
61.2529275010701
 21
189.003281799391
  0
LINE
  5
187
100
AcDbEntity
  8
0
  6
CONTINUOUS
 62
             7
100
AcDbLine
 10
61.2529275010701
 20
189.003281799391
 11
61.576420049484
 21
189.274724277454
  0
LINE
  5
186
100
AcDbEntity
  8
0
  6
CONTINUOUS
 62
             7
100
AcDbLine
 10
61.4446515394535
 20
188.5274279221201
 11
61.2411532388013
 21
188.73232056239701
  0
LINE
  5
185
100
AcDbEntity
  8
0
  6
CONTINUOUS
 62
             7
100
AcDbLine
 10
61.2411532388013
 20
188.73232056239701
 11
60.56898745391101
 21
188.16830650020501
  0
LINE
  5
184
100
AcDbEntity
  8
0
  6
CONTINUOUS
 62
             7
100
AcDbLine
 10
58.33192169633851
 20
192.34616675551499
 11
58.7754341180522
 21
191.81760923357891
  0
LINE
  5
183
100
AcDbEntity
  8
0
  6
CONTINUOUS
 62
             7
100
AcDbLine
 10
58.33192169633851
 20
192.34616675551499
 11
58.0084291479246
 21
192.07472427745299
  0
LINE
  5
182
100
AcDbEntity
  8
0
  6
CONTINUOUS
 62
             7
100
AcDbLine
 10
59.08185189529981
 20
192.07472427745299
 11
58.6383394735862
 21
192.603281799391
  0
LINE
  5
181
100
AcDbEntity
  8
0
  6
CONTINUOUS
 62
             7
100
AcDbLine
 10
59.08185189529981
 20
192.07472427745299
 11
60.9466495405869
 21
192.07472427745299
  0
LINE
  5
180
100
AcDbEntity
  8
0
  6
CONTINUOUS
 62
             7
100
AcDbLine
 10
60.9466495405869
 20
192.07472427745299
 11
61.6059382210595
 21
192.62793316607599
  0
LINE
  5
17F
100
AcDbEntity
  8
0
  6
CONTINUOUS
 62
             7
100
AcDbLine
 10
61.6059382210595
 20
192.62793316607599
 11
61.39885589052581
 21
192.87472427745391
  0
LINE
  5
17E
100
AcDbEntity
  8
0
  6
CONTINUOUS
 62
             7
100
AcDbLine
 10
61.86305326493411
 20
192.32151538882999
 11
61.20376458446151
 21
191.768306500205
  0
LINE
  5
17D
100
AcDbEntity
  8
0
  6
CONTINUOUS
 62
             7
100
AcDbLine
 10
61.20376458446151
 20
191.768306500205
 11
60.8094150793563
 21
189.53183932132791
  0
LINE
  5
17C
100
AcDbEntity
  8
0
  6
CONTINUOUS
 62
             7
100
AcDbLine
 10
61.20376458446151
 20
179.768306500205
 11
60.8094150793563
 21
177.53183932132791
  0
LINE
  5
17B
100
AcDbEntity
  8
0
  6
CONTINUOUS
 62
             7
100
AcDbLine
 10
61.86305326493411
 20
180.32151538882999
 11
61.20376458446151
 21
179.768306500205
  0
LINE
  5
17A
100
AcDbEntity
  8
0
  6
CONTINUOUS
 62
             7
100
AcDbLine
 10
61.6059382210595
 20
180.62793316607599
 11
61.39885589052581
 21
180.87472427745391
  0
LINE
  5
179
100
AcDbEntity
  8
0
  6
CONTINUOUS
 62
             7
100
AcDbLine
 10
60.9466495405869
 20
180.0747242774531
 11
61.6059382210595
 21
180.62793316607599
  0
LINE
  5
178
100
AcDbEntity
  8
0
  6
CONTINUOUS
 62
             7
100
AcDbLine
 10
59.08185189529981
 20
180.0747242774531
 11
60.9466495405869
 21
180.0747242774531
  0
LINE
  5
177
100
AcDbEntity
  8
0
  6
CONTINUOUS
 62
             7
100
AcDbLine
 10
59.08185189529981
 20
180.0747242774531
 11
58.6383394735862
 21
180.603281799391
  0
LINE
  5
176
100
AcDbEntity
  8
0
  6
CONTINUOUS
 62
             7
100
AcDbLine
 10
58.33192169633851
 20
180.34616675551499
 11
58.0084291479246
 21
180.0747242774531
  0
LINE
  5
175
100
AcDbEntity
  8
0
  6
CONTINUOUS
 62
             7
100
AcDbLine
 10
58.33192169633851
 20
180.34616675551499
 11
58.7754341180522
 21
179.81760923357891
  0
LINE
  5
174
100
AcDbEntity
  8
0
  6
CONTINUOUS
 62
             7
100
AcDbLine
 10
61.2411532388013
 20
176.73232056239709
 11
60.56898745391101
 21
176.16830650020509
  0
LINE
  5
173
100
AcDbEntity
  8
0
  6
CONTINUOUS
 62
             7
100
AcDbLine
 10
61.4446515394535
 20
176.5274279221201
 11
61.2411532388013
 21
176.73232056239709
  0
LINE
  5
172
100
AcDbEntity
  8
0
  6
CONTINUOUS
 62
             7
100
AcDbLine
 10
61.2529275010701
 20
177.00328179939109
 11
61.576420049484
 21
177.274724277454
  0
LINE
  5
171
100
AcDbEntity
  8
0
  6
CONTINUOUS
 62
             7
100
AcDbLine
 10
60.8094150793563
 20
177.53183932132791
 11
61.2529275010701
 21
177.00328179939109
  0
LINE
  5
170
100
AcDbEntity
  8
0
  6
CONTINUOUS
 62
             7
100
AcDbLine
 10
60.50299730210881
 20
177.274724277454
 11
58.63819965682171
 21
177.274724277454
  0
LINE
  5
16F
100
AcDbEntity
  8
0
  6
CONTINUOUS
 62
             7
100
AcDbLine
 10
60.7885738470742
 20
176.87472427745391
 11
60.50299730210881
 21
177.274724277454
  0
LINE
  5
16E
100
AcDbEntity
  8
0
  6
CONTINUOUS
 62
             7
100
AcDbLine
 10
60.3118724100364
 20
176.4747242774541
 11
58.4470747647493
 21
176.4747242774541
  0
LINE
  5
16D
100
AcDbEntity
  8
0
  6
CONTINUOUS
 62
             7
100
AcDbLine
 10
60.3118724100364
 20
176.4747242774541
 11
60.7885738470742
 21
176.87472427745391
  0
LINE
  5
16C
100
AcDbEntity
  8
0
  6
CONTINUOUS
 62
             7
100
AcDbLine
 10
58.1406569875017
 20
176.217609233579
 11
57.7463074823967
 21
173.98114205470009
  0
LINE
  5
16B
100
AcDbEntity
  8
0
  6
CONTINUOUS
 62
             7
100
AcDbLine
 10
57.69714456578811
 20
176.7461667555161
 11
58.1406569875017
 21
176.217609233579
  0
LINE
  5
16A
100
AcDbEntity
  8
0
  6
CONTINUOUS
 62
             7
100
AcDbLine
 10
58.16149821978401
 20
176.87472427745391
 11
58.4470747647493
 21
176.4747242774541
  0
LINE
  5
169
100
AcDbEntity
  8
0
  6
CONTINUOUS
 62
             7
100
AcDbLine
 10
58.16149821978401
 20
176.87472427745391
 11
58.63819965682171
 21
177.274724277454
  0
LINE
  5
168
100
AcDbEntity
  8
0
  6
CONTINUOUS
 62
             7
100
AcDbLine
 10
58.38108461294711
 20
177.5811420547
 11
58.7754341180522
 21
179.81760923357891
  0
LINE
  5
167
100
AcDbEntity
  8
0
  6
CONTINUOUS
 62
             7
100
AcDbLine
 10
57.72179593247451
 20
177.02793316607699
 11
58.38108461294711
 21
177.5811420547
  0
LINE
  5
166
100
AcDbEntity
  8
0
  6
CONTINUOUS
 62
             7
100
AcDbLine
 10
58.00342252627121
 20
173.67472427745409
 11
59.86822017155841
 21
173.67472427745409
  0
LINE
  5
165
100
AcDbEntity
  8
0
  6
CONTINUOUS
 62
             7
100
AcDbLine
 10
57.34413384579861
 20
173.1215153888291
 11
58.00342252627121
 21
173.67472427745409
  0
LINE
  5
164
100
AcDbEntity
  8
0
  6
CONTINUOUS
 62
             7
100
AcDbLine
 10
57.087018801924
 20
173.42793316607711
 11
56.87993647139061
 21
173.67472427745409
  0
LINE
  5
163
100
AcDbEntity
  8
0
  6
CONTINUOUS
 62
             7
100
AcDbLine
 10
57.087018801924
 20
173.42793316607711
 11
57.7463074823967
 21
173.98114205470009
  0
LINE
  5
162
100
AcDbEntity
  8
0
  6
CONTINUOUS
 62
             7
100
AcDbLine
 10
60.31173259327201
 20
173.14616675551591
 11
59.9882400448581
 21
172.87472427745391
  0
LINE
  5
161
100
AcDbEntity
  8
0
  6
CONTINUOUS
 62
             7
100
AcDbLine
 10
60.31173259327201
 20
173.14616675551591
 11
59.86822017155841
 21
173.67472427745409
  0
LINE
  5
160
100
AcDbEntity
  8
0
  6
CONTINUOUS
 62
             7
100
AcDbLine
 10
60.17463794880601
 20
173.931839321328
 11
60.56898745391101
 21
176.16830650020509
  0
LINE
  5
15F
100
AcDbEntity
  8
0
  6
CONTINUOUS
 62
             7
100
AcDbLine
 10
60.17463794880601
 20
173.931839321328
 11
60.60321387087771
 21
173.421082426499
  0
LINE
  5
15E
100
AcDbEntity
  8
0
  6
CONTINUOUS
 62
             7
100
AcDbLine
 10
55.97503603342911
 20
182.37472427745391
 11
55.97503603342911
 21
171.37472427745391
  0
LINE
  5
15D
100
AcDbEntity
  8
0
  6
CONTINUOUS
 62
             7
100
AcDbLine
 10
63.075036033429
 20
182.37472427745391
 11
55.97503603342911
 21
182.37472427745391
  0
LINE
  5
15C
100
AcDbEntity
  8
0
  6
CONTINUOUS
 62
             7
100
AcDbLine
 10
63.075036033429
 20
171.37472427745391
 11
63.075036033429
 21
182.37472427745391
  0
LINE
  5
15B
100
AcDbEntity
  8
0
  6
CONTINUOUS
 62
             7
100
AcDbLine
 10
55.97503603342911
 20
171.37472427745391
 11
63.075036033429
 21
171.37472427745391
  0
LINE
  5
15A
100
AcDbEntity
  8
0
  6
CONTINUOUS
 62
             7
100
AcDbLine
 10
57.51471360194091
 20
177.274724277454
 11
57.72179593247451
 21
177.02793316607699
  0
LINE
  5
159
100
AcDbEntity
  8
0
  6
CONTINUOUS
 62
             7
100
AcDbLine
 10
58.0084291479246
 20
180.0747242774531
 11
57.51471360194091
 21
177.274724277454
  0
LINE
  5
158
100
AcDbEntity
  8
0
  6
CONTINUOUS
 62
             7
100
AcDbLine
 10
58.96183202200001
 20
180.87472427745391
 11
58.6383394735862
 21
180.603281799391
  0
LINE
  5
157
100
AcDbEntity
  8
0
  6
CONTINUOUS
 62
             7
100
AcDbLine
 10
61.39885589052581
 20
180.87472427745391
 11
58.96183202200001
 21
180.87472427745391
  0
LINE
  5
156
100
AcDbEntity
  8
0
  6
CONTINUOUS
 62
             7
100
AcDbLine
 10
62.07013559546761
 20
180.0747242774531
 11
61.86305326493411
 21
180.32151538882999
  0
LINE
  5
155
100
AcDbEntity
  8
0
  6
CONTINUOUS
 62
             7
100
AcDbLine
 10
61.576420049484
 20
177.274724277454
 11
62.07013559546761
 21
180.0747242774531
  0
LINE
  5
154
100
AcDbEntity
  8
0
  6
CONTINUOUS
 62
             7
100
AcDbLine
 10
60.96431405530061
 20
173.80329868096101
 11
60.60321387087771
 21
173.421082426499
  0
LINE
  5
153
100
AcDbEntity
  8
0
  6
CONTINUOUS
 62
             7
100
AcDbLine
 10
61.4446515394535
 20
176.5274279221201
 11
60.96431405530061
 21
173.80329868096101
  0
LINE
  5
152
100
AcDbEntity
  8
0
  6
CONTINUOUS
 62
             7
100
AcDbLine
 10
57.37365201737421
 20
176.4747242774541
 11
57.69714456578811
 21
176.7461667555161
  0
LINE
  5
151
100
AcDbEntity
  8
0
  6
CONTINUOUS
 62
             7
100
AcDbLine
 10
56.87993647139061
 20
173.67472427745409
 11
57.37365201737421
 21
176.4747242774541
  0
LINE
  5
150
100
AcDbEntity
  8
0
  6
CONTINUOUS
 62
             7
100
AcDbLine
 10
57.5512161763323
 20
172.87472427745391
 11
57.34413384579861
 21
173.1215153888291
  0
LINE
  5
14F
100
AcDbEntity
  8
0
  6
CONTINUOUS
 62
             7
100
AcDbLine
 10
59.9882400448581
 20
172.87472427745391
 11
57.5512161763323
 21
172.87472427745391
  0
LINE
  5
14E
100
AcDbEntity
  8
0
  6
CONTINUOUS
 62
             7
100
AcDbLine
 10
52.4882400448581
 20
184.87472427745391
 11
50.0512161763323
 21
184.87472427745391
  0
LINE
  5
14D
100
AcDbEntity
  8
0
  6
CONTINUOUS
 62
             7
100
AcDbLine
 10
50.0512161763323
 20
184.87472427745391
 11
49.84413384579861
 21
185.12151538882901
  0
LINE
  5
14C
100
AcDbEntity
  8
0
  6
CONTINUOUS
 62
             7
100
AcDbLine
 10
49.37993647139061
 20
185.674724277454
 11
49.87365201737421
 21
188.47472427745399
  0
LINE
  5
14B
100
AcDbEntity
  8
0
  6
CONTINUOUS
 62
             7
100
AcDbLine
 10
49.87365201737421
 20
188.47472427745399
 11
50.19714456578811
 21
188.74616675551599
  0
LINE
  5
14A
100
AcDbEntity
  8
0
  6
CONTINUOUS
 62
             7
100
AcDbLine
 10
53.9446515394535
 20
188.5274279221201
 11
53.46431405530061
 21
185.80329868096101
  0
LINE
  5
149
100
AcDbEntity
  8
0
  6
CONTINUOUS
 62
             7
100
AcDbLine
 10
53.46431405530061
 20
185.80329868096101
 11
53.10321387087771
 21
185.421082426499
  0
LINE
  5
148
100
AcDbEntity
  8
0
  6
CONTINUOUS
 62
             7
100
AcDbLine
 10
54.076420049484
 20
189.274724277454
 11
54.57013559546761
 21
192.07472427745299
  0
LINE
  5
147
100
AcDbEntity
  8
0
  6
CONTINUOUS
 62
             7
100
AcDbLine
 10
54.57013559546761
 20
192.07472427745299
 11
54.36305326493411
 21
192.32151538882999
  0
LINE
  5
146
100
AcDbEntity
  8
0
  6
CONTINUOUS
 62
             7
100
AcDbLine
 10
53.89885589052581
 20
192.87472427745391
 11
51.46183202200001
 21
192.87472427745391
  0
LINE
  5
145
100
AcDbEntity
  8
0
  6
CONTINUOUS
 62
             7
100
AcDbLine
 10
51.46183202200001
 20
192.87472427745391
 11
51.1383394735862
 21
192.603281799391
  0
LINE
  5
144
100
AcDbEntity
  8
0
  6
CONTINUOUS
 62
             7
100
AcDbLine
 10
50.5084291479246
 20
192.07472427745299
 11
50.01471360194091
 21
189.274724277454
  0
LINE
  5
143
100
AcDbEntity
  8
0
  6
CONTINUOUS
 62
             7
100
AcDbLine
 10
50.01471360194091
 20
189.274724277454
 11
50.22179593247451
 21
189.02793316607699
  0
LINE
  5
142
100
AcDbEntity
  8
0
  6
CONTINUOUS
 62
             7
100
AcDbLine
 10
48.47503603342909
 20
183.37472427745391
 11
55.575036033429
 21
183.37472427745391
  0
LINE
  5
141
100
AcDbEntity
  8
0
  6
CONTINUOUS
 62
             7
100
AcDbLine
 10
55.575036033429
 20
183.37472427745391
 11
55.575036033429
 21
194.37472427745391
  0
LINE
  5
140
100
AcDbEntity
  8
0
  6
CONTINUOUS
 62
             7
100
AcDbLine
 10
55.575036033429
 20
194.37472427745391
 11
48.47503603342909
 21
194.37472427745391
  0
LINE
  5
13F
100
AcDbEntity
  8
0
  6
CONTINUOUS
 62
             7
100
AcDbLine
 10
48.47503603342909
 20
194.37472427745391
 11
48.47503603342909
 21
183.37472427745391
  0
LINE
  5
13E
100
AcDbEntity
  8
0
  6
CONTINUOUS
 62
             7
100
AcDbLine
 10
52.67463794880601
 20
185.931839321328
 11
53.10321387087771
 21
185.421082426499
  0
LINE
  5
13D
100
AcDbEntity
  8
0
  6
CONTINUOUS
 62
             7
100
AcDbLine
 10
52.67463794880601
 20
185.931839321328
 11
53.06898745391101
 21
188.16830650020501
  0
LINE
  5
13C
100
AcDbEntity
  8
0
  6
CONTINUOUS
 62
             7
100
AcDbLine
 10
52.81173259327201
 20
185.14616675551591
 11
52.36822017155841
 21
185.674724277454
  0
LINE
  5
13B
100
AcDbEntity
  8
0
  6
CONTINUOUS
 62
             7
100
AcDbLine
 10
52.81173259327201
 20
185.14616675551591
 11
52.4882400448581
 21
184.87472427745391
  0
LINE
  5
13A
100
AcDbEntity
  8
0
  6
CONTINUOUS
 62
             7
100
AcDbLine
 10
49.58701880192402
 20
185.42793316607711
 11
50.2463074823967
 21
185.9811420547
  0
LINE
  5
139
100
AcDbEntity
  8
0
  6
CONTINUOUS
 62
             7
100
AcDbLine
 10
49.58701880192402
 20
185.42793316607711
 11
49.37993647139061
 21
185.674724277454
  0
LINE
  5
138
100
AcDbEntity
  8
0
  6
CONTINUOUS
 62
             7
100
AcDbLine
 10
49.84413384579861
 20
185.12151538882901
 11
50.50342252627121
 21
185.674724277454
  0
LINE
  5
137
100
AcDbEntity
  8
0
  6
CONTINUOUS
 62
             7
100
AcDbLine
 10
50.50342252627121
 20
185.674724277454
 11
52.36822017155841
 21
185.674724277454
  0
LINE
  5
136
100
AcDbEntity
  8
0
  6
CONTINUOUS
 62
             7
100
AcDbLine
 10
50.22179593247451
 20
189.02793316607699
 11
50.88108461294711
 21
189.58114205469991
  0
LINE
  5
135
100
AcDbEntity
  8
0
  6
CONTINUOUS
 62
             7
100
AcDbLine
 10
50.88108461294711
 20
189.58114205469991
 11
51.2754341180522
 21
191.81760923357891
  0
LINE
  5
134
100
AcDbEntity
  8
0
  6
CONTINUOUS
 62
             7
100
AcDbLine
 10
50.66149821978401
 20
188.87472427745391
 11
51.13819965682171
 21
189.274724277454
  0
LINE
  5
133
100
AcDbEntity
  8
0
  6
CONTINUOUS
 62
             7
100
AcDbLine
 10
50.66149821978401
 20
188.87472427745391
 11
50.9470747647493
 21
188.47472427745399
  0
LINE
  5
132
100
AcDbEntity
  8
0
  6
CONTINUOUS
 62
             7
100
AcDbLine
 10
50.19714456578811
 20
188.74616675551599
 11
50.6406569875017
 21
188.217609233579
  0
LINE
  5
131
100
AcDbEntity
  8
0
  6
CONTINUOUS
 62
             7
100
AcDbLine
 10
50.6406569875017
 20
188.217609233579
 11
50.2463074823967
 21
185.9811420547
  0
LINE
  5
130
100
AcDbEntity
  8
0
  6
CONTINUOUS
 62
             7
100
AcDbLine
 10
52.8118724100364
 20
188.47472427745399
 11
53.2885738470742
 21
188.87472427745391
  0
LINE
  5
12F
100
AcDbEntity
  8
0
  6
CONTINUOUS
 62
             7
100
AcDbLine
 10
52.8118724100364
 20
188.47472427745399
 11
50.9470747647493
 21
188.47472427745399
  0
LINE
  5
12E
100
AcDbEntity
  8
0
  6
CONTINUOUS
 62
             7
100
AcDbLine
 10
53.2885738470742
 20
188.87472427745391
 11
53.00299730210881
 21
189.274724277454
  0
LINE
  5
12D
100
AcDbEntity
  8
0
  6
CONTINUOUS
 62
             7
100
AcDbLine
 10
53.00299730210881
 20
189.274724277454
 11
51.13819965682171
 21
189.274724277454
  0
LINE
  5
12C
100
AcDbEntity
  8
0
  6
CONTINUOUS
 62
             7
100
AcDbLine
 10
53.3094150793563
 20
189.53183932132791
 11
53.7529275010701
 21
189.003281799391
  0
LINE
  5
12B
100
AcDbEntity
  8
0
  6
CONTINUOUS
 62
             7
100
AcDbLine
 10
53.7529275010701
 20
189.003281799391
 11
54.076420049484
 21
189.274724277454
  0
LINE
  5
12A
100
AcDbEntity
  8
0
  6
CONTINUOUS
 62
             7
100
AcDbLine
 10
53.9446515394535
 20
188.5274279221201
 11
53.7411532388013
 21
188.73232056239701
  0
LINE
  5
129
100
AcDbEntity
  8
0
  6
CONTINUOUS
 62
             7
100
AcDbLine
 10
53.7411532388013
 20
188.73232056239701
 11
53.06898745391101
 21
188.16830650020501
  0
LINE
  5
128
100
AcDbEntity
  8
0
  6
CONTINUOUS
 62
             7
100
AcDbLine
 10
50.83192169633851
 20
192.34616675551499
 11
51.2754341180522
 21
191.81760923357891
  0
LINE
  5
127
100
AcDbEntity
  8
0
  6
CONTINUOUS
 62
             7
100
AcDbLine
 10
50.83192169633851
 20
192.34616675551499
 11
50.5084291479246
 21
192.07472427745299
  0
LINE
  5
126
100
AcDbEntity
  8
0
  6
CONTINUOUS
 62
             7
100
AcDbLine
 10
51.58185189529981
 20
192.07472427745299
 11
51.1383394735862
 21
192.603281799391
  0
LINE
  5
125
100
AcDbEntity
  8
0
  6
CONTINUOUS
 62
             7
100
AcDbLine
 10
51.58185189529981
 20
192.07472427745299
 11
53.4466495405869
 21
192.07472427745299
  0
LINE
  5
124
100
AcDbEntity
  8
0
  6
CONTINUOUS
 62
             7
100
AcDbLine
 10
53.4466495405869
 20
192.07472427745299
 11
54.1059382210595
 21
192.62793316607599
  0
LINE
  5
123
100
AcDbEntity
  8
0
  6
CONTINUOUS
 62
             7
100
AcDbLine
 10
54.1059382210595
 20
192.62793316607599
 11
53.89885589052581
 21
192.87472427745391
  0
LINE
  5
122
100
AcDbEntity
  8
0
  6
CONTINUOUS
 62
             7
100
AcDbLine
 10
54.36305326493411
 20
192.32151538882999
 11
53.70376458446151
 21
191.768306500205
  0
LINE
  5
121
100
AcDbEntity
  8
0
  6
CONTINUOUS
 62
             7
100
AcDbLine
 10
53.70376458446151
 20
191.768306500205
 11
53.3094150793563
 21
189.53183932132791
  0
LINE
  5
120
100
AcDbEntity
  8
0
  6
CONTINUOUS
 62
             7
100
AcDbLine
 10
53.70376458446151
 20
179.768306500205
 11
53.3094150793563
 21
177.53183932132791
  0
LINE
  5
11F
100
AcDbEntity
  8
0
  6
CONTINUOUS
 62
             7
100
AcDbLine
 10
54.36305326493411
 20
180.32151538882999
 11
53.70376458446151
 21
179.768306500205
  0
LINE
  5
11E
100
AcDbEntity
  8
0
  6
CONTINUOUS
 62
             7
100
AcDbLine
 10
54.1059382210595
 20
180.62793316607599
 11
53.89885589052581
 21
180.87472427745391
  0
LINE
  5
11D
100
AcDbEntity
  8
0
  6
CONTINUOUS
 62
             7
100
AcDbLine
 10
53.4466495405869
 20
180.0747242774531
 11
54.1059382210595
 21
180.62793316607599
  0
LINE
  5
11C
100
AcDbEntity
  8
0
  6
CONTINUOUS
 62
             7
100
AcDbLine
 10
51.58185189529981
 20
180.0747242774531
 11
53.4466495405869
 21
180.0747242774531
  0
LINE
  5
11B
100
AcDbEntity
  8
0
  6
CONTINUOUS
 62
             7
100
AcDbLine
 10
51.58185189529981
 20
180.0747242774531
 11
51.1383394735862
 21
180.603281799391
  0
LINE
  5
11A
100
AcDbEntity
  8
0
  6
CONTINUOUS
 62
             7
100
AcDbLine
 10
50.83192169633851
 20
180.34616675551499
 11
50.5084291479246
 21
180.0747242774531
  0
LINE
  5
119
100
AcDbEntity
  8
0
  6
CONTINUOUS
 62
             7
100
AcDbLine
 10
50.83192169633851
 20
180.34616675551499
 11
51.2754341180522
 21
179.81760923357891
  0
LINE
  5
118
100
AcDbEntity
  8
0
  6
CONTINUOUS
 62
             7
100
AcDbLine
 10
53.7411532388013
 20
176.73232056239709
 11
53.06898745391101
 21
176.16830650020509
  0
LINE
  5
117
100
AcDbEntity
  8
0
  6
CONTINUOUS
 62
             7
100
AcDbLine
 10
53.9446515394535
 20
176.5274279221201
 11
53.7411532388013
 21
176.73232056239709
  0
LINE
  5
116
100
AcDbEntity
  8
0
  6
CONTINUOUS
 62
             7
100
AcDbLine
 10
53.7529275010701
 20
177.00328179939109
 11
54.076420049484
 21
177.274724277454
  0
LINE
  5
115
100
AcDbEntity
  8
0
  6
CONTINUOUS
 62
             7
100
AcDbLine
 10
53.3094150793563
 20
177.53183932132791
 11
53.7529275010701
 21
177.00328179939109
  0
LINE
  5
114
100
AcDbEntity
  8
0
  6
CONTINUOUS
 62
             7
100
AcDbLine
 10
53.00299730210881
 20
177.274724277454
 11
51.13819965682171
 21
177.274724277454
  0
LINE
  5
113
100
AcDbEntity
  8
0
  6
CONTINUOUS
 62
             7
100
AcDbLine
 10
53.2885738470742
 20
176.87472427745391
 11
53.00299730210881
 21
177.274724277454
  0
LINE
  5
112
100
AcDbEntity
  8
0
  6
CONTINUOUS
 62
             7
100
AcDbLine
 10
52.8118724100364
 20
176.4747242774541
 11
50.9470747647493
 21
176.4747242774541
  0
LINE
  5
111
100
AcDbEntity
  8
0
  6
CONTINUOUS
 62
             7
100
AcDbLine
 10
52.8118724100364
 20
176.4747242774541
 11
53.2885738470742
 21
176.87472427745391
  0
LINE
  5
110
100
AcDbEntity
  8
0
  6
CONTINUOUS
 62
             7
100
AcDbLine
 10
50.6406569875017
 20
176.217609233579
 11
50.2463074823967
 21
173.98114205470009
  0
LINE
  5
10F
100
AcDbEntity
  8
0
  6
CONTINUOUS
 62
             7
100
AcDbLine
 10
50.19714456578811
 20
176.7461667555161
 11
50.6406569875017
 21
176.217609233579
  0
LINE
  5
10E
100
AcDbEntity
  8
0
  6
CONTINUOUS
 62
             7
100
AcDbLine
 10
50.66149821978401
 20
176.87472427745391
 11
50.9470747647493
 21
176.4747242774541
  0
LINE
  5
10D
100
AcDbEntity
  8
0
  6
CONTINUOUS
 62
             7
100
AcDbLine
 10
50.66149821978401
 20
176.87472427745391
 11
51.13819965682171
 21
177.274724277454
  0
LINE
  5
10C
100
AcDbEntity
  8
0
  6
CONTINUOUS
 62
             7
100
AcDbLine
 10
50.88108461294711
 20
177.5811420547
 11
51.2754341180522
 21
179.81760923357891
  0
LINE
  5
10B
100
AcDbEntity
  8
0
  6
CONTINUOUS
 62
             7
100
AcDbLine
 10
50.22179593247451
 20
177.02793316607699
 11
50.88108461294711
 21
177.5811420547
  0
LINE
  5
10A
100
AcDbEntity
  8
0
  6
CONTINUOUS
 62
             7
100
AcDbLine
 10
50.50342252627121
 20
173.67472427745409
 11
52.36822017155841
 21
173.67472427745409
  0
LINE
  5
109
100
AcDbEntity
  8
0
  6
CONTINUOUS
 62
             7
100
AcDbLine
 10
49.84413384579861
 20
173.1215153888291
 11
50.50342252627121
 21
173.67472427745409
  0
LINE
  5
108
100
AcDbEntity
  8
0
  6
CONTINUOUS
 62
             7
100
AcDbLine
 10
49.58701880192402
 20
173.42793316607711
 11
49.37993647139061
 21
173.67472427745409
  0
LINE
  5
107
100
AcDbEntity
  8
0
  6
CONTINUOUS
 62
             7
100
AcDbLine
 10
49.58701880192402
 20
173.42793316607711
 11
50.2463074823967
 21
173.98114205470009
  0
LINE
  5
106
100
AcDbEntity
  8
0
  6
CONTINUOUS
 62
             7
100
AcDbLine
 10
52.81173259327201
 20
173.14616675551591
 11
52.4882400448581
 21
172.87472427745391
  0
LINE
  5
105
100
AcDbEntity
  8
0
  6
CONTINUOUS
 62
             7
100
AcDbLine
 10
52.81173259327201
 20
173.14616675551591
 11
52.36822017155841
 21
173.67472427745409
  0
LINE
  5
104
100
AcDbEntity
  8
0
  6
CONTINUOUS
 62
             7
100
AcDbLine
 10
52.67463794880601
 20
173.931839321328
 11
53.06898745391101
 21
176.16830650020509
  0
LINE
  5
103
100
AcDbEntity
  8
0
  6
CONTINUOUS
 62
             7
100
AcDbLine
 10
52.67463794880601
 20
173.931839321328
 11
53.10321387087771
 21
173.421082426499
  0
LINE
  5
102
100
AcDbEntity
  8
0
  6
CONTINUOUS
 62
             7
100
AcDbLine
 10
48.47503603342909
 20
182.37472427745391
 11
48.47503603342909
 21
171.37472427745391
  0
LINE
  5
101
100
AcDbEntity
  8
0
  6
CONTINUOUS
 62
             7
100
AcDbLine
 10
55.575036033429
 20
182.37472427745391
 11
48.47503603342909
 21
182.37472427745391
  0
LINE
  5
100
100
AcDbEntity
  8
0
  6
CONTINUOUS
 62
             7
100
AcDbLine
 10
55.575036033429
 20
171.37472427745391
 11
55.575036033429
 21
182.37472427745391
  0
LINE
  5
FF
100
AcDbEntity
  8
0
  6
CONTINUOUS
 62
             7
100
AcDbLine
 10
48.47503603342909
 20
171.37472427745391
 11
55.575036033429
 21
171.37472427745391
  0
LINE
  5
FE
100
AcDbEntity
  8
0
  6
CONTINUOUS
 62
             7
100
AcDbLine
 10
50.01471360194091
 20
177.274724277454
 11
50.22179593247451
 21
177.02793316607699
  0
LINE
  5
FD
100
AcDbEntity
  8
0
  6
CONTINUOUS
 62
             7
100
AcDbLine
 10
50.5084291479246
 20
180.0747242774531
 11
50.01471360194091
 21
177.274724277454
  0
LINE
  5
FC
100
AcDbEntity
  8
0
  6
CONTINUOUS
 62
             7
100
AcDbLine
 10
51.46183202200001
 20
180.87472427745391
 11
51.1383394735862
 21
180.603281799391
  0
LINE
  5
FB
100
AcDbEntity
  8
0
  6
CONTINUOUS
 62
             7
100
AcDbLine
 10
53.89885589052581
 20
180.87472427745391
 11
51.46183202200001
 21
180.87472427745391
  0
LINE
  5
FA
100
AcDbEntity
  8
0
  6
CONTINUOUS
 62
             7
100
AcDbLine
 10
54.57013559546761
 20
180.0747242774531
 11
54.36305326493411
 21
180.32151538882999
  0
LINE
  5
F9
100
AcDbEntity
  8
0
  6
CONTINUOUS
 62
             7
100
AcDbLine
 10
54.076420049484
 20
177.274724277454
 11
54.57013559546761
 21
180.0747242774531
  0
LINE
  5
F8
100
AcDbEntity
  8
0
  6
CONTINUOUS
 62
             7
100
AcDbLine
 10
53.46431405530061
 20
173.80329868096101
 11
53.10321387087771
 21
173.421082426499
  0
LINE
  5
F7
100
AcDbEntity
  8
0
  6
CONTINUOUS
 62
             7
100
AcDbLine
 10
53.9446515394535
 20
176.5274279221201
 11
53.46431405530061
 21
173.80329868096101
  0
LINE
  5
F6
100
AcDbEntity
  8
0
  6
CONTINUOUS
 62
             7
100
AcDbLine
 10
49.87365201737421
 20
176.4747242774541
 11
50.19714456578811
 21
176.7461667555161
  0
LINE
  5
F5
100
AcDbEntity
  8
0
  6
CONTINUOUS
 62
             7
100
AcDbLine
 10
49.37993647139061
 20
173.67472427745409
 11
49.87365201737421
 21
176.4747242774541
  0
LINE
  5
F4
100
AcDbEntity
  8
0
  6
CONTINUOUS
 62
             7
100
AcDbLine
 10
50.0512161763323
 20
172.87472427745391
 11
49.84413384579861
 21
173.1215153888291
  0
LINE
  5
F3
100
AcDbEntity
  8
0
  6
CONTINUOUS
 62
             7
100
AcDbLine
 10
52.4882400448581
 20
172.87472427745391
 11
50.0512161763323
 21
172.87472427745391
  0
LINE
  5
F2
100
AcDbEntity
  8
0
  6
CONTINUOUS
 62
             7
100
AcDbLine
 10
44.98824004485812
 20
172.87472427745391
 11
42.5512161763323
 21
172.87472427745391
  0
LINE
  5
F1
100
AcDbEntity
  8
0
  6
CONTINUOUS
 62
             7
100
AcDbLine
 10
42.5512161763323
 20
172.87472427745391
 11
42.34413384579861
 21
173.1215153888291
  0
LINE
  5
F0
100
AcDbEntity
  8
0
  6
CONTINUOUS
 62
             7
100
AcDbLine
 10
41.87993647139061
 20
173.67472427745409
 11
42.37365201737421
 21
176.4747242774541
  0
LINE
  5
EF
100
AcDbEntity
  8
0
  6
CONTINUOUS
 62
             7
100
AcDbLine
 10
42.37365201737421
 20
176.4747242774541
 11
42.69714456578811
 21
176.7461667555161
  0
LINE
  5
EE
100
AcDbEntity
  8
0
  6
CONTINUOUS
 62
             7
100
AcDbLine
 10
46.4446515394535
 20
176.5274279221201
 11
45.96431405530061
 21
173.80329868096101
  0
LINE
  5
ED
100
AcDbEntity
  8
0
  6
CONTINUOUS
 62
             7
100
AcDbLine
 10
45.96431405530061
 20
173.80329868096101
 11
45.60321387087771
 21
173.421082426499
  0
LINE
  5
EC
100
AcDbEntity
  8
0
  6
CONTINUOUS
 62
             7
100
AcDbLine
 10
46.576420049484
 20
177.274724277454
 11
47.07013559546761
 21
180.0747242774531
  0
LINE
  5
EB
100
AcDbEntity
  8
0
  6
CONTINUOUS
 62
             7
100
AcDbLine
 10
47.07013559546761
 20
180.0747242774531
 11
46.86305326493411
 21
180.32151538882999
  0
LINE
  5
EA
100
AcDbEntity
  8
0
  6
CONTINUOUS
 62
             7
100
AcDbLine
 10
46.3988558905258
 20
180.87472427745391
 11
43.96183202200001
 21
180.87472427745391
  0
LINE
  5
E9
100
AcDbEntity
  8
0
  6
CONTINUOUS
 62
             7
100
AcDbLine
 10
43.96183202200001
 20
180.87472427745391
 11
43.6383394735862
 21
180.603281799391
  0
LINE
  5
E8
100
AcDbEntity
  8
0
  6
CONTINUOUS
 62
             7
100
AcDbLine
 10
43.0084291479246
 20
180.0747242774531
 11
42.51471360194091
 21
177.274724277454
  0
LINE
  5
E7
100
AcDbEntity
  8
0
  6
CONTINUOUS
 62
             7
100
AcDbLine
 10
42.51471360194091
 20
177.274724277454
 11
42.72179593247449
 21
177.02793316607699
  0
LINE
  5
E6
100
AcDbEntity
  8
0
  6
CONTINUOUS
 62
             7
100
AcDbLine
 10
40.97503603342909
 20
171.37472427745391
 11
48.075036033429
 21
171.37472427745391
  0
LINE
  5
E5
100
AcDbEntity
  8
0
  6
CONTINUOUS
 62
             7
100
AcDbLine
 10
48.075036033429
 20
171.37472427745391
 11
48.075036033429
 21
182.37472427745391
  0
LINE
  5
E4
100
AcDbEntity
  8
0
  6
CONTINUOUS
 62
             7
100
AcDbLine
 10
48.075036033429
 20
182.37472427745391
 11
40.97503603342909
 21
182.37472427745391
  0
LINE
  5
E3
100
AcDbEntity
  8
0
  6
CONTINUOUS
 62
             7
100
AcDbLine
 10
40.97503603342909
 20
182.37472427745391
 11
40.97503603342909
 21
171.37472427745391
  0
LINE
  5
E2
100
AcDbEntity
  8
0
  6
CONTINUOUS
 62
             7
100
AcDbLine
 10
45.17463794880601
 20
173.931839321328
 11
45.60321387087771
 21
173.421082426499
  0
LINE
  5
E1
100
AcDbEntity
  8
0
  6
CONTINUOUS
 62
             7
100
AcDbLine
 10
45.17463794880601
 20
173.931839321328
 11
45.56898745391101
 21
176.16830650020509
  0
LINE
  5
E0
100
AcDbEntity
  8
0
  6
CONTINUOUS
 62
             7
100
AcDbLine
 10
45.31173259327201
 20
173.14616675551591
 11
44.86822017155842
 21
173.67472427745409
  0
LINE
  5
DF
100
AcDbEntity
  8
0
  6
CONTINUOUS
 62
             7
100
AcDbLine
 10
45.31173259327201
 20
173.14616675551591
 11
44.98824004485812
 21
172.87472427745391
  0
LINE
  5
DE
100
AcDbEntity
  8
0
  6
CONTINUOUS
 62
             7
100
AcDbLine
 10
42.08701880192402
 20
173.42793316607711
 11
42.7463074823967
 21
173.98114205470009
  0
LINE
  5
DD
100
AcDbEntity
  8
0
  6
CONTINUOUS
 62
             7
100
AcDbLine
 10
42.08701880192402
 20
173.42793316607711
 11
41.87993647139061
 21
173.67472427745409
  0
LINE
  5
DC
100
AcDbEntity
  8
0
  6
CONTINUOUS
 62
             7
100
AcDbLine
 10
42.34413384579861
 20
173.1215153888291
 11
43.00342252627121
 21
173.67472427745409
  0
LINE
  5
DB
100
AcDbEntity
  8
0
  6
CONTINUOUS
 62
             7
100
AcDbLine
 10
43.00342252627121
 20
173.67472427745409
 11
44.86822017155842
 21
173.67472427745409
  0
LINE
  5
DA
100
AcDbEntity
  8
0
  6
CONTINUOUS
 62
             7
100
AcDbLine
 10
42.72179593247449
 20
177.02793316607699
 11
43.38108461294709
 21
177.5811420547
  0
LINE
  5
D9
100
AcDbEntity
  8
0
  6
CONTINUOUS
 62
             7
100
AcDbLine
 10
43.38108461294709
 20
177.5811420547
 11
43.7754341180522
 21
179.81760923357891
  0
LINE
  5
D8
100
AcDbEntity
  8
0
  6
CONTINUOUS
 62
             7
100
AcDbLine
 10
43.16149821978399
 20
176.87472427745391
 11
43.63819965682171
 21
177.274724277454
  0
LINE
  5
D7
100
AcDbEntity
  8
0
  6
CONTINUOUS
 62
             7
100
AcDbLine
 10
43.16149821978399
 20
176.87472427745391
 11
43.44707476474932
 21
176.4747242774541
  0
LINE
  5
D6
100
AcDbEntity
  8
0
  6
CONTINUOUS
 62
             7
100
AcDbLine
 10
42.69714456578811
 20
176.7461667555161
 11
43.1406569875017
 21
176.217609233579
  0
LINE
  5
D5
100
AcDbEntity
  8
0
  6
CONTINUOUS
 62
             7
100
AcDbLine
 10
43.1406569875017
 20
176.217609233579
 11
42.7463074823967
 21
173.98114205470009
  0
LINE
  5
D4
100
AcDbEntity
  8
0
  6
CONTINUOUS
 62
             7
100
AcDbLine
 10
45.31187241003642
 20
176.4747242774541
 11
45.78857384707422
 21
176.87472427745391
  0
LINE
  5
D3
100
AcDbEntity
  8
0
  6
CONTINUOUS
 62
             7
100
AcDbLine
 10
45.31187241003642
 20
176.4747242774541
 11
43.44707476474932
 21
176.4747242774541
  0
LINE
  5
D2
100
AcDbEntity
  8
0
  6
CONTINUOUS
 62
             7
100
AcDbLine
 10
45.78857384707422
 20
176.87472427745391
 11
45.50299730210881
 21
177.274724277454
  0
LINE
  5
D1
100
AcDbEntity
  8
0
  6
CONTINUOUS
 62
             7
100
AcDbLine
 10
45.50299730210881
 20
177.274724277454
 11
43.63819965682171
 21
177.274724277454
  0
LINE
  5
D0
100
AcDbEntity
  8
0
  6
CONTINUOUS
 62
             7
100
AcDbLine
 10
45.80941507935631
 20
177.53183932132791
 11
46.2529275010701
 21
177.00328179939109
  0
LINE
  5
CF
100
AcDbEntity
  8
0
  6
CONTINUOUS
 62
             7
100
AcDbLine
 10
46.2529275010701
 20
177.00328179939109
 11
46.576420049484
 21
177.274724277454
  0
LINE
  5
CE
100
AcDbEntity
  8
0
  6
CONTINUOUS
 62
             7
100
AcDbLine
 10
46.4446515394535
 20
176.5274279221201
 11
46.2411532388013
 21
176.73232056239709
  0
LINE
  5
CD
100
AcDbEntity
  8
0
  6
CONTINUOUS
 62
             7
100
AcDbLine
 10
46.2411532388013
 20
176.73232056239709
 11
45.56898745391101
 21
176.16830650020509
  0
LINE
  5
CC
100
AcDbEntity
  8
0
  6
CONTINUOUS
 62
             7
100
AcDbLine
 10
43.3319216963385
 20
180.34616675551499
 11
43.7754341180522
 21
179.81760923357891
  0
LINE
  5
CB
100
AcDbEntity
  8
0
  6
CONTINUOUS
 62
             7
100
AcDbLine
 10
43.3319216963385
 20
180.34616675551499
 11
43.0084291479246
 21
180.0747242774531
  0
LINE
  5
CA
100
AcDbEntity
  8
0
  6
CONTINUOUS
 62
             7
100
AcDbLine
 10
44.08185189529979
 20
180.0747242774531
 11
43.6383394735862
 21
180.603281799391
  0
LINE
  5
C9
100
AcDbEntity
  8
0
  6
CONTINUOUS
 62
             7
100
AcDbLine
 10
44.08185189529979
 20
180.0747242774531
 11
45.94664954058692
 21
180.0747242774531
  0
LINE
  5
C8
100
AcDbEntity
  8
0
  6
CONTINUOUS
 62
             7
100
AcDbLine
 10
45.94664954058692
 20
180.0747242774531
 11
46.60593822105952
 21
180.62793316607599
  0
LINE
  5
C7
100
AcDbEntity
  8
0
  6
CONTINUOUS
 62
             7
100
AcDbLine
 10
46.60593822105952
 20
180.62793316607599
 11
46.3988558905258
 21
180.87472427745391
  0
LINE
  5
C6
100
AcDbEntity
  8
0
  6
CONTINUOUS
 62
             7
100
AcDbLine
 10
46.86305326493411
 20
180.32151538882999
 11
46.20376458446151
 21
179.768306500205
  0
LINE
  5
C5
100
AcDbEntity
  8
0
  6
CONTINUOUS
 62
             7
100
AcDbLine
 10
46.20376458446151
 20
179.768306500205
 11
45.80941507935631
 21
177.53183932132791
  0
LINE
  5
C4
100
AcDbEntity
  8
0
  6
CONTINUOUS
 62
             7
100
AcDbLine
 10
46.20376458446151
 20
191.768306500205
 11
45.80941507935631
 21
189.53183932132791
  0
LINE
  5
C3
100
AcDbEntity
  8
0
  6
CONTINUOUS
 62
             7
100
AcDbLine
 10
46.86305326493411
 20
192.32151538882999
 11
46.20376458446151
 21
191.768306500205
  0
LINE
  5
C2
100
AcDbEntity
  8
0
  6
CONTINUOUS
 62
             7
100
AcDbLine
 10
46.60593822105952
 20
192.62793316607599
 11
46.3988558905258
 21
192.87472427745391
  0
LINE
  5
C1
100
AcDbEntity
  8
0
  6
CONTINUOUS
 62
             7
100
AcDbLine
 10
45.94664954058692
 20
192.07472427745299
 11
46.60593822105952
 21
192.62793316607599
  0
LINE
  5
C0
100
AcDbEntity
  8
0
  6
CONTINUOUS
 62
             7
100
AcDbLine
 10
44.08185189529979
 20
192.07472427745299
 11
45.94664954058692
 21
192.07472427745299
  0
LINE
  5
BF
100
AcDbEntity
  8
0
  6
CONTINUOUS
 62
             7
100
AcDbLine
 10
44.08185189529979
 20
192.07472427745299
 11
43.6383394735862
 21
192.603281799391
  0
LINE
  5
BE
100
AcDbEntity
  8
0
  6
CONTINUOUS
 62
             7
100
AcDbLine
 10
43.3319216963385
 20
192.34616675551499
 11
43.0084291479246
 21
192.07472427745299
  0
LINE
  5
BD
100
AcDbEntity
  8
0
  6
CONTINUOUS
 62
             7
100
AcDbLine
 10
43.3319216963385
 20
192.34616675551499
 11
43.7754341180522
 21
191.81760923357891
  0
LINE
  5
BC
100
AcDbEntity
  8
0
  6
CONTINUOUS
 62
             7
100
AcDbLine
 10
46.2411532388013
 20
188.73232056239701
 11
45.56898745391101
 21
188.16830650020501
  0
LINE
  5
BB
100
AcDbEntity
  8
0
  6
CONTINUOUS
 62
             7
100
AcDbLine
 10
46.4446515394535
 20
188.5274279221201
 11
46.2411532388013
 21
188.73232056239701
  0
LINE
  5
BA
100
AcDbEntity
  8
0
  6
CONTINUOUS
 62
             7
100
AcDbLine
 10
46.2529275010701
 20
189.003281799391
 11
46.576420049484
 21
189.274724277454
  0
LINE
  5
B9
100
AcDbEntity
  8
0
  6
CONTINUOUS
 62
             7
100
AcDbLine
 10
45.80941507935631
 20
189.53183932132791
 11
46.2529275010701
 21
189.003281799391
  0
LINE
  5
B8
100
AcDbEntity
  8
0
  6
CONTINUOUS
 62
             7
100
AcDbLine
 10
45.50299730210881
 20
189.274724277454
 11
43.63819965682171
 21
189.274724277454
  0
LINE
  5
B7
100
AcDbEntity
  8
0
  6
CONTINUOUS
 62
             7
100
AcDbLine
 10
45.78857384707422
 20
188.87472427745391
 11
45.50299730210881
 21
189.274724277454
  0
LINE
  5
B6
100
AcDbEntity
  8
0
  6
CONTINUOUS
 62
             7
100
AcDbLine
 10
45.31187241003642
 20
188.47472427745399
 11
43.44707476474932
 21
188.47472427745399
  0
LINE
  5
B5
100
AcDbEntity
  8
0
  6
CONTINUOUS
 62
             7
100
AcDbLine
 10
45.31187241003642
 20
188.47472427745399
 11
45.78857384707422
 21
188.87472427745391
  0
LINE
  5
B4
100
AcDbEntity
  8
0
  6
CONTINUOUS
 62
             7
100
AcDbLine
 10
43.1406569875017
 20
188.217609233579
 11
42.7463074823967
 21
185.9811420547
  0
LINE
  5
B3
100
AcDbEntity
  8
0
  6
CONTINUOUS
 62
             7
100
AcDbLine
 10
42.69714456578811
 20
188.74616675551599
 11
43.1406569875017
 21
188.217609233579
  0
LINE
  5
B2
100
AcDbEntity
  8
0
  6
CONTINUOUS
 62
             7
100
AcDbLine
 10
43.16149821978399
 20
188.87472427745391
 11
43.44707476474932
 21
188.47472427745399
  0
LINE
  5
B1
100
AcDbEntity
  8
0
  6
CONTINUOUS
 62
             7
100
AcDbLine
 10
43.16149821978399
 20
188.87472427745391
 11
43.63819965682171
 21
189.274724277454
  0
LINE
  5
B0
100
AcDbEntity
  8
0
  6
CONTINUOUS
 62
             7
100
AcDbLine
 10
43.38108461294709
 20
189.58114205469991
 11
43.7754341180522
 21
191.81760923357891
  0
LINE
  5
AF
100
AcDbEntity
  8
0
  6
CONTINUOUS
 62
             7
100
AcDbLine
 10
42.72179593247449
 20
189.02793316607699
 11
43.38108461294709
 21
189.58114205469991
  0
LINE
  5
AE
100
AcDbEntity
  8
0
  6
CONTINUOUS
 62
             7
100
AcDbLine
 10
43.00342252627121
 20
185.674724277454
 11
44.86822017155842
 21
185.674724277454
  0
LINE
  5
AD
100
AcDbEntity
  8
0
  6
CONTINUOUS
 62
             7
100
AcDbLine
 10
42.34413384579861
 20
185.12151538882901
 11
43.00342252627121
 21
185.674724277454
  0
LINE
  5
AC
100
AcDbEntity
  8
0
  6
CONTINUOUS
 62
             7
100
AcDbLine
 10
42.08701880192402
 20
185.42793316607711
 11
41.87993647139061
 21
185.674724277454
  0
LINE
  5
AB
100
AcDbEntity
  8
0
  6
CONTINUOUS
 62
             7
100
AcDbLine
 10
42.08701880192402
 20
185.42793316607711
 11
42.7463074823967
 21
185.9811420547
  0
LINE
  5
AA
100
AcDbEntity
  8
0
  6
CONTINUOUS
 62
             7
100
AcDbLine
 10
45.31173259327201
 20
185.14616675551591
 11
44.98824004485812
 21
184.87472427745391
  0
LINE
  5
A9
100
AcDbEntity
  8
0
  6
CONTINUOUS
 62
             7
100
AcDbLine
 10
45.31173259327201
 20
185.14616675551591
 11
44.86822017155842
 21
185.674724277454
  0
LINE
  5
A8
100
AcDbEntity
  8
0
  6
CONTINUOUS
 62
             7
100
AcDbLine
 10
45.17463794880601
 20
185.931839321328
 11
45.56898745391101
 21
188.16830650020501
  0
LINE
  5
A7
100
AcDbEntity
  8
0
  6
CONTINUOUS
 62
             7
100
AcDbLine
 10
45.17463794880601
 20
185.931839321328
 11
45.60321387087771
 21
185.421082426499
  0
LINE
  5
A6
100
AcDbEntity
  8
0
  6
CONTINUOUS
 62
             7
100
AcDbLine
 10
40.97503603342909
 20
194.37472427745391
 11
40.97503603342909
 21
183.37472427745391
  0
LINE
  5
A5
100
AcDbEntity
  8
0
  6
CONTINUOUS
 62
             7
100
AcDbLine
 10
48.075036033429
 20
194.37472427745391
 11
40.97503603342909
 21
194.37472427745391
  0
LINE
  5
A4
100
AcDbEntity
  8
0
  6
CONTINUOUS
 62
             7
100
AcDbLine
 10
48.075036033429
 20
183.37472427745391
 11
48.075036033429
 21
194.37472427745391
  0
LINE
  5
A3
100
AcDbEntity
  8
0
  6
CONTINUOUS
 62
             7
100
AcDbLine
 10
40.97503603342909
 20
183.37472427745391
 11
48.075036033429
 21
183.37472427745391
  0
LINE
  5
A2
100
AcDbEntity
  8
0
  6
CONTINUOUS
 62
             7
100
AcDbLine
 10
42.51471360194091
 20
189.274724277454
 11
42.72179593247449
 21
189.02793316607699
  0
LINE
  5
A1
100
AcDbEntity
  8
0
  6
CONTINUOUS
 62
             7
100
AcDbLine
 10
43.0084291479246
 20
192.07472427745299
 11
42.51471360194091
 21
189.274724277454
  0
LINE
  5
A0
100
AcDbEntity
  8
0
  6
CONTINUOUS
 62
             7
100
AcDbLine
 10
43.96183202200001
 20
192.87472427745391
 11
43.6383394735862
 21
192.603281799391
  0
LINE
  5
9F
100
AcDbEntity
  8
0
  6
CONTINUOUS
 62
             7
100
AcDbLine
 10
46.3988558905258
 20
192.87472427745391
 11
43.96183202200001
 21
192.87472427745391
  0
LINE
  5
9E
100
AcDbEntity
  8
0
  6
CONTINUOUS
 62
             7
100
AcDbLine
 10
47.07013559546761
 20
192.07472427745299
 11
46.86305326493411
 21
192.32151538882999
  0
LINE
  5
9D
100
AcDbEntity
  8
0
  6
CONTINUOUS
 62
             7
100
AcDbLine
 10
46.576420049484
 20
189.274724277454
 11
47.07013559546761
 21
192.07472427745299
  0
LINE
  5
9C
100
AcDbEntity
  8
0
  6
CONTINUOUS
 62
             7
100
AcDbLine
 10
45.96431405530061
 20
185.80329868096101
 11
45.60321387087771
 21
185.421082426499
  0
LINE
  5
9B
100
AcDbEntity
  8
0
  6
CONTINUOUS
 62
             7
100
AcDbLine
 10
46.4446515394535
 20
188.5274279221201
 11
45.96431405530061
 21
185.80329868096101
  0
LINE
  5
9A
100
AcDbEntity
  8
0
  6
CONTINUOUS
 62
             7
100
AcDbLine
 10
42.37365201737421
 20
188.47472427745399
 11
42.69714456578811
 21
188.74616675551599
  0
LINE
  5
99
100
AcDbEntity
  8
0
  6
CONTINUOUS
 62
             7
100
AcDbLine
 10
41.87993647139061
 20
185.674724277454
 11
42.37365201737421
 21
188.47472427745399
  0
LINE
  5
98
100
AcDbEntity
  8
0
  6
CONTINUOUS
 62
             7
100
AcDbLine
 10
42.5512161763323
 20
184.87472427745391
 11
42.34413384579861
 21
185.12151538882901
  0
LINE
  5
97
100
AcDbEntity
  8
0
  6
CONTINUOUS
 62
             7
100
AcDbLine
 10
44.98824004485812
 20
184.87472427745391
 11
42.5512161763323
 21
184.87472427745391
  0
LINE
  5
96
100
AcDbEntity
  8
1
  6
CONTINUOUS
 62
             7
100
AcDbLine
 10
121.3250360334294
 20
155.274724277454
 11
119.8250360334294
 21
155.274724277454
  0
LINE
  5
95
100
AcDbEntity
  8
1
  6
CONTINUOUS
 62
             7
100
AcDbLine
 10
121.3250360334294
 20
159.774724277454
 11
119.8250360334294
 21
159.774724277454
  0
LINE
  5
94
100
AcDbEntity
  8
1
  6
CONTINUOUS
 62
             7
100
AcDbLine
 10
117.6250360334293
 20
160.87472427745391
 11
121.3250360334294
 21
160.87472427745391
  0
LINE
  5
93
100
AcDbEntity
  8
1
  6
CONTINUOUS
 62
             7
100
AcDbLine
 10
121.3250360334294
 20
160.87472427745391
 11
121.3250360334294
 21
160.4747242774541
  0
LINE
  5
92
100
AcDbEntity
  8
1
  6
CONTINUOUS
 62
             7
100
AcDbLine
 10
121.3250360334294
 20
154.87472427745391
 11
117.6250360334293
 21
154.87472427745391
  0
LINE
  5
91
100
AcDbEntity
  8
1
  6
CONTINUOUS
 62
             7
100
AcDbLine
 10
117.6250360334293
 20
154.87472427745391
 11
117.6250360334293
 21
160.87472427745391
  0
LINE
  5
90
100
AcDbEntity
  8
1
  6
CONTINUOUS
 62
             7
100
AcDbLine
 10
117.6250360334293
 20
159.37472427745391
 11
114.3250360334294
 21
159.37472427745391
  0
LINE
  5
8F
100
AcDbEntity
  8
1
  6
CONTINUOUS
 62
             7
100
AcDbLine
 10
114.3250360334294
 20
159.37472427745391
 11
114.3250360334294
 21
156.37472427745391
  0
LINE
  5
8E
100
AcDbEntity
  8
1
  6
CONTINUOUS
 62
             7
100
AcDbLine
 10
114.3250360334294
 20
156.37472427745391
 11
117.6250360334293
 21
156.37472427745391
  0
LINE
  5
8D
100
AcDbEntity
  8
1
  6
CONTINUOUS
 62
             7
100
AcDbLine
 10
119.8250360334294
 20
160.4747242774541
 11
121.3250360334294
 21
160.4747242774541
  0
LINE
  5
8C
100
AcDbEntity
  8
1
  6
CONTINUOUS
 62
             7
100
AcDbLine
 10
119.8250360334294
 20
159.774724277454
 11
119.8250360334294
 21
160.4747242774541
  0
LINE
  5
8B
100
AcDbEntity
  8
1
  6
CONTINUOUS
 62
             7
100
AcDbLine
 10
119.8250360334294
 20
155.274724277454
 11
119.8250360334294
 21
155.9747242774541
  0
LINE
  5
8A
100
AcDbEntity
  8
1
  6
CONTINUOUS
 62
             7
100
AcDbLine
 10
119.8250360334294
 20
155.9747242774541
 11
121.3250360334294
 21
155.9747242774541
  0
LINE
  5
89
100
AcDbEntity
  8
1
  6
CONTINUOUS
 62
             7
100
AcDbLine
 10
121.3250360334294
 20
159.774724277454
 11
121.3250360334294
 21
155.9747242774541
  0
LINE
  5
88
100
AcDbEntity
  8
1
  6
CONTINUOUS
 62
             7
100
AcDbLine
 10
121.3250360334294
 20
155.274724277454
 11
121.3250360334294
 21
154.87472427745391
  0
LINE
  5
87
100
AcDbEntity
  8
1
  6
CONTINUOUS
 62
             7
100
AcDbLine
 10
41.52503603342882
 20
160.4747242774541
 11
41.52503603342882
 21
160.87472427745391
  0
LINE
  5
86
100
AcDbEntity
  8
1
  6
CONTINUOUS
 62
             7
100
AcDbLine
 10
40.52503603342882
 20
160.4747242774541
 11
41.52503603342882
 21
160.4747242774541
  0
LINE
  5
85
100
AcDbEntity
  8
1
  6
CONTINUOUS
 62
             7
100
AcDbLine
 10
40.52503603342882
 20
159.774724277454
 11
40.52503603342882
 21
160.4747242774541
  0
LINE
  5
84
100
AcDbEntity
  8
1
  6
CONTINUOUS
 62
             7
100
AcDbLine
 10
41.52503603342882
 20
159.774724277454
 11
41.52503603342882
 21
160.4747242774541
  0
LINE
  5
83
100
AcDbEntity
  8
1
  6
CONTINUOUS
 62
             7
100
AcDbLine
 10
41.52503603342882
 20
159.774724277454
 11
40.52503603342882
 21
159.774724277454
  0
LINE
  5
82
100
AcDbEntity
  8
1
  6
CONTINUOUS
 62
             7
100
AcDbLine
 10
41.52503603342882
 20
155.274724277454
 11
41.52503603342882
 21
155.9747242774541
  0
LINE
  5
81
100
AcDbEntity
  8
1
  6
CONTINUOUS
 62
             7
100
AcDbLine
 10
40.52503603342882
 20
155.274724277454
 11
41.52503603342882
 21
155.274724277454
  0
LINE
  5
80
100
AcDbEntity
  8
1
  6
CONTINUOUS
 62
             7
100
AcDbLine
 10
40.52503603342882
 20
155.9747242774541
 11
40.52503603342882
 21
155.274724277454
  0
LINE
  5
7F
100
AcDbEntity
  8
1
  6
CONTINUOUS
 62
             7
100
AcDbLine
 10
41.52503603342882
 20
155.9747242774541
 11
41.52503603342882
 21
159.774724277454
  0
LINE
  5
7E
100
AcDbEntity
  8
1
  6
CONTINUOUS
 62
             7
100
AcDbLine
 10
41.52503603342882
 20
155.9747242774541
 11
40.52503603342882
 21
155.9747242774541
  0
LINE
  5
7D
100
AcDbEntity
  8
1
  6
CONTINUOUS
 62
             7
100
AcDbLine
 10
48.52503603342882
 20
155.274724277454
 11
48.52503603342882
 21
155.9747242774541
  0
LINE
  5
7C
100
AcDbEntity
  8
1
  6
CONTINUOUS
 62
             7
100
AcDbLine
 10
47.52503603342882
 20
155.274724277454
 11
47.52503603342882
 21
154.87472427745391
  0
LINE
  5
7B
100
AcDbEntity
  8
1
  6
CONTINUOUS
 62
             7
100
AcDbLine
 10
47.52503603342882
 20
155.274724277454
 11
48.52503603342882
 21
155.274724277454
  0
LINE
  5
7A
100
AcDbEntity
  8
1
  6
CONTINUOUS
 62
             7
100
AcDbLine
 10
47.52503603342882
 20
155.9747242774541
 11
47.52503603342882
 21
155.274724277454
  0
LINE
  5
79
100
AcDbEntity
  8
1
  6
CONTINUOUS
 62
             7
100
AcDbLine
 10
47.52503603342882
 20
155.9747242774541
 11
48.52503603342882
 21
155.9747242774541
  0
LINE
  5
78
100
AcDbEntity
  8
1
  6
CONTINUOUS
 62
             7
100
AcDbLine
 10
47.52503603342882
 20
159.774724277454
 11
47.52503603342882
 21
155.9747242774541
  0
LINE
  5
77
100
AcDbEntity
  8
1
  6
CONTINUOUS
 62
             7
100
AcDbLine
 10
48.52503603342882
 20
159.774724277454
 11
47.52503603342882
 21
159.774724277454
  0
LINE
  5
76
100
AcDbEntity
  8
1
  6
CONTINUOUS
 62
             7
100
AcDbLine
 10
48.52503603342882
 20
160.4747242774541
 11
48.52503603342882
 21
159.774724277454
  0
LINE
  5
75
100
AcDbEntity
  8
1
  6
CONTINUOUS
 62
             7
100
AcDbLine
 10
47.52503603342882
 20
160.4747242774541
 11
47.52503603342882
 21
159.774724277454
  0
LINE
  5
74
100
AcDbEntity
  8
1
  6
CONTINUOUS
 62
             7
100
AcDbLine
 10
47.52503603342882
 20
160.4747242774541
 11
48.52503603342882
 21
160.4747242774541
  0
LINE
  5
73
100
AcDbEntity
  8
1
  6
CONTINUOUS
 62
             7
100
AcDbLine
 10
41.52503603342882
 20
154.87472427745391
 11
41.52503603342882
 21
155.274724277454
  0
LINE
  5
72
100
AcDbEntity
  8
1
  6
CONTINUOUS
 62
             7
100
AcDbLine
 10
47.52503603342882
 20
154.87472427745391
 11
41.52503603342882
 21
154.87472427745391
  0
LINE
  5
71
100
AcDbEntity
  8
1
  6
CONTINUOUS
 62
             7
100
AcDbLine
 10
47.52503603342882
 20
160.87472427745391
 11
47.52503603342882
 21
160.4747242774541
  0
LINE
  5
70
100
AcDbEntity
  8
1
  6
CONTINUOUS
 62
             7
100
AcDbLine
 10
41.52503603342882
 20
160.87472427745391
 11
47.52503603342882
 21
160.87472427745391
  0
LINE
  5
6F
100
AcDbEntity
  8
1
  6
CONTINUOUS
 62
             7
100
AcDbLine
 10
51.52503603342881
 20
160.87472427745391
 11
57.52503603342881
 21
160.87472427745391
  0
LINE
  5
6E
100
AcDbEntity
  8
1
  6
CONTINUOUS
 62
             7
100
AcDbLine
 10
57.52503603342881
 20
160.87472427745391
 11
57.52503603342881
 21
160.4747242774541
  0
LINE
  5
6D
100
AcDbEntity
  8
1
  6
CONTINUOUS
 62
             7
100
AcDbLine
 10
57.52503603342881
 20
154.87472427745391
 11
51.52503603342881
 21
154.87472427745391
  0
LINE
  5
6C
100
AcDbEntity
  8
1
  6
CONTINUOUS
 62
             7
100
AcDbLine
 10
51.52503603342881
 20
154.87472427745391
 11
51.52503603342881
 21
155.274724277454
  0
LINE
  5
6B
100
AcDbEntity
  8
1
  6
CONTINUOUS
 62
             7
100
AcDbLine
 10
57.52503603342881
 20
160.4747242774541
 11
58.52503603342881
 21
160.4747242774541
  0
LINE
  5
6A
100
AcDbEntity
  8
1
  6
CONTINUOUS
 62
             7
100
AcDbLine
 10
57.52503603342881
 20
160.4747242774541
 11
57.52503603342881
 21
159.774724277454
  0
LINE
  5
69
100
AcDbEntity
  8
1
  6
CONTINUOUS
 62
             7
100
AcDbLine
 10
58.52503603342881
 20
160.4747242774541
 11
58.52503603342881
 21
159.774724277454
  0
LINE
  5
68
100
AcDbEntity
  8
1
  6
CONTINUOUS
 62
             7
100
AcDbLine
 10
58.52503603342881
 20
159.774724277454
 11
57.52503603342881
 21
159.774724277454
  0
LINE
  5
67
100
AcDbEntity
  8
1
  6
CONTINUOUS
 62
             7
100
AcDbLine
 10
57.52503603342881
 20
159.774724277454
 11
57.52503603342881
 21
155.9747242774541
  0
LINE
  5
66
100
AcDbEntity
  8
1
  6
CONTINUOUS
 62
             7
100
AcDbLine
 10
57.52503603342881
 20
155.9747242774541
 11
58.52503603342881
 21
155.9747242774541
  0
LINE
  5
65
100
AcDbEntity
  8
1
  6
CONTINUOUS
 62
             7
100
AcDbLine
 10
57.52503603342881
 20
155.9747242774541
 11
57.52503603342881
 21
155.274724277454
  0
LINE
  5
64
100
AcDbEntity
  8
1
  6
CONTINUOUS
 62
             7
100
AcDbLine
 10
57.52503603342881
 20
155.274724277454
 11
58.52503603342881
 21
155.274724277454
  0
LINE
  5
63
100
AcDbEntity
  8
1
  6
CONTINUOUS
 62
             7
100
AcDbLine
 10
57.52503603342881
 20
155.274724277454
 11
57.52503603342881
 21
154.87472427745391
  0
LINE
  5
62
100
AcDbEntity
  8
1
  6
CONTINUOUS
 62
             7
100
AcDbLine
 10
58.52503603342881
 20
155.274724277454
 11
58.52503603342881
 21
155.9747242774541
  0
LINE
  5
61
100
AcDbEntity
  8
1
  6
CONTINUOUS
 62
             7
100
AcDbLine
 10
51.52503603342881
 20
155.9747242774541
 11
50.52503603342881
 21
155.9747242774541
  0
LINE
  5
60
100
AcDbEntity
  8
1
  6
CONTINUOUS
 62
             7
100
AcDbLine
 10
51.52503603342881
 20
155.9747242774541
 11
51.52503603342881
 21
159.774724277454
  0
LINE
  5
5F
100
AcDbEntity
  8
1
  6
CONTINUOUS
 62
             7
100
AcDbLine
 10
50.52503603342881
 20
155.9747242774541
 11
50.52503603342881
 21
155.274724277454
  0
LINE
  5
5E
100
AcDbEntity
  8
1
  6
CONTINUOUS
 62
             7
100
AcDbLine
 10
50.52503603342881
 20
155.274724277454
 11
51.52503603342881
 21
155.274724277454
  0
LINE
  5
5D
100
AcDbEntity
  8
1
  6
CONTINUOUS
 62
             7
100
AcDbLine
 10
51.52503603342881
 20
155.274724277454
 11
51.52503603342881
 21
155.9747242774541
  0
LINE
  5
5C
100
AcDbEntity
  8
1
  6
CONTINUOUS
 62
             7
100
AcDbLine
 10
51.52503603342881
 20
159.774724277454
 11
50.52503603342881
 21
159.774724277454
  0
LINE
  5
5B
100
AcDbEntity
  8
1
  6
CONTINUOUS
 62
             7
100
AcDbLine
 10
51.52503603342881
 20
159.774724277454
 11
51.52503603342881
 21
160.4747242774541
  0
LINE
  5
5A
100
AcDbEntity
  8
1
  6
CONTINUOUS
 62
             7
100
AcDbLine
 10
50.52503603342881
 20
159.774724277454
 11
50.52503603342881
 21
160.4747242774541
  0
LINE
  5
59
100
AcDbEntity
  8
1
  6
CONTINUOUS
 62
             7
100
AcDbLine
 10
50.52503603342881
 20
160.4747242774541
 11
51.52503603342881
 21
160.4747242774541
  0
LINE
  5
58
100
AcDbEntity
  8
1
  6
CONTINUOUS
 62
             7
100
AcDbLine
 10
51.52503603342881
 20
160.4747242774541
 11
51.52503603342881
 21
160.87472427745391
  0
LINE
  5
57
100
AcDbEntity
  8
1
  6
CONTINUOUS
 62
             7
100
AcDbLine
 10
61.52503603342881
 20
160.87472427745391
 11
67.52503603342881
 21
160.87472427745391
  0
LINE
  5
56
100
AcDbEntity
  8
1
  6
CONTINUOUS
 62
             7
100
AcDbLine
 10
67.52503603342881
 20
160.87472427745391
 11
67.52503603342881
 21
160.4747242774541
  0
LINE
  5
55
100
AcDbEntity
  8
1
  6
CONTINUOUS
 62
             7
100
AcDbLine
 10
67.52503603342881
 20
154.87472427745391
 11
61.52503603342881
 21
154.87472427745391
  0
LINE
  5
54
100
AcDbEntity
  8
1
  6
CONTINUOUS
 62
             7
100
AcDbLine
 10
61.52503603342881
 20
154.87472427745391
 11
61.52503603342881
 21
155.274724277454
  0
LINE
  5
53
100
AcDbEntity
  8
1
  6
CONTINUOUS
 62
             7
100
AcDbLine
 10
67.52503603342881
 20
160.4747242774541
 11
68.52503603342881
 21
160.4747242774541
  0
LINE
  5
52
100
AcDbEntity
  8
1
  6
CONTINUOUS
 62
             7
100
AcDbLine
 10
67.52503603342881
 20
160.4747242774541
 11
67.52503603342881
 21
159.774724277454
  0
LINE
  5
51
100
AcDbEntity
  8
1
  6
CONTINUOUS
 62
             7
100
AcDbLine
 10
68.52503603342881
 20
160.4747242774541
 11
68.52503603342881
 21
159.774724277454
  0
LINE
  5
50
100
AcDbEntity
  8
1
  6
CONTINUOUS
 62
             7
100
AcDbLine
 10
68.52503603342881
 20
159.774724277454
 11
67.52503603342881
 21
159.774724277454
  0
LINE
  5
4F
100
AcDbEntity
  8
1
  6
CONTINUOUS
 62
             7
100
AcDbLine
 10
67.52503603342881
 20
159.774724277454
 11
67.52503603342881
 21
155.9747242774541
  0
LINE
  5
4E
100
AcDbEntity
  8
1
  6
CONTINUOUS
 62
             7
100
AcDbLine
 10
67.52503603342881
 20
155.9747242774541
 11
68.52503603342881
 21
155.9747242774541
  0
LINE
  5
4D
100
AcDbEntity
  8
1
  6
CONTINUOUS
 62
             7
100
AcDbLine
 10
67.52503603342881
 20
155.9747242774541
 11
67.52503603342881
 21
155.274724277454
  0
LINE
  5
4C
100
AcDbEntity
  8
1
  6
CONTINUOUS
 62
             7
100
AcDbLine
 10
67.52503603342881
 20
155.274724277454
 11
68.52503603342881
 21
155.274724277454
  0
LINE
  5
4B
100
AcDbEntity
  8
1
  6
CONTINUOUS
 62
             7
100
AcDbLine
 10
67.52503603342881
 20
155.274724277454
 11
67.52503603342881
 21
154.87472427745391
  0
LINE
  5
4A
100
AcDbEntity
  8
1
  6
CONTINUOUS
 62
             7
100
AcDbLine
 10
68.52503603342881
 20
155.274724277454
 11
68.52503603342881
 21
155.9747242774541
  0
LINE
  5
49
100
AcDbEntity
  8
1
  6
CONTINUOUS
 62
             7
100
AcDbLine
 10
61.52503603342881
 20
155.9747242774541
 11
60.52503603342881
 21
155.9747242774541
  0
LINE
  5
48
100
AcDbEntity
  8
1
  6
CONTINUOUS
 62
             7
100
AcDbLine
 10
61.52503603342881
 20
155.9747242774541
 11
61.52503603342881
 21
159.774724277454
  0
LINE
  5
47
100
AcDbEntity
  8
1
  6
CONTINUOUS
 62
             7
100
AcDbLine
 10
60.52503603342881
 20
155.9747242774541
 11
60.52503603342881
 21
155.274724277454
  0
LINE
  5
46
100
AcDbEntity
  8
1
  6
CONTINUOUS
 62
             7
100
AcDbLine
 10
60.52503603342881
 20
155.274724277454
 11
61.52503603342881
 21
155.274724277454
  0
LINE
  5
45
100
AcDbEntity
  8
1
  6
CONTINUOUS
 62
             7
100
AcDbLine
 10
61.52503603342881
 20
155.274724277454
 11
61.52503603342881
 21
155.9747242774541
  0
LINE
  5
44
100
AcDbEntity
  8
1
  6
CONTINUOUS
 62
             7
100
AcDbLine
 10
61.52503603342881
 20
159.774724277454
 11
60.52503603342881
 21
159.774724277454
  0
LINE
  5
43
100
AcDbEntity
  8
1
  6
CONTINUOUS
 62
             7
100
AcDbLine
 10
61.52503603342881
 20
159.774724277454
 11
61.52503603342881
 21
160.4747242774541
  0
LINE
  5
42
100
AcDbEntity
  8
1
  6
CONTINUOUS
 62
             7
100
AcDbLine
 10
60.52503603342881
 20
159.774724277454
 11
60.52503603342881
 21
160.4747242774541
  0
LINE
  5
41
100
AcDbEntity
  8
1
  6
CONTINUOUS
 62
             7
100
AcDbLine
 10
60.52503603342881
 20
160.4747242774541
 11
61.52503603342881
 21
160.4747242774541
  0
LINE
  5
40
100
AcDbEntity
  8
1
  6
CONTINUOUS
 62
             7
100
AcDbLine
 10
61.52503603342881
 20
160.4747242774541
 11
61.52503603342881
 21
160.87472427745391
  0
LINE
  5
3F
100
AcDbEntity
  8
1
  6
CONTINUOUS
 62
             7
100
AcDbLine
 10
71.52503603342881
 20
160.87472427745391
 11
77.52503603342881
 21
160.87472427745391
  0
LINE
  5
3E
100
AcDbEntity
  8
1
  6
CONTINUOUS
 62
             7
100
AcDbLine
 10
77.52503603342881
 20
160.87472427745391
 11
77.52503603342881
 21
160.4747242774541
  0
LINE
  5
3D
100
AcDbEntity
  8
1
  6
CONTINUOUS
 62
             7
100
AcDbLine
 10
77.52503603342881
 20
154.87472427745391
 11
71.52503603342881
 21
154.87472427745391
  0
LINE
  5
3C
100
AcDbEntity
  8
1
  6
CONTINUOUS
 62
             7
100
AcDbLine
 10
71.52503603342881
 20
154.87472427745391
 11
71.52503603342881
 21
155.274724277454
  0
LINE
  5
3B
100
AcDbEntity
  8
1
  6
CONTINUOUS
 62
             7
100
AcDbLine
 10
77.52503603342881
 20
160.4747242774541
 11
78.52503603342879
 21
160.4747242774541
  0
LINE
  5
3A
100
AcDbEntity
  8
1
  6
CONTINUOUS
 62
             7
100
AcDbLine
 10
77.52503603342881
 20
160.4747242774541
 11
77.52503603342881
 21
159.774724277454
  0
LINE
  5
39
100
AcDbEntity
  8
1
  6
CONTINUOUS
 62
             7
100
AcDbLine
 10
78.52503603342879
 20
160.4747242774541
 11
78.52503603342879
 21
159.774724277454
  0
LINE
  5
38
100
AcDbEntity
  8
1
  6
CONTINUOUS
 62
             7
100
AcDbLine
 10
78.52503603342879
 20
159.774724277454
 11
77.52503603342881
 21
159.774724277454
  0
LINE
  5
37
100
AcDbEntity
  8
1
  6
CONTINUOUS
 62
             7
100
AcDbLine
 10
77.52503603342881
 20
159.774724277454
 11
77.52503603342881
 21
155.9747242774541
  0
LINE
  5
36
100
AcDbEntity
  8
1
  6
CONTINUOUS
 62
             7
100
AcDbLine
 10
77.52503603342881
 20
155.9747242774541
 11
78.52503603342879
 21
155.9747242774541
  0
LINE
  5
35
100
AcDbEntity
  8
1
  6
CONTINUOUS
 62
             7
100
AcDbLine
 10
77.52503603342881
 20
155.9747242774541
 11
77.52503603342881
 21
155.274724277454
  0
LINE
  5
34
100
AcDbEntity
  8
1
  6
CONTINUOUS
 62
             7
100
AcDbLine
 10
77.52503603342881
 20
155.274724277454
 11
78.52503603342879
 21
155.274724277454
  0
LINE
  5
33
100
AcDbEntity
  8
1
  6
CONTINUOUS
 62
             7
100
AcDbLine
 10
77.52503603342881
 20
155.274724277454
 11
77.52503603342881
 21
154.87472427745391
  0
LINE
  5
32
100
AcDbEntity
  8
1
  6
CONTINUOUS
 62
             7
100
AcDbLine
 10
78.52503603342879
 20
155.274724277454
 11
78.52503603342879
 21
155.9747242774541
  0
LINE
  5
31
100
AcDbEntity
  8
1
  6
CONTINUOUS
 62
             7
100
AcDbLine
 10
71.52503603342881
 20
155.9747242774541
 11
70.52503603342881
 21
155.9747242774541
  0
LINE
  5
30
100
AcDbEntity
  8
1
  6
CONTINUOUS
 62
             7
100
AcDbLine
 10
71.52503603342881
 20
155.9747242774541
 11
71.52503603342881
 21
159.774724277454
  0
LINE
  5
2F
100
AcDbEntity
  8
1
  6
CONTINUOUS
 62
             7
100
AcDbLine
 10
70.52503603342881
 20
155.9747242774541
 11
70.52503603342881
 21
155.274724277454
  0
LINE
  5
2E
100
AcDbEntity
  8
1
  6
CONTINUOUS
 62
             7
100
AcDbLine
 10
70.52503603342881
 20
155.274724277454
 11
71.52503603342881
 21
155.274724277454
  0
LINE
  5
2D
100
AcDbEntity
  8
1
  6
CONTINUOUS
 62
             7
100
AcDbLine
 10
71.52503603342881
 20
155.274724277454
 11
71.52503603342881
 21
155.9747242774541
  0
LINE
  5
2C
100
AcDbEntity
  8
1
  6
CONTINUOUS
 62
             7
100
AcDbLine
 10
71.52503603342881
 20
159.774724277454
 11
70.52503603342881
 21
159.774724277454
  0
LINE
  5
2B
100
AcDbEntity
  8
1
  6
CONTINUOUS
 62
             7
100
AcDbLine
 10
71.52503603342881
 20
159.774724277454
 11
71.52503603342881
 21
160.4747242774541
  0
LINE
  5
2A
100
AcDbEntity
  8
1
  6
CONTINUOUS
 62
             7
100
AcDbLine
 10
70.52503603342881
 20
159.774724277454
 11
70.52503603342881
 21
160.4747242774541
  0
LINE
  5
29
100
AcDbEntity
  8
1
  6
CONTINUOUS
 62
             7
100
AcDbLine
 10
70.52503603342881
 20
160.4747242774541
 11
71.52503603342881
 21
160.4747242774541
  0
LINE
  5
28
100
AcDbEntity
  8
1
  6
CONTINUOUS
 62
             7
100
AcDbLine
 10
71.52503603342881
 20
160.4747242774541
 11
71.52503603342881
 21
160.87472427745391
  0
ENDSEC
  0
SECTION
  2
OBJECTS
  0
DICTIONARY
  5
19
100
AcDbDictionary
  3
ACAD_GROUP
350
1A
  3
ACAD_MLINESTYLE
350
1B
  0
DICTIONARY
  5
1A
102
{ACAD_REACTORS
330
19
102
}
100
AcDbDictionary
  0
DICTIONARY
  5
1B
102
{ACAD_REACTORS
330
19
102
}
100
AcDbDictionary
  3
STANDARD
350
1C
  0
MLINESTYLE
  5
1C
102
{ACAD_REACTORS
330
1B
102
}
100
AcDbMlineStyle
  2
STANDARD
 70
             0
  3

 62
             0
 51
90.0
 52
90.0
 71
             2
 49
0.5
 62
           256
  6
BYLAYER
 49
-0.5
 62
           256
  6
BYLAYER
  0
ENDSEC
  0
EOF
