  0
SECTION
  2
HEADER
  9
$ACADVER
  1
AC1014
  9
$ACADMAINTVER
 70
             0
  9
$DWGCODEPAGE
  3
ANSI_1252
  9
$INSBASE
 10
0.0
 20
0.0
 30
0.0
  9
$EXTMIN
 10
1.00000000000000E+20
 20
1.00000000000000E+20
 30
1.00000000000000E+20
  9
$EXTMAX
 10
-1.00000000000000E+20
 20
-1.00000000000000E+20
 30
-1.00000000000000E+20
  9
$LIMMIN
 10
0.0
 20
0.0
  9
$LIMMAX
 10
0.0
 20
0.0
  9
$ORTHOMODE
 70
             0
  9
$REGENMODE
 70
             1
  9
$FILLMODE
 70
             1
  9
$QTEXTMODE
 70
             0
  9
$MIRRTEXT
 70
             1
  9
$DRAGMODE
 70
             2
  9
$LTSCALE
 40
1.0
  9
$OSMODE
 70
             0
  9
$ATTMODE
 70
             1
  9
$TEXTSIZE
 40
0.2
  9
$TRACEWID
 40
0.05
  9
$TEXTSTYLE
  7
STANDARD
  9
$CLAYER
  8
0
  9
$CELTYPE
  6
CONTINUOUS
  9
$CECOLOR
 62
           256
  9
$CELTSCALE
 40
1.0
  9
$DELOBJ
 70
             1
  9
$DISPSILH
 70
             0
  9
$DIMSCALE
 40
1.0
  9
$DIMASZ
 40
0.18
  9
$DIMEXO
 40
0.0625
  9
$DIMDLI
 40
0.38
  9
$DIMRND
 40
0.0
  9
$DIMDLE
 40
0.0
  9
$DIMEXE
 40
0.18
  9
$DIMTP
 40
0.0
  9
$DIMTM
 40
0.0
  9
$DIMTXT
 40
0.18
  9
$DIMCEN
 40
0.09
  9
$DIMTSZ
 40
0.0
  9
$DIMTOL
 70
             0
  9
$DIMLIM
 70
             0
  9
$DIMTIH
 70
             1
  9
$DIMTOH
 70
             1
  9
$DIMSE1
 70
             0
  9
$DIMSE2
 70
             0
  9
$DIMTAD
 70
             0
  9
$DIMZIN
 70
             0
  9
$DIMBLK
  1

  9
$DIMASO
 70
             1
  9
$DIMSHO
 70
             1
  9
$DIMPOST
  1

  9
$DIMAPOST
  1

  9
$DIMALT
 70
             0
  9
$DIMALTD
 70
             2
  9
$DIMALTF
 40
25.4
  9
$DIMLFAC
 40
1.0
  9
$DIMTOFL
 70
             0
  9
$DIMTVP
 40
0.0
  9
$DIMTIX
 70
             0
  9
$DIMSOXD
 70
             0
  9
$DIMSAH
 70
             0
  9
$DIMBLK1
  1

  9
$DIMBLK2
  1

  9
$DIMSTYLE
  2
STANDARD
  9
$DIMCLRD
 70
             0
  9
$DIMCLRE
 70
             0
  9
$DIMCLRT
 70
             0
  9
$DIMTFAC
 40
1.0
  9
$DIMGAP
 40
0.09
  9
$DIMJUST
 70
             0
  9
$DIMSD1
 70
             0
  9
$DIMSD2
 70
             0
  9
$DIMTOLJ
 70
             1
  9
$DIMTZIN
 70
             0
  9
$DIMALTZ
 70
             0
  9
$DIMALTTZ
 70
             0
  9
$DIMFIT
 70
             3
  9
$DIMUPT
 70
             0
  9
$DIMUNIT
 70
             2
  9
$DIMDEC
 70
             4
  9
$DIMTDEC
 70
             4
  9
$DIMALTU
 70
             2
  9
$DIMALTTD
 70
             2
  9
$DIMTXSTY
  7
STANDARD
  9
$DIMAUNIT
 70
             0
  9
$LUNITS
 70
             2
  9
$LUPREC
 70
             4
  9
$SKETCHINC
 40
0.1
  9
$FILLETRAD
 40
0.0
  9
$AUNITS
 70
             0
  9
$AUPREC
 70
             0
  9
$MENU
  1
acad
  9
$ELEVATION
 40
0.0
  9
$PELEVATION
 40
0.0
  9
$THICKNESS
 40
0.0
  9
$LIMCHECK
 70
             0
  9
$BLIPMODE
 70
             1
  9
$CHAMFERA
 40
0.0
  9
$CHAMFERB
 40
0.0
  9
$CHAMFERC
 40
0.0
  9
$CHAMFERD
 40
0.0
  9
$SKPOLY
 70
             0
  9
$TDCREATE
 40
0.000000000
  9
$TDUPDATE
 40
0.000000000
  9
$TDINDWG
 40
0.0000000000
  9
$TDUSRTIMER
 40
0.0000000000
  9
$USRTIMER
 70
             1
  9
$ANGBASE
 50
0.0
  9
$ANGDIR
 70
             0
  9
$PDMODE
 70
             0
  9
$PDSIZE
 40
0.0
  9
$PLINEWID
 40
0.0
  9
$COORDS
 70
             0
  9
$SPLFRAME
 70
             0
  9
$SPLINETYPE
 70
             6
  9
$SPLINESEGS
 70
             8
  9
$ATTDIA
 70
             0
  9
$ATTREQ
 70
             1
  9
$HANDLING
 70
             1
  9
$HANDSEED
  5
585
  9
$SURFTAB1
 70
             6
  9
$SURFTAB2
 70
             6
  9
$SURFTYPE
 70
             6
  9
$SURFU
 70
             6
  9
$SURFV
 70
             6
  9
$UCSNAME
  2

  9
$UCSORG
 10
0.0
 20
0.0
 30
0.0
  9
$UCSXDIR
 10
1.0
 20
0.0
 30
0.0
  9
$UCSYDIR
 10
0.0
 20
1.0
 30
0.0
  9
$PUCSNAME
  2

  9
$PUCSORG
 10
0.0
 20
0.0
 30
0.0
  9
$PUCSXDIR
 10
1.0
 20
0.0
 30
0.0
  9
$PUCSYDIR
 10
0.0
 20
1.0
 30
0.0
  9
$USERI1
 70
             0
  9
$USERI2
 70
             0
  9
$USERI3
 70
             0
  9
$USERI4
 70
             0
  9
$USERI5
 70
             0
  9
$USERR1
 40
11.6
  9
$USERR2
 40
0.0
  9
$USERR3
 40
0.0
  9
$USERR4
 40
0.0
  9
$USERR5
 40
0.0
  9
$WORLDVIEW
 70
             1
  9
$SHADEDGE
 70
             3
  9
$SHADEDIF
 70
            70
  9
$TILEMODE
 70
             1
  9
$MAXACTVP
 70
            16
  9
$PINSBASE
 10
0.0
 20
0.0
 30
0.0
  9
$PLIMCHECK
 70
             0
  9
$PEXTMIN
 10
1.00000000000000E+20
 20
1.00000000000000E+20
 30
1.00000000000000E+20
  9
$PEXTMAX
 10
-1.00000000000000E+20
 20
-1.00000000000000E+20
 30
-1.00000000000000E+20
  9
$PLIMMIN
 10
0.0
 20
0.0
  9
$PLIMMAX
 10
12.0
 20
9.0
  9
$UNITMODE
 70
             0
  9
$VISRETAIN
 70
             0
  9
$PLINEGEN
 70
             1
  9
$PSLTSCALE
 70
             0
  9
$TREEDEPTH
 70
          3020
  9
$PICKSTYLE
 70
             1
  9
$CMLSTYLE
  2
STANDARD
  9
$CMLJUST
 70
             0
  9
$CMLSCALE
 40
1.0
  9
$PROXYGRAPHICS
 70
             0
  9
$MEASUREMENT
 70
             1
  0
ENDSEC
  0
SECTION
  2
CLASSES
  0
CLASS
  1
LWPOLYLINE
  2
AcDbPolyline
  3
"AutoCAD"
 90
        0
280
             0
281
             1
  0
CLASS
  1
IMAGE
  2
AcDbRasterImage
  3
ISM
 90
      127
280
             0
281
             1
  0
CLASS
  1
OLE2FRAME
  2
AcDbOle2Frame
  3
""
 90
        0
280
             0
281
             1
  0
CLASS
  1
HATCH
  2
AcDbHatch
  3
"ACAD_SEDONA"
 90
        0
280
             0
281
             1
  0
CLASS
  1
DICTIONARYVAR
  2
AcDbDictionaryVar
  3
"AutoCAD"
 90
        0
280
             0
281
             0
  0
CLASS
  1
RASTERVARIABLES
  2
AcDbRasterVariables
  3
ISM
 90
        0
280
             0
281
             0
  0
CLASS
  1
IMAGEDEF
  2
AcDbRasterImageDef
  3
ISM
 90
        0
280
             0
281
             0
  0
CLASS
  1
IMAGEDEF_REACTOR
  2
AcDbRasterImageDefReactor
  3
ISM
 90
        1
280
             0
281
             0
  0
CLASS
  1
IDBUFFER
  2
AcDbIdBuffer
  3
"Acad"
 90
        0
280
             0
281
             0
  0
CLASS
  1
SPATIAL_FILTER
  2
AcDbSpatialFilter
  3
"Acad"
 90
        0
280
             0
281
             0
  0
CLASS
  1
XRECORD
  2
AcDbXrecord
  3
"<Built In>"
 90
        0
280
             0
281
             0
  0
CLASS
  1
SORTENTSTABLE
  2
AcDbSortentsTable
  3
"AutoCAD"
 90
        0
280
             0
281
             0
  0
CLASS
  1
LAYER_INDEX
  2
AcDbLayerIndex
  3
"Acad"
 90
        0
280
             0
281
             0
  0
CLASS
  1
SPATIAL_INDEX
  2
AcDbSpatialIndex
  3
"Acad"
 90
        0
280
             0
281
             0
  0
CLASS
  1
OBJECT_PTR
  2
CAseDLPNTableRecord
  3
"ASE-LPNTableRecord"
 90
        1
280
             0
281
             0
  0
CLASS
  1
LAYOUT
  2
AcDbLayout
  3
"AutoCAD 2000"
 90
        1
280
             0
281
             0
  0
CLASS
  1
PLOTSETTINGS
  2
AcDbPlotSettings
  3
"AutoCAD 2000"
 90
        1
280
             0
281
             0
  0
CLASS
  1
ACDBDICTIONARYWDFLT
  2
AcDbDictionaryWithDefault
  3
"AutoCAD 2000"
 90
        1
280
             0
281
             0
  0
CLASS
  1
ACDBPLACEHOLDER
  2
AcDbPlaceHolder
  3
"AutoCAD 2000"
 90
        1
280
             0
281
             0
  0
ENDSEC
  0
SECTION
  2
TABLES
  0
TABLE
  2
VPORT
  5
7
100
AcDbSymbolTable
 70
             1
  0
VPORT
  5
15
100
AcDbSymbolTableRecord
100
AcDbViewportTableRecord
  2
*ACTIVE
 70
             0
 10
0.0
 20
0.0
 11
1.0
 21
1.0
 12
-919.51376083412197
 22
-290.87643615435172
 13
0.0
 23
0.0
 14
1.0
 24
1.0
 15
0.0
 25
0.0
 16
0.0
 26
0.0
 36
1.0
 17
0.0
 27
0.0
 37
0.0
 40
158.54707520891381
 41
1.60267857142857
 42
50.0
 43
0.0
 44
0.0
 50
0.0
 51
0.0
 71
             0
 72
           100
 73
             1
 74
             1
 75
             0
 76
             0
 77
             0
 78
             0
  0
ENDTAB
  0
TABLE
  2
LTYPE
  5
4
100
AcDbSymbolTable
 70
            10
  0
LTYPE
  5
11
100
AcDbSymbolTableRecord
100
AcDbLinetypeTableRecord
  2
BYBLOCK
 70
            64
  3

 72
            65
 73
             0
 40
0.0
  0
LTYPE
  5
12
100
AcDbSymbolTableRecord
100
AcDbLinetypeTableRecord
  2
BYLAYER
 70
            64
  3

 72
            65
 73
             0
 40
0.0
  0
LTYPE
  5
13
100
AcDbSymbolTableRecord
100
AcDbLinetypeTableRecord
  2
CONTINUOUS
 70
            64
  3
Solid line
 72
            65
 73
             0
 40
0.0
  0
LTYPE
  5
1D
100
AcDbSymbolTableRecord
100
AcDbLinetypeTableRecord
  2
DASHED
 70
            64
  3
Dashed
 72
            65
 73
             2
 40
15.0
 49
12.0
 74
             0
 49
-3.0
 74
             0
  0
LTYPE
  5
1E
100
AcDbSymbolTableRecord
100
AcDbLinetypeTableRecord
  2
DOTTED
 70
            64
  3
Dotted
 72
            65
 73
             2
 40
3.5
 49
0.5
 74
             0
 49
-3.0
 74
             0
  0
LTYPE
  5
1F
100
AcDbSymbolTableRecord
100
AcDbLinetypeTableRecord
  2
DOT_CENTER
 70
            64
  3
Dot_Center
 72
            65
 73
             4
 40
2.0
 49
1.25
 74
             0
 49
-0.25
 74
             0
 49
0.25
 74
             0
 49
-0.25
 74
             0
  0
LTYPE
  5
20
100
AcDbSymbolTableRecord
100
AcDbLinetypeTableRecord
  2
LONG_DASHED
 70
            64
  3
Long_Dashed
 72
            65
 73
             2
 40
2.0
 49
1.5
 74
             0
 49
-0.5
 74
             0
  0
LTYPE
  5
21
100
AcDbSymbolTableRecord
100
AcDbLinetypeTableRecord
  2
DASH_CENTER
 70
            64
  3
Dash_Center
 72
            65
 73
             4
 40
36.0
 49
24.0
 74
             0
 49
-3.0
 74
             0
 49
6.0
 74
             0
 49
-3.0
 74
             0
  0
LTYPE
  5
22
100
AcDbSymbolTableRecord
100
AcDbLinetypeTableRecord
  2
PHANTOM
 70
            64
  3
Phantom
 72
            65
 73
             6
 40
2.5
 49
1.25
 74
             0
 49
-0.25
 74
             0
 49
0.25
 74
             0
 49
-0.25
 74
             0
 49
0.25
 74
             0
 49
-0.25
 74
             0
  0
LTYPE
  5
23
100
AcDbSymbolTableRecord
100
AcDbLinetypeTableRecord
  2
CENTER_DASH_DASH
 70
            64
  3
Center_Dash_Dash
 72
            65
 73
             6
 40
22.0
 49
12.0
 74
             0
 49
-3.0
 74
             0
 49
0.5
 74
             0
 49
-3.0
 74
             0
 49
0.5
 74
             0
 49
-3.0
 74
             0
  0
ENDTAB
  0
TABLE
  2
LAYER
  5
2
100
AcDbSymbolTable
 70
             2
  0
LAYER
  5
14
100
AcDbSymbolTableRecord
100
AcDbLayerTableRecord
  2
0
 70
             0
 62
             7
  6
CONTINUOUS
  0
LAYER
  5
24
100
AcDbSymbolTableRecord
100
AcDbLayerTableRecord
  2
1
 70
             0
 62
             7
  6
CONTINUOUS
  0
ENDTAB
  0
TABLE
  2
STYLE
  5
3
100
AcDbSymbolTable
 70
             1
  0
STYLE
  5
17
100
AcDbSymbolTableRecord
100
AcDbTextStyleTableRecord
  2
STANDARD
 70
             0
 40
0.0
 41
1.0
 50
0.0
 71
             0
 42
0.0
  3
txt
  4

  0
ENDTAB
  0
TABLE
  2
VIEW
  5
5
100
AcDbSymbolTable
 70
             0
  0
ENDTAB
  0
TABLE
  2
UCS
  5
6
100
AcDbSymbolTable
 70
             0
  0
ENDTAB
  0
TABLE
  2
APPID
  5
8
100
AcDbSymbolTable
 70
             1
  0
APPID
  5
16
100
AcDbSymbolTableRecord
100
AcDbRegAppTableRecord
  2
ACAD
 70
             0
  0
ENDTAB
  0
TABLE
  2
DIMSTYLE
  5
9
100
AcDbSymbolTable
 70
             1
  0
DIMSTYLE
105
18
100
AcDbSymbolTableRecord
100
AcDbDimStyleTableRecord
  2
STANDARD
 70
             0
  3

  4

  5

  6

  7

 40
1.0
 41
0.18
 42
0.0625
 43
0.38
 44
0.18
 45
0.0
 46
0.0
 47
0.0
 48
0.0
 71
             0
 72
             0
 73
             1
 74
             1
 75
             0
 76
             0
 77
             0
 78
             0
140
0.18
141
0.09
142
0.0
143
25.4
144
1.0
145
0.0
146
1.0
147
0.09
170
             0
171
             2
172
             0
173
             0
174
             0
175
             0
176
             0
177
             0
178
             0
270
             2
271
             4
272
             4
273
             2
274
             2
275
             0
280
             0
281
             0
282
             0
283
             1
284
             0
285
             0
286
             0
287
             0
288
             0
340
17
  0
ENDTAB
  0
TABLE
  2
BLOCK_RECORD
  5
1
100
AcDbSymbolTable
 70
             0
  0
BLOCK_RECORD
  5
A
100
AcDbSymbolTableRecord
100
AcDbBlockTableRecord
  2
*MODEL_SPACE
  0
BLOCK_RECORD
  5
B
100
AcDbSymbolTableRecord
100
AcDbBlockTableRecord
  2
*PAPER_SPACE
  0
ENDTAB
  0
ENDSEC
  0
SECTION
  2
BLOCKS
  0
BLOCK
  5
D
100
AcDbEntity
  8
0
100
AcDbBlockBegin
  2
*MODEL_SPACE
 70
             0
 10
0.0
 20
0.0
 30
0.0
  3
*MODEL_SPACE
  1

  0
ENDBLK
  5
E
100
AcDbEntity
  8
0
100
AcDbBlockEnd
  0
BLOCK
  5
F
100
AcDbEntity
 67
             1
  8
0
100
AcDbBlockBegin
  2
*PAPER_SPACE
 70
             0
 10
0.0
 20
0.0
 30
0.0
  3
*PAPER_SPACE
  1

  0
ENDBLK
  5
10
100
AcDbEntity
 67
             1
  8
0
100
AcDbBlockEnd
  0
ENDSEC
  0
SECTION
  2
ENTITIES
  0
ARC
  5
583
100
AcDbEntity
  8
1
  6
CONTINUOUS
 62
             7
100
AcDbCircle
 10
-914.01376083412197
 20
-303.32643615435182
 40
0.5
100
AcDbArc
 50
180.0
 51
-90.0
  0
ARC
  5
582
100
AcDbEntity
  8
1
  6
CONTINUOUS
 62
             7
100
AcDbCircle
 10
-914.01376083412197
 20
-298.32643615435182
 40
0.5
100
AcDbArc
 50
90.0
 51
180.0
  0
ARC
  5
581
100
AcDbEntity
  8
1
  6
CONTINUOUS
 62
             7
100
AcDbCircle
 10
-1016.513760834122
 20
-250.87643615435169
 40
1.0
100
AcDbArc
 50
0.0
 51
90.0
  0
ARC
  5
580
100
AcDbEntity
  8
1
  6
CONTINUOUS
 62
             7
100
AcDbCircle
 10
-1014.513760834122
 20
-290.37643615435172
 40
1.0
100
AcDbArc
 50
180.0
 51
-90.0
  0
ARC
  5
57F
100
AcDbEntity
  8
1
  6
CONTINUOUS
 62
             7
100
AcDbCircle
 10
-1012.513760834122
 20
-288.37643615435172
 40
1.0
100
AcDbArc
 50
180.0
 51
-90.0
  0
ARC
  5
57E
100
AcDbEntity
  8
1
  6
CONTINUOUS
 62
             7
100
AcDbCircle
 10
-1007.513760834122
 20
-290.37643615435172
 40
1.0
100
AcDbArc
 50
0.0
 51
90.0
  0
ARC
  5
57D
100
AcDbEntity
  8
1
  6
CONTINUOUS
 62
             7
100
AcDbCircle
 10
-1009.513760834122
 20
-292.37643615435172
 40
1.0
100
AcDbArc
 50
0.0
 51
90.0
  0
ARC
  5
57C
100
AcDbEntity
  8
1
  6
CONTINUOUS
 62
             7
100
AcDbCircle
 10
-1008.513760834122
 20
-271.37643615435172
 40
1.0
100
AcDbArc
 50
90.0
 51
180.0
  0
ARC
  5
57B
100
AcDbEntity
  8
1
  6
CONTINUOUS
 62
             7
100
AcDbCircle
 10
-1008.513760834122
 20
-286.37643615435172
 40
1.0
100
AcDbArc
 50
180.0
 51
-90.0
  0
ARC
  5
57A
100
AcDbEntity
  8
1
  6
CONTINUOUS
 62
             7
100
AcDbCircle
 10
-960.01376083412185
 20
-286.37643615435172
 40
1.0
100
AcDbArc
 50
-90.0
 51
0.0
  0
ARC
  5
579
100
AcDbEntity
  8
1
  6
CONTINUOUS
 62
             7
100
AcDbCircle
 10
-960.01376083412185
 20
-271.37643615435172
 40
1.0
100
AcDbArc
 50
0.0
 51
90.0
  0
ARC
  5
578
100
AcDbEntity
  8
1
  6
CONTINUOUS
 62
             7
100
AcDbCircle
 10
-997.01376083412185
 20
-303.37643615435172
 40
1.0
100
AcDbArc
 50
180.0
 51
-90.0
  0
ARC
  5
577
100
AcDbEntity
  8
1
  6
CONTINUOUS
 62
             7
100
AcDbCircle
 10
-1019.813760834122
 20
-303.32643615435182
 40
0.5
100
AcDbArc
 50
-90.0
 51
0.0
  0
ARC
  5
576
100
AcDbEntity
  8
1
  6
CONTINUOUS
 62
             7
100
AcDbCircle
 10
-1021.813760834122
 20
-303.32643615435182
 40
0.5
100
AcDbArc
 50
180.0
 51
-90.0
  0
ARC
  5
575
100
AcDbEntity
  8
1
  6
CONTINUOUS
 62
             7
100
AcDbCircle
 10
-1019.813760834122
 20
-298.32643615435182
 40
0.5
100
AcDbArc
 50
0.0
 51
90.0
  0
ARC
  5
574
100
AcDbEntity
  8
1
  6
CONTINUOUS
 62
             7
100
AcDbCircle
 10
-1021.813760834122
 20
-298.32643615435182
 40
0.5
100
AcDbArc
 50
90.0
 51
180.0
  0
ARC
  5
573
100
AcDbEntity
  8
1
  6
CONTINUOUS
 62
             7
100
AcDbCircle
 10
-841.01376083412185
 20
-238.97643615435169
 40
1.19999999999999
100
AcDbArc
 50
90.0
 51
180.0
  0
ARC
  5
572
100
AcDbEntity
  8
1
  6
CONTINUOUS
 62
             7
100
AcDbCircle
 10
-817.41376083412183
 20
-238.97643615435169
 40
1.19999999999993
100
AcDbArc
 50
0.0
 51
90.0
  0
ARC
  5
571
100
AcDbEntity
  8
1
  6
CONTINUOUS
 62
             7
100
AcDbCircle
 10
-808.51376083412185
 20
-240.12643615435169
 40
1.0
100
AcDbArc
 50
0.0
 51
90.0
  0
ARC
  5
570
100
AcDbEntity
  8
1
  6
CONTINUOUS
 62
             7
100
AcDbCircle
 10
-808.51376083412185
 20
-243.62643615435169
 40
1.0
100
AcDbArc
 50
-90.0
 51
0.0
  0
ARC
  5
56F
100
AcDbEntity
  8
1
  6
CONTINUOUS
 62
             7
100
AcDbCircle
 10
-841.01376083412185
 20
-342.7764361543517
 40
1.20000000000005
100
AcDbArc
 50
180.0
 51
-90.0
  0
ARC
  5
56E
100
AcDbEntity
  8
1
  6
CONTINUOUS
 62
             7
100
AcDbCircle
 10
-817.41376083412183
 20
-342.7764361543517
 40
1.19999999999999
100
AcDbArc
 50
-90.0
 51
0.0
  0
ARC
  5
56D
100
AcDbEntity
  8
1
  6
CONTINUOUS
 62
             7
100
AcDbCircle
 10
-808.51376083412185
 20
-341.62643615435172
 40
1.0
100
AcDbArc
 50
-90.0
 51
0.0
  0
ARC
  5
56C
100
AcDbEntity
  8
1
  6
CONTINUOUS
 62
             7
100
AcDbCircle
 10
-808.51376083412185
 20
-338.12643615435172
 40
1.0
100
AcDbArc
 50
0.0
 51
90.0
  0
ARC
  5
56B
100
AcDbEntity
  8
0
  6
CONTINUOUS
 62
             7
100
AcDbCircle
 10
-809.69170632559019
 20
-329.56503624798472
 40
0.19999999999993
100
AcDbArc
 50
0.0
 51
69.44395478041274
  0
ARC
  5
56A
100
AcDbEntity
  8
0
  6
CONTINUOUS
 62
             7
100
AcDbCircle
 10
-809.69170632559019
 20
-327.78783606071892
 40
0.1999999999999
100
AcDbArc
 50
-69.4439547804013
 51
0.0
  0
ARC
  5
569
100
AcDbEntity
  8
0
  6
CONTINUOUS
 62
             7
100
AcDbCircle
 10
-810.69170632559019
 20
-329.56503624798472
 40
0.19999999999993
100
AcDbArc
 50
0.0
 51
69.44395478041274
  0
ARC
  5
568
100
AcDbEntity
  8
0
  6
CONTINUOUS
 62
             7
100
AcDbCircle
 10
-810.69170632559019
 20
-327.78783606071892
 40
0.1999999999999
100
AcDbArc
 50
-69.4439547804013
 51
0.0
  0
ARC
  5
567
100
AcDbEntity
  8
0
  6
CONTINUOUS
 62
             7
100
AcDbCircle
 10
-809.69170632559019
 20
-321.16503624798469
 40
0.19999999999993
100
AcDbArc
 50
0.0
 51
69.44395478041274
  0
ARC
  5
566
100
AcDbEntity
  8
0
  6
CONTINUOUS
 62
             7
100
AcDbCircle
 10
-809.69170632559019
 20
-319.38783606071883
 40
0.20000000000006
100
AcDbArc
 50
-69.44395478041845
 51
0.0
  0
ARC
  5
565
100
AcDbEntity
  8
0
  6
CONTINUOUS
 62
             7
100
AcDbCircle
 10
-810.69170632559019
 20
-321.16503624798469
 40
0.19999999999993
100
AcDbArc
 50
0.0
 51
69.44395478041274
  0
ARC
  5
564
100
AcDbEntity
  8
0
  6
CONTINUOUS
 62
             7
100
AcDbCircle
 10
-810.69170632559019
 20
-319.38783606071883
 40
0.20000000000006
100
AcDbArc
 50
-69.44395478041845
 51
0.0
  0
ARC
  5
563
100
AcDbEntity
  8
0
  6
CONTINUOUS
 62
             7
100
AcDbCircle
 10
-809.69170632559019
 20
-312.76503624798482
 40
0.19999999999993
100
AcDbArc
 50
0.0
 51
69.44395478041274
  0
ARC
  5
562
100
AcDbEntity
  8
0
  6
CONTINUOUS
 62
             7
100
AcDbCircle
 10
-809.69170632559019
 20
-310.98783606071891
 40
0.20000000000001
100
AcDbArc
 50
-69.44395478041274
 51
0.0
  0
ARC
  5
561
100
AcDbEntity
  8
0
  6
CONTINUOUS
 62
             7
100
AcDbCircle
 10
-810.69170632559019
 20
-312.76503624798482
 40
0.19999999999993
100
AcDbArc
 50
0.0
 51
69.44395478041274
  0
ARC
  5
560
100
AcDbEntity
  8
0
  6
CONTINUOUS
 62
             7
100
AcDbCircle
 10
-810.69170632559019
 20
-310.98783606071891
 40
0.20000000000001
100
AcDbArc
 50
-69.44395478041274
 51
0.0
  0
ARC
  5
55F
100
AcDbEntity
  8
0
  6
CONTINUOUS
 62
             7
100
AcDbCircle
 10
-809.69170632559019
 20
-304.36503624798479
 40
0.19999999999993
100
AcDbArc
 50
0.0
 51
69.44395478041274
  0
ARC
  5
55E
100
AcDbEntity
  8
0
  6
CONTINUOUS
 62
             7
100
AcDbCircle
 10
-809.69170632559019
 20
-302.58783606071893
 40
0.19999999999996
100
AcDbArc
 50
-69.44395478040701
 51
0.0
  0
ARC
  5
55D
100
AcDbEntity
  8
0
  6
CONTINUOUS
 62
             7
100
AcDbCircle
 10
-810.69170632559019
 20
-304.36503624798479
 40
0.19999999999993
100
AcDbArc
 50
0.0
 51
69.44395478041274
  0
ARC
  5
55C
100
AcDbEntity
  8
0
  6
CONTINUOUS
 62
             7
100
AcDbCircle
 10
-810.69170632559019
 20
-302.58783606071893
 40
0.19999999999996
100
AcDbArc
 50
-69.44395478040701
 51
0.0
  0
ARC
  5
55B
100
AcDbEntity
  8
0
  6
CONTINUOUS
 62
             7
100
AcDbCircle
 10
-809.69170632559019
 20
-295.96503624798481
 40
0.19999999999993
100
AcDbArc
 50
0.0
 51
69.44395478041274
  0
ARC
  5
55A
100
AcDbEntity
  8
0
  6
CONTINUOUS
 62
             7
100
AcDbCircle
 10
-809.69170632559019
 20
-294.18783606071901
 40
0.1999999999999
100
AcDbArc
 50
-69.4439547804013
 51
0.0
  0
ARC
  5
559
100
AcDbEntity
  8
0
  6
CONTINUOUS
 62
             7
100
AcDbCircle
 10
-810.69170632559019
 20
-295.96503624798481
 40
0.19999999999993
100
AcDbArc
 50
0.0
 51
69.44395478041274
  0
ARC
  5
558
100
AcDbEntity
  8
0
  6
CONTINUOUS
 62
             7
100
AcDbCircle
 10
-810.69170632559019
 20
-294.18783606071901
 40
0.1999999999999
100
AcDbArc
 50
-69.4439547804013
 51
0.0
  0
ARC
  5
557
100
AcDbEntity
  8
0
  6
CONTINUOUS
 62
             7
100
AcDbCircle
 10
-809.69170632559019
 20
-287.56503624798478
 40
0.19999999999993
100
AcDbArc
 50
0.0
 51
69.44395478040701
  0
ARC
  5
556
100
AcDbEntity
  8
0
  6
CONTINUOUS
 62
             7
100
AcDbCircle
 10
-809.69170632559019
 20
-285.78783606071897
 40
0.1999999999999
100
AcDbArc
 50
-69.4439547804013
 51
0.0
  0
ARC
  5
555
100
AcDbEntity
  8
0
  6
CONTINUOUS
 62
             7
100
AcDbCircle
 10
-810.69170632559019
 20
-287.56503624798478
 40
0.19999999999993
100
AcDbArc
 50
0.0
 51
69.44395478040701
  0
ARC
  5
554
100
AcDbEntity
  8
0
  6
CONTINUOUS
 62
             7
100
AcDbCircle
 10
-810.69170632559019
 20
-285.78783606071897
 40
0.1999999999999
100
AcDbArc
 50
-69.4439547804013
 51
0.0
  0
ARC
  5
553
100
AcDbEntity
  8
0
  6
CONTINUOUS
 62
             7
100
AcDbCircle
 10
-809.69170632559019
 20
-279.16503624798492
 40
0.19999999999993
100
AcDbArc
 50
0.0
 51
69.44395478041274
  0
ARC
  5
552
100
AcDbEntity
  8
0
  6
CONTINUOUS
 62
             7
100
AcDbCircle
 10
-809.69170632559019
 20
-277.387836060719
 40
0.20000000000001
100
AcDbArc
 50
-69.44395478041274
 51
0.0
  0
ARC
  5
551
100
AcDbEntity
  8
0
  6
CONTINUOUS
 62
             7
100
AcDbCircle
 10
-810.69170632559019
 20
-279.16503624798492
 40
0.19999999999993
100
AcDbArc
 50
0.0
 51
69.44395478041274
  0
ARC
  5
550
100
AcDbEntity
  8
0
  6
CONTINUOUS
 62
             7
100
AcDbCircle
 10
-810.69170632559019
 20
-277.387836060719
 40
0.20000000000001
100
AcDbArc
 50
-69.44395478041274
 51
0.0
  0
ARC
  5
54F
100
AcDbEntity
  8
0
  6
CONTINUOUS
 62
             7
100
AcDbCircle
 10
-809.69170632559019
 20
-270.76503624798482
 40
0.19999999999993
100
AcDbArc
 50
0.0
 51
69.4439547804013
  0
ARC
  5
54E
100
AcDbEntity
  8
0
  6
CONTINUOUS
 62
             7
100
AcDbCircle
 10
-809.69170632559019
 20
-268.98783606071902
 40
0.19999999999996
100
AcDbArc
 50
-69.44395478040701
 51
0.0
  0
ARC
  5
54D
100
AcDbEntity
  8
0
  6
CONTINUOUS
 62
             7
100
AcDbCircle
 10
-810.69170632559019
 20
-270.76503624798482
 40
0.19999999999993
100
AcDbArc
 50
0.0
 51
69.4439547804013
  0
ARC
  5
54C
100
AcDbEntity
  8
0
  6
CONTINUOUS
 62
             7
100
AcDbCircle
 10
-810.69170632559019
 20
-268.98783606071902
 40
0.19999999999996
100
AcDbArc
 50
-69.44395478040701
 51
0.0
  0
ARC
  5
54B
100
AcDbEntity
  8
0
  6
CONTINUOUS
 62
             7
100
AcDbCircle
 10
-809.69170632559019
 20
-262.3650362479849
 40
0.19999999999993
100
AcDbArc
 50
0.0
 51
69.44395478042415
  0
ARC
  5
54A
100
AcDbEntity
  8
0
  6
CONTINUOUS
 62
             7
100
AcDbCircle
 10
-809.69170632559019
 20
-260.58783606071898
 40
0.20000000000001
100
AcDbArc
 50
-69.44395478041274
 51
0.0
  0
ARC
  5
549
100
AcDbEntity
  8
0
  6
CONTINUOUS
 62
             7
100
AcDbCircle
 10
-810.69170632559019
 20
-262.3650362479849
 40
0.19999999999993
100
AcDbArc
 50
0.0
 51
69.44395478042415
  0
ARC
  5
548
100
AcDbEntity
  8
0
  6
CONTINUOUS
 62
             7
100
AcDbCircle
 10
-810.69170632559019
 20
-260.58783606071898
 40
0.20000000000001
100
AcDbArc
 50
-69.44395478041274
 51
0.0
  0
ARC
  5
547
100
AcDbEntity
  8
0
  6
CONTINUOUS
 62
             7
100
AcDbCircle
 10
-809.69170632559019
 20
-253.9650362479849
 40
0.19999999999993
100
AcDbArc
 50
0.0
 51
69.44395478040987
  0
ARC
  5
546
100
AcDbEntity
  8
0
  6
CONTINUOUS
 62
             7
100
AcDbCircle
 10
-809.69170632559019
 20
-252.18783606071909
 40
0.1999999999999
100
AcDbArc
 50
-69.4439547804013
 51
0.0
  0
ARC
  5
545
100
AcDbEntity
  8
0
  6
CONTINUOUS
 62
             7
100
AcDbCircle
 10
-810.69170632559019
 20
-253.9650362479849
 40
0.19999999999993
100
AcDbArc
 50
0.0
 51
69.44395478040987
  0
ARC
  5
544
100
AcDbEntity
  8
0
  6
CONTINUOUS
 62
             7
100
AcDbCircle
 10
-810.69170632559019
 20
-252.18783606071909
 40
0.1999999999999
100
AcDbArc
 50
-69.4439547804013
 51
0.0
  0
CIRCLE
  5
543
100
AcDbEntity
  8
1
  6
CONTINUOUS
 62
             7
100
AcDbCircle
 10
-821.51376083412185
 20
-253.1414361543516
 40
0.24500000000012
  0
CIRCLE
  5
542
100
AcDbEntity
  8
0
  6
CONTINUOUS
 62
             7
100
AcDbCircle
 10
-960.26376083412197
 20
-263.87643615435172
 40
0.60000000000002
  0
CIRCLE
  5
541
100
AcDbEntity
  8
0
  6
CONTINUOUS
 62
             7
100
AcDbCircle
 10
-973.05376083412182
 20
-285.0864361543517
 40
0.80000000000001
  0
CIRCLE
  5
540
100
AcDbEntity
  8
0
  6
CONTINUOUS
 62
             7
100
AcDbCircle
 10
-960.353760834122
 20
-285.0864361543517
 40
0.80000000000001
  0
CIRCLE
  5
53F
100
AcDbEntity
  8
0
  6
CONTINUOUS
 62
             7
100
AcDbCircle
 10
-985.853760834122
 20
-285.0864361543517
 40
0.80000000000001
  0
CIRCLE
  5
53E
100
AcDbEntity
  8
0
  6
CONTINUOUS
 62
             7
100
AcDbCircle
 10
-998.55376083412182
 20
-285.0864361543517
 40
0.80000000000001
  0
CIRCLE
  5
53D
100
AcDbEntity
  8
0
  6
CONTINUOUS
 62
             7
100
AcDbCircle
 10
-990.26376083412197
 20
-263.87643615435172
 40
0.60000000000002
  0
CIRCLE
  5
53C
100
AcDbEntity
  8
0
  6
CONTINUOUS
 62
             7
100
AcDbCircle
 10
-990.26376083412197
 20
-302.87643615435172
 40
0.60000000000002
  0
CIRCLE
  5
53B
100
AcDbEntity
  8
0
  6
CONTINUOUS
 62
             7
100
AcDbCircle
 10
-980.26376083412197
 20
-302.87643615435172
 40
0.60000000000002
  0
CIRCLE
  5
53A
100
AcDbEntity
  8
0
  6
CONTINUOUS
 62
             7
100
AcDbCircle
 10
-970.26376083412197
 20
-302.87643615435172
 40
0.60000000000002
  0
CIRCLE
  5
539
100
AcDbEntity
  8
0
  6
CONTINUOUS
 62
             7
100
AcDbCircle
 10
-960.26376083412197
 20
-302.87643615435172
 40
0.60000000000002
  0
CIRCLE
  5
538
100
AcDbEntity
  8
0
  6
CONTINUOUS
 62
             7
100
AcDbCircle
 10
-980.26376083412197
 20
-263.87643615435172
 40
0.60000000000002
  0
ARC
  5
537
100
AcDbEntity
  8
1
  6
CONTINUOUS
 62
             7
100
AcDbCircle
 10
-821.51376083412185
 20
-250.05291167580799
 40
0.20999999999951
100
AcDbArc
 50
30.0000000001092
 51
149.99999999996837
  0
ARC
  5
536
100
AcDbEntity
  8
1
  6
CONTINUOUS
 62
             7
100
AcDbCircle
 10
-823.60003016453277
 20
-253.6664361543518
 40
0.21000000000034
100
AcDbArc
 50
149.99999999999474
 51
-90.0
  0
ARC
  5
535
100
AcDbEntity
  8
1
  6
CONTINUOUS
 62
             7
100
AcDbCircle
 10
-819.4274915037123
 20
-253.6664361543518
 40
0.20999999999989
100
AcDbArc
 50
-90.0
 51
30.00000000000528
  0
ARC
  5
534
100
AcDbEntity
  8
1
  6
CONTINUOUS
 62
             7
100
AcDbCircle
 10
-821.51376083412185
 20
-251.2864361543518
 40
0.2799999999996
100
AcDbArc
 50
-6.75632703055619
 51
-173.24367296946571
  0
ARC
  5
533
100
AcDbEntity
  8
1
  6
CONTINUOUS
 62
             7
100
AcDbCircle
 10
-821.51376083412185
 20
-252.47643615435169
 40
0.14000000000071
100
AcDbArc
 50
-173.24367296947605
 51
-6.75632703058964
  0
ARC
  5
532
100
AcDbEntity
  8
1
  6
CONTINUOUS
 62
             7
100
AcDbCircle
 10
-833.01376083412185
 20
-331.37643615435172
 40
1.0
100
AcDbArc
 50
-90.0
 51
90.0
  0
ARC
  5
531
100
AcDbEntity
  8
1
  6
CONTINUOUS
 62
             7
100
AcDbCircle
 10
-845.51376083412185
 20
-331.37643615435172
 40
1.0
100
AcDbArc
 50
90.0
 51
-90.0
  0
ARC
  5
530
100
AcDbEntity
  8
1
  6
CONTINUOUS
 62
             7
100
AcDbCircle
 10
-872.01376083412185
 20
-331.37643615435172
 40
1.0
100
AcDbArc
 50
-90.0
 51
90.0
  0
ARC
  5
52F
100
AcDbEntity
  8
1
  6
CONTINUOUS
 62
             7
100
AcDbCircle
 10
-884.51376083412185
 20
-331.37643615435172
 40
1.0
100
AcDbArc
 50
90.0
 51
-90.0
  0
ARC
  5
52E
100
AcDbEntity
  8
1
  6
CONTINUOUS
 62
             7
100
AcDbCircle
 10
-845.51376083412185
 20
-327.87643615435172
 40
1.0
100
AcDbArc
 50
90.0
 51
-90.0
  0
ARC
  5
52D
100
AcDbEntity
  8
1
  6
CONTINUOUS
 62
             7
100
AcDbCircle
 10
-833.01376083412185
 20
-327.87643615435172
 40
1.0
100
AcDbArc
 50
-90.0
 51
90.0
  0
ARC
  5
52C
100
AcDbEntity
  8
1
  6
CONTINUOUS
 62
             7
100
AcDbCircle
 10
-852.51376083412185
 20
-327.87643615435172
 40
1.0
100
AcDbArc
 50
-90.0
 51
90.0
  0
ARC
  5
52B
100
AcDbEntity
  8
1
  6
CONTINUOUS
 62
             7
100
AcDbCircle
 10
-865.01376083412185
 20
-327.87643615435172
 40
1.0
100
AcDbArc
 50
90.0
 51
-90.0
  0
ARC
  5
52A
100
AcDbEntity
  8
1
  6
CONTINUOUS
 62
             7
100
AcDbCircle
 10
-865.01376083412185
 20
-331.37643615435172
 40
1.0
100
AcDbArc
 50
90.0
 51
-90.0
  0
ARC
  5
529
100
AcDbEntity
  8
1
  6
CONTINUOUS
 62
             7
100
AcDbCircle
 10
-852.51376083412185
 20
-331.37643615435172
 40
1.0
100
AcDbArc
 50
-90.0
 51
90.0
  0
ARC
  5
528
100
AcDbEntity
  8
1
  6
CONTINUOUS
 62
             7
100
AcDbCircle
 10
-884.51376083412185
 20
-327.87643615435172
 40
1.0
100
AcDbArc
 50
90.0
 51
-90.0
  0
ARC
  5
527
100
AcDbEntity
  8
1
  6
CONTINUOUS
 62
             7
100
AcDbCircle
 10
-872.01376083412185
 20
-327.87643615435172
 40
1.0
100
AcDbArc
 50
-90.0
 51
90.0
  0
ARC
  5
526
100
AcDbEntity
  8
1
  6
CONTINUOUS
 62
             7
100
AcDbCircle
 10
-913.51376083412197
 20
-338.07452991395411
 40
0.5
100
AcDbArc
 50
180.0
 51
-93.99999999999652
  0
ARC
  5
525
100
AcDbEntity
  8
1
  6
CONTINUOUS
 62
             7
100
AcDbCircle
 10
-913.51376083412197
 20
-243.67834239474939
 40
0.49999999999997
100
AcDbArc
 50
93.99999999999675
 51
180.0
  0
ARC
  5
524
100
AcDbEntity
  8
1
  6
CONTINUOUS
 62
             7
100
AcDbCircle
 10
-940.01376083412197
 20
-337.87643615435172
 40
1.0
100
AcDbArc
 50
-90.0
 51
0.0
  0
ARC
  5
523
100
AcDbEntity
  8
1
  6
CONTINUOUS
 62
             7
100
AcDbCircle
 10
-1034.013760834122
 20
-337.87643615435172
 40
1.0
100
AcDbArc
 50
180.0
 51
-90.0
  0
ARC
  5
522
100
AcDbEntity
  8
1
  6
CONTINUOUS
 62
             7
100
AcDbCircle
 10
-1034.013760834122
 20
-243.87643615435169
 40
1.0
100
AcDbArc
 50
90.0
 51
180.0
  0
ARC
  5
521
100
AcDbEntity
  8
1
  6
CONTINUOUS
 62
             7
100
AcDbCircle
 10
-940.01376083412197
 20
-243.87643615435169
 40
1.0
100
AcDbArc
 50
0.0
 51
90.0
  0
ARC
  5
520
100
AcDbEntity
  8
1
  6
CONTINUOUS
 62
             7
100
AcDbCircle
 10
-967.01376083412185
 20
-264.37643615435172
 40
1.00000000000011
100
AcDbArc
 50
180.0
 51
-90.0
  0
ARC
  5
51F
100
AcDbEntity
  8
1
  6
CONTINUOUS
 62
             7
100
AcDbCircle
 10
-967.01376083412185
 20
-254.37643615435169
 40
1.0
100
AcDbArc
 50
89.99999999999349
 51
180.0
  0
ARC
  5
51E
100
AcDbEntity
  8
1
  6
CONTINUOUS
 62
             7
100
AcDbCircle
 10
-960.01376083412185
 20
-264.37643615435172
 40
1.0
100
AcDbArc
 50
-90.0
 51
0.0
  0
ARC
  5
51D
100
AcDbEntity
  8
1
  6
CONTINUOUS
 62
             7
100
AcDbCircle
 10
-960.01376083412185
 20
-254.37643615435169
 40
1.0
100
AcDbArc
 50
0.0
 51
90.0
  0
ARC
  5
51C
100
AcDbEntity
  8
1
  6
CONTINUOUS
 62
             7
100
AcDbCircle
 10
-1029.013760834122
 20
-326.87643615435172
 40
1.0
100
AcDbArc
 50
180.0
 51
-90.0
  0
ARC
  5
51B
100
AcDbEntity
  8
1
  6
CONTINUOUS
 62
             7
100
AcDbCircle
 10
-1009.513760834122
 20
-326.87643615435172
 40
1.0
100
AcDbArc
 50
-90.0
 51
0.00000000000651
  0
ARC
  5
51A
100
AcDbEntity
  8
1
  6
CONTINUOUS
 62
             7
100
AcDbCircle
 10
-1029.013760834122
 20
-320.87643615435172
 40
1.0
100
AcDbArc
 50
90.0
 51
180.0
  0
ARC
  5
519
100
AcDbEntity
  8
1
  6
CONTINUOUS
 62
             7
100
AcDbCircle
 10
-1009.513760834122
 20
-320.87643615435172
 40
1.0
100
AcDbArc
 50
0.0
 51
90.0
  0
ARC
  5
518
100
AcDbEntity
  8
1
  6
CONTINUOUS
 62
             7
100
AcDbCircle
 10
-1024.3137608341219
 20
-311.67643615435168
 40
0.30000000000024
100
AcDbArc
 50
-90.0
 51
90.0
  0
ARC
  5
517
100
AcDbEntity
  8
1
  6
CONTINUOUS
 62
             7
100
AcDbCircle
 10
-1027.713760834122
 20
-311.67643615435168
 40
0.29999999999995
100
AcDbArc
 50
90.0
 51
-90.0
  0
ARC
  5
516
100
AcDbEntity
  8
1
  6
CONTINUOUS
 62
             7
100
AcDbCircle
 10
-1027.713760834122
 20
-312.87643615435172
 40
0.2999999999999
100
AcDbArc
 50
90.0
 51
-90.0
  0
ARC
  5
515
100
AcDbEntity
  8
1
  6
CONTINUOUS
 62
             7
100
AcDbCircle
 10
-1024.3137608341219
 20
-312.87643615435172
 40
0.29999999999995
100
AcDbArc
 50
-90.0
 51
90.0
  0
ARC
  5
514
100
AcDbEntity
  8
1
  6
CONTINUOUS
 62
             7
100
AcDbCircle
 10
-1024.3137608341219
 20
-314.07643615435182
 40
0.2999999999999
100
AcDbArc
 50
-90.0
 51
90.0
  0
ARC
  5
513
100
AcDbEntity
  8
1
  6
CONTINUOUS
 62
             7
100
AcDbCircle
 10
-1027.713760834122
 20
-314.07643615435182
 40
0.30000000000001
100
AcDbArc
 50
90.0
 51
-90.0
  0
ARC
  5
512
100
AcDbEntity
  8
1
  6
CONTINUOUS
 62
             7
100
AcDbCircle
 10
-1009.513760834122
 20
-315.87643615435161
 40
1.00000000000011
100
AcDbArc
 50
-90.0
 51
-0.00000000000651
  0
ARC
  5
511
100
AcDbEntity
  8
1
  6
CONTINUOUS
 62
             7
100
AcDbCircle
 10
-1029.013760834122
 20
-315.87643615435161
 40
1.0
100
AcDbArc
 50
180.0
 51
-90.0
  0
ARC
  5
510
100
AcDbEntity
  8
1
  6
CONTINUOUS
 62
             7
100
AcDbCircle
 10
-1029.013760834122
 20
-309.87643615435172
 40
1.0
100
AcDbArc
 50
90.0
 51
180.0
  0
ARC
  5
50F
100
AcDbEntity
  8
1
  6
CONTINUOUS
 62
             7
100
AcDbCircle
 10
-1009.513760834122
 20
-309.87643615435172
 40
1.0
100
AcDbArc
 50
0.0
 51
90.0
  0
ARC
  5
50E
100
AcDbEntity
  8
1
  6
CONTINUOUS
 62
             7
100
AcDbCircle
 10
-945.01376083412185
 20
-320.87643615435172
 40
1.0
100
AcDbArc
 50
0.0
 51
90.0
  0
ARC
  5
50D
100
AcDbEntity
  8
1
  6
CONTINUOUS
 62
             7
100
AcDbCircle
 10
-945.01376083412185
 20
-326.87643615435161
 40
1.00000000000011
100
AcDbArc
 50
-90.0
 51
0.0
  0
ARC
  5
50C
100
AcDbEntity
  8
1
  6
CONTINUOUS
 62
             7
100
AcDbCircle
 10
-946.31376083412204
 20
-322.67643615435168
 40
0.30000000000024
100
AcDbArc
 50
-90.0
 51
90.0
  0
ARC
  5
50B
100
AcDbEntity
  8
1
  6
CONTINUOUS
 62
             7
100
AcDbCircle
 10
-949.71376083412167
 20
-322.67643615435168
 40
0.29999999999995
100
AcDbArc
 50
90.0
 51
-90.0
  0
ARC
  5
50A
100
AcDbEntity
  8
1
  6
CONTINUOUS
 62
             7
100
AcDbCircle
 10
-949.71376083412167
 20
-323.87643615435161
 40
0.29999999999978
100
AcDbArc
 50
90.0
 51
-90.0
  0
ARC
  5
509
100
AcDbEntity
  8
1
  6
CONTINUOUS
 62
             7
100
AcDbCircle
 10
-946.31376083412204
 20
-323.87643615435172
 40
0.29999999999995
100
AcDbArc
 50
-90.0
 51
90.0
  0
ARC
  5
508
100
AcDbEntity
  8
1
  6
CONTINUOUS
 62
             7
100
AcDbCircle
 10
-946.31376083412204
 20
-325.07643615435182
 40
0.2999999999999
100
AcDbArc
 50
-90.0
 51
90.0
  0
ARC
  5
507
100
AcDbEntity
  8
1
  6
CONTINUOUS
 62
             7
100
AcDbCircle
 10
-949.71376083412167
 20
-325.07643615435182
 40
0.30000000000001
100
AcDbArc
 50
90.0
 51
-90.0
  0
ARC
  5
506
100
AcDbEntity
  8
1
  6
CONTINUOUS
 62
             7
100
AcDbCircle
 10
-964.31376083412204
 20
-322.67643615435168
 40
0.30000000000024
100
AcDbArc
 50
-90.0
 51
90.0
  0
ARC
  5
505
100
AcDbEntity
  8
1
  6
CONTINUOUS
 62
             7
100
AcDbCircle
 10
-969.71376083412167
 20
-322.67643615435168
 40
0.29999999999995
100
AcDbArc
 50
90.0
 51
-90.0
  0
ARC
  5
504
100
AcDbEntity
  8
1
  6
CONTINUOUS
 62
             7
100
AcDbCircle
 10
-969.71376083412167
 20
-323.87643615435172
 40
0.2999999999999
100
AcDbArc
 50
90.0
 51
-90.0
  0
ARC
  5
503
100
AcDbEntity
  8
1
  6
CONTINUOUS
 62
             7
100
AcDbCircle
 10
-964.31376083412204
 20
-323.87643615435161
 40
0.30000000000007
100
AcDbArc
 50
-90.0
 51
90.0
  0
ARC
  5
502
100
AcDbEntity
  8
1
  6
CONTINUOUS
 62
             7
100
AcDbCircle
 10
-964.31376083412204
 20
-325.07643615435182
 40
0.2999999999999
100
AcDbArc
 50
-90.0
 51
90.0
  0
ARC
  5
501
100
AcDbEntity
  8
1
  6
CONTINUOUS
 62
             7
100
AcDbCircle
 10
-969.71376083412167
 20
-325.07643615435182
 40
0.30000000000001
100
AcDbArc
 50
90.0
 51
-90.0
  0
ARC
  5
500
100
AcDbEntity
  8
1
  6
CONTINUOUS
 62
             7
100
AcDbCircle
 10
-1005.513760834122
 20
-320.87643615435172
 40
1.0
100
AcDbArc
 50
90.0
 51
180.0
  0
ARC
  5
4FF
100
AcDbEntity
  8
1
  6
CONTINUOUS
 62
             7
100
AcDbCircle
 10
-1005.513760834122
 20
-326.87643615435161
 40
1.0
100
AcDbArc
 50
180.0
 51
-90.0
  0
ARC
  5
4FE
100
AcDbEntity
  8
1
  6
CONTINUOUS
 62
             7
100
AcDbCircle
 10
-984.31376083412204
 20
-322.67643615435168
 40
0.30000000000024
100
AcDbArc
 50
-90.0
 51
90.0
  0
ARC
  5
4FD
100
AcDbEntity
  8
1
  6
CONTINUOUS
 62
             7
100
AcDbCircle
 10
-1004.213760834122
 20
-322.67643615435168
 40
0.29999999999995
100
AcDbArc
 50
90.0
 51
-90.0
  0
ARC
  5
4FC
100
AcDbEntity
  8
1
  6
CONTINUOUS
 62
             7
100
AcDbCircle
 10
-1004.213760834122
 20
-323.87643615435172
 40
0.2999999999999
100
AcDbArc
 50
90.0
 51
-90.0
  0
ARC
  5
4FB
100
AcDbEntity
  8
1
  6
CONTINUOUS
 62
             7
100
AcDbCircle
 10
-984.31376083412204
 20
-323.87643615435172
 40
0.29999999999995
100
AcDbArc
 50
-90.0
 51
90.0
  0
ARC
  5
4FA
100
AcDbEntity
  8
1
  6
CONTINUOUS
 62
             7
100
AcDbCircle
 10
-984.31376083412204
 20
-325.07643615435182
 40
0.2999999999999
100
AcDbArc
 50
-90.0
 51
90.0
  0
ARC
  5
4F9
100
AcDbEntity
  8
1
  6
CONTINUOUS
 62
             7
100
AcDbCircle
 10
-1004.213760834122
 20
-325.07643615435182
 40
0.30000000000001
100
AcDbArc
 50
90.0
 51
-90.0
  0
ARC
  5
4F8
100
AcDbEntity
  8
1
  6
CONTINUOUS
 62
             7
100
AcDbCircle
 10
-989.71376083412201
 20
-314.07643615435182
 40
0.30000000000001
100
AcDbArc
 50
90.0
 51
-90.0
  0
ARC
  5
4F7
100
AcDbEntity
  8
1
  6
CONTINUOUS
 62
             7
100
AcDbCircle
 10
-984.31376083412204
 20
-314.07643615435182
 40
0.2999999999999
100
AcDbArc
 50
-90.0
 51
90.0
  0
ARC
  5
4F6
100
AcDbEntity
  8
1
  6
CONTINUOUS
 62
             7
100
AcDbCircle
 10
-984.31376083412204
 20
-312.87643615435172
 40
0.29999999999995
100
AcDbArc
 50
-90.0
 51
90.0
  0
ARC
  5
4F5
100
AcDbEntity
  8
1
  6
CONTINUOUS
 62
             7
100
AcDbCircle
 10
-989.71376083412201
 20
-312.87643615435172
 40
0.2999999999999
100
AcDbArc
 50
90.0
 51
-90.0
  0
ARC
  5
4F4
100
AcDbEntity
  8
1
  6
CONTINUOUS
 62
             7
100
AcDbCircle
 10
-969.71376083412167
 20
-314.07643615435182
 40
0.30000000000001
100
AcDbArc
 50
90.0
 51
-90.0
  0
ARC
  5
4F3
100
AcDbEntity
  8
1
  6
CONTINUOUS
 62
             7
100
AcDbCircle
 10
-964.31376083412204
 20
-314.07643615435182
 40
0.2999999999999
100
AcDbArc
 50
-90.0
 51
90.0
  0
ARC
  5
4F2
100
AcDbEntity
  8
1
  6
CONTINUOUS
 62
             7
100
AcDbCircle
 10
-964.31376083412204
 20
-312.87643615435172
 40
0.29999999999995
100
AcDbArc
 50
-90.0
 51
90.0
  0
ARC
  5
4F1
100
AcDbEntity
  8
1
  6
CONTINUOUS
 62
             7
100
AcDbCircle
 10
-969.71376083412167
 20
-312.87643615435172
 40
0.2999999999999
100
AcDbArc
 50
90.0
 51
-90.0
  0
ARC
  5
4F0
100
AcDbEntity
  8
1
  6
CONTINUOUS
 62
             7
100
AcDbCircle
 10
-949.71376083412167
 20
-314.07643615435182
 40
0.30000000000001
100
AcDbArc
 50
90.0
 51
-90.0
  0
ARC
  5
4EF
100
AcDbEntity
  8
1
  6
CONTINUOUS
 62
             7
100
AcDbCircle
 10
-946.31376083412204
 20
-314.07643615435182
 40
0.2999999999999
100
AcDbArc
 50
-90.0
 51
90.0
  0
ARC
  5
4EE
100
AcDbEntity
  8
1
  6
CONTINUOUS
 62
             7
100
AcDbCircle
 10
-946.31376083412204
 20
-312.87643615435172
 40
0.29999999999995
100
AcDbArc
 50
-90.0
 51
90.0
  0
ARC
  5
4ED
100
AcDbEntity
  8
1
  6
CONTINUOUS
 62
             7
100
AcDbCircle
 10
-949.71376083412167
 20
-312.87643615435172
 40
0.2999999999999
100
AcDbArc
 50
90.0
 51
-90.0
  0
ARC
  5
4EC
100
AcDbEntity
  8
1
  6
CONTINUOUS
 62
             7
100
AcDbCircle
 10
-989.71376083412201
 20
-311.67643615435168
 40
0.29999999999995
100
AcDbArc
 50
90.0
 51
-90.0
  0
ARC
  5
4EB
100
AcDbEntity
  8
1
  6
CONTINUOUS
 62
             7
100
AcDbCircle
 10
-984.31376083412204
 20
-311.67643615435168
 40
0.30000000000024
100
AcDbArc
 50
-90.0
 51
90.0
  0
ARC
  5
4EA
100
AcDbEntity
  8
1
  6
CONTINUOUS
 62
             7
100
AcDbCircle
 10
-969.71376083412167
 20
-311.67643615435168
 40
0.29999999999995
100
AcDbArc
 50
90.0
 51
-90.0
  0
ARC
  5
4E9
100
AcDbEntity
  8
1
  6
CONTINUOUS
 62
             7
100
AcDbCircle
 10
-964.31376083412204
 20
-311.67643615435168
 40
0.30000000000024
100
AcDbArc
 50
-90.0
 51
90.0
  0
ARC
  5
4E8
100
AcDbEntity
  8
1
  6
CONTINUOUS
 62
             7
100
AcDbCircle
 10
-949.71376083412167
 20
-311.67643615435168
 40
0.29999999999995
100
AcDbArc
 50
90.0
 51
-90.0
  0
ARC
  5
4E7
100
AcDbEntity
  8
1
  6
CONTINUOUS
 62
             7
100
AcDbCircle
 10
-946.31376083412204
 20
-311.67643615435168
 40
0.30000000000024
100
AcDbArc
 50
-90.0
 51
90.0
  0
ARC
  5
4E6
100
AcDbEntity
  8
1
  6
CONTINUOUS
 62
             7
100
AcDbCircle
 10
-1005.513760834122
 20
-315.87643615435161
 40
1.0
100
AcDbArc
 50
180.0
 51
-90.0
  0
ARC
  5
4E5
100
AcDbEntity
  8
1
  6
CONTINUOUS
 62
             7
100
AcDbCircle
 10
-1005.513760834122
 20
-309.87643615435172
 40
1.0
100
AcDbArc
 50
90.0
 51
180.0
  0
ARC
  5
4E4
100
AcDbEntity
  8
1
  6
CONTINUOUS
 62
             7
100
AcDbCircle
 10
-945.01376083412185
 20
-315.87643615435161
 40
1.0
100
AcDbArc
 50
-90.0
 51
0.0
  0
ARC
  5
4E3
100
AcDbEntity
  8
1
  6
CONTINUOUS
 62
             7
100
AcDbCircle
 10
-945.01376083412185
 20
-309.87643615435172
 40
1.0
100
AcDbArc
 50
0.0
 51
90.0
  0
ARC
  5
4E2
100
AcDbEntity
  8
1
  6
CONTINUOUS
 62
             7
100
AcDbCircle
 10
-1015.513760834122
 20
-324.62643615435172
 40
0.5
100
AcDbArc
 50
-90.0
 51
0.0
  0
ARC
  5
4E1
100
AcDbEntity
  8
1
  6
CONTINUOUS
 62
             7
100
AcDbCircle
 10
-1018.513760834122
 20
-324.62643615435172
 40
0.5
100
AcDbArc
 50
180.0
 51
-90.0
  0
ARC
  5
4E0
100
AcDbEntity
  8
1
  6
CONTINUOUS
 62
             7
100
AcDbCircle
 10
-1018.513760834122
 20
-323.12643615435172
 40
0.5
100
AcDbArc
 50
90.0
 51
180.0
  0
ARC
  5
4DF
100
AcDbEntity
  8
1
  6
CONTINUOUS
 62
             7
100
AcDbCircle
 10
-1015.513760834122
 20
-323.12643615435172
 40
0.5
100
AcDbArc
 50
0.0
 51
90.0
  0
ARC
  5
4DE
100
AcDbEntity
  8
1
  6
CONTINUOUS
 62
             7
100
AcDbCircle
 10
-1029.013760834122
 20
-250.87643615435169
 40
1.0
100
AcDbArc
 50
90.0
 51
180.0
  0
ARC
  5
4DD
100
AcDbEntity
  8
1
  6
CONTINUOUS
 62
             7
100
AcDbCircle
 10
-980.01376083412185
 20
-254.37643615435169
 40
1.0
100
AcDbArc
 50
0.0
 51
90.0
  0
ARC
  5
4DC
100
AcDbEntity
  8
1
  6
CONTINUOUS
 62
             7
100
AcDbCircle
 10
-997.01376083412185
 20
-254.37643615435169
 40
1.0
100
AcDbArc
 50
90.0
 51
180.0
  0
ARC
  5
4DB
100
AcDbEntity
  8
1
  6
CONTINUOUS
 62
             7
100
AcDbCircle
 10
-997.01376083412185
 20
-264.37643615435172
 40
1.00000000000011
100
AcDbArc
 50
180.0
 51
-90.0
  0
ARC
  5
4DA
100
AcDbEntity
  8
1
  6
CONTINUOUS
 62
             7
100
AcDbCircle
 10
-997.01376083412185
 20
-293.37643615435172
 40
1.0
100
AcDbArc
 50
90.0
 51
180.0
  0
ARC
  5
4D9
100
AcDbEntity
  8
1
  6
CONTINUOUS
 62
             7
100
AcDbCircle
 10
-960.01376083412185
 20
-303.37643615435172
 40
1.0
100
AcDbArc
 50
-90.0
 51
0.0
  0
ARC
  5
4D8
100
AcDbEntity
  8
1
  6
CONTINUOUS
 62
             7
100
AcDbCircle
 10
-960.01376083412185
 20
-293.37643615435172
 40
1.0
100
AcDbArc
 50
0.0
 51
90.0
  0
ARC
  5
4D7
100
AcDbEntity
  8
1
  6
CONTINUOUS
 62
             7
100
AcDbCircle
 10
-980.01376083412185
 20
-264.37643615435172
 40
1.0
100
AcDbArc
 50
-90.0
 51
0.0
  0
ARC
  5
4D6
100
AcDbEntity
  8
1
  6
CONTINUOUS
 62
             7
100
AcDbCircle
 10
-959.01376083412185
 20
-323.87643615435161
 40
2.0
100
AcDbArc
 50
90.0
 51
-90.0
  0
ARC
  5
4D5
100
AcDbEntity
  8
1
  6
CONTINUOUS
 62
             7
100
AcDbCircle
 10
-955.01376083412185
 20
-323.87643615435161
 40
2.0
100
AcDbArc
 50
-90.0
 51
90.0
  0
ARC
  5
4D4
100
AcDbEntity
  8
1
  6
CONTINUOUS
 62
             7
100
AcDbCircle
 10
-959.51376083412185
 20
-323.87643615435161
 40
2.5
100
AcDbArc
 50
90.0
 51
-90.0
  0
ARC
  5
4D3
100
AcDbEntity
  8
1
  6
CONTINUOUS
 62
             7
100
AcDbCircle
 10
-954.51376083412185
 20
-323.87643615435161
 40
2.5
100
AcDbArc
 50
-90.0
 51
90.0
  0
ARC
  5
4D2
100
AcDbEntity
  8
1
  6
CONTINUOUS
 62
             7
100
AcDbCircle
 10
-945.01376083412185
 20
-250.87643615435169
 40
1.0
100
AcDbArc
 50
0.0
 51
90.0
  0
ARC
  5
4D1
100
AcDbEntity
  8
1
  6
CONTINUOUS
 62
             7
100
AcDbCircle
 10
-1012.513760834122
 20
-250.87643615435169
 40
1.0
100
AcDbArc
 50
90.0
 51
180.0
  0
ARC
  5
4D0
100
AcDbEntity
  8
1
  6
CONTINUOUS
 62
             7
100
AcDbCircle
 10
-1005.513760834122
 20
-305.87643615435172
 40
1.0
100
AcDbArc
 50
180.0
 51
-90.0
  0
ARC
  5
4CF
100
AcDbEntity
  8
1
  6
CONTINUOUS
 62
             7
100
AcDbCircle
 10
-945.01376083412185
 20
-305.87643615435172
 40
1.0
100
AcDbArc
 50
-90.0
 51
0.0
  0
ARC
  5
4CE
100
AcDbEntity
  8
1
  6
CONTINUOUS
 62
             7
100
AcDbCircle
 10
-1029.013760834122
 20
-305.87643615435172
 40
1.0
100
AcDbArc
 50
180.0
 51
-90.0
  0
ARC
  5
4CD
100
AcDbEntity
  8
1
  6
CONTINUOUS
 62
             7
100
AcDbCircle
 10
-1009.513760834122
 20
-305.87643615435172
 40
1.0
100
AcDbArc
 50
-90.0
 51
0.0
  0
ARC
  5
4CC
100
AcDbEntity
  8
1
  6
CONTINUOUS
 62
             7
100
AcDbCircle
 10
-955.51376083412197
 20
-262.12643615435172
 40
0.5
100
AcDbArc
 50
90.0
 51
180.0
  0
ARC
  5
4CB
100
AcDbEntity
  8
1
  6
CONTINUOUS
 62
             7
100
AcDbCircle
 10
-952.51376083412197
 20
-262.12643615435172
 40
0.5
100
AcDbArc
 50
0.0
 51
90.0
  0
ARC
  5
4CA
100
AcDbEntity
  8
1
  6
CONTINUOUS
 62
             7
100
AcDbCircle
 10
-952.51376083412197
 20
-263.62643615435172
 40
0.5
100
AcDbArc
 50
-90.0
 51
0.0
  0
ARC
  5
4C9
100
AcDbEntity
  8
1
  6
CONTINUOUS
 62
             7
100
AcDbCircle
 10
-955.51376083412197
 20
-263.62643615435172
 40
0.5
100
AcDbArc
 50
180.0
 51
-90.0
  0
ARC
  5
4C8
100
AcDbEntity
  8
1
  6
CONTINUOUS
 62
             7
100
AcDbCircle
 10
-955.51376083412197
 20
-291.62643615435172
 40
0.5
100
AcDbArc
 50
180.0
 51
-90.0
  0
ARC
  5
4C7
100
AcDbEntity
  8
1
  6
CONTINUOUS
 62
             7
100
AcDbCircle
 10
-952.51376083412197
 20
-291.62643615435172
 40
0.5
100
AcDbArc
 50
-90.0
 51
0.0
  0
ARC
  5
4C6
100
AcDbEntity
  8
1
  6
CONTINUOUS
 62
             7
100
AcDbCircle
 10
-952.51376083412197
 20
-290.12643615435172
 40
0.5
100
AcDbArc
 50
0.0
 51
90.0
  0
ARC
  5
4C5
100
AcDbEntity
  8
1
  6
CONTINUOUS
 62
             7
100
AcDbCircle
 10
-955.51376083412197
 20
-290.12643615435172
 40
0.5
100
AcDbArc
 50
90.0
 51
180.0
  0
ARC
  5
4C4
100
AcDbEntity
  8
1
  6
CONTINUOUS
 62
             7
100
AcDbCircle
 10
-955.51376083412197
 20
-298.12643615435172
 40
0.5
100
AcDbArc
 50
90.0
 51
180.0
  0
ARC
  5
4C3
100
AcDbEntity
  8
1
  6
CONTINUOUS
 62
             7
100
AcDbCircle
 10
-952.51376083412197
 20
-298.12643615435172
 40
0.5
100
AcDbArc
 50
0.0
 51
90.0
  0
ARC
  5
4C2
100
AcDbEntity
  8
1
  6
CONTINUOUS
 62
             7
100
AcDbCircle
 10
-952.51376083412197
 20
-299.62643615435172
 40
0.5
100
AcDbArc
 50
-90.0
 51
0.0
  0
ARC
  5
4C1
100
AcDbEntity
  8
1
  6
CONTINUOUS
 62
             7
100
AcDbCircle
 10
-955.51376083412197
 20
-299.62643615435172
 40
0.5
100
AcDbArc
 50
180.0
 51
-90.0
  0
ARC
  5
4C0
100
AcDbEntity
  8
1
  6
CONTINUOUS
 62
             7
100
AcDbCircle
 10
-955.51376083412197
 20
-267.87643615435172
 40
0.5
100
AcDbArc
 50
90.0
 51
-90.0
  0
ARC
  5
4BF
100
AcDbEntity
  8
1
  6
CONTINUOUS
 62
             7
100
AcDbCircle
 10
-947.01376083412185
 20
-267.87643615435172
 40
0.5
100
AcDbArc
 50
-90.0
 51
90.0
  0
ARC
  5
4BE
100
AcDbEntity
  8
1
  6
CONTINUOUS
 62
             7
100
AcDbCircle
 10
-952.51376083412197
 20
-283.62643615435172
 40
0.5
100
AcDbArc
 50
-90.0
 51
0.0
  0
ARC
  5
4BD
100
AcDbEntity
  8
1
  6
CONTINUOUS
 62
             7
100
AcDbCircle
 10
-955.51376083412197
 20
-283.62643615435172
 40
0.5
100
AcDbArc
 50
180.0
 51
-90.0
  0
ARC
  5
4BC
100
AcDbEntity
  8
1
  6
CONTINUOUS
 62
             7
100
AcDbCircle
 10
-955.51376083412197
 20
-282.12643615435172
 40
0.5
100
AcDbArc
 50
90.0
 51
180.0
  0
ARC
  5
4BB
100
AcDbEntity
  8
1
  6
CONTINUOUS
 62
             7
100
AcDbCircle
 10
-952.51376083412197
 20
-282.12643615435172
 40
0.5
100
AcDbArc
 50
0.0
 51
90.0
  0
ARC
  5
4BA
100
AcDbEntity
  8
1
  6
CONTINUOUS
 62
             7
100
AcDbCircle
 10
-810.11376083412188
 20
-244.77643615435181
 40
0.59999999999988
100
AcDbArc
 50
-90.0
 51
0.0
  0
ARC
  5
4B9
100
AcDbEntity
  8
1
  6
CONTINUOUS
 62
             7
100
AcDbCircle
 10
-810.11376083412188
 20
-336.97643615435169
 40
0.60000000000002
100
AcDbArc
 50
0.0
 51
90.0
  0
ARC
  5
4B8
100
AcDbEntity
  8
0
  6
CONTINUOUS
 62
             7
100
AcDbCircle
 10
-808.75258618396583
 20
-330.42643615435179
 40
1.0
100
AcDbArc
 50
-90.0
 51
-16.95776330000037
  0
ARC
  5
4B7
100
AcDbEntity
  8
0
  6
CONTINUOUS
 62
             7
100
AcDbCircle
 10
-814.49170632559026
 20
-328.67643615435179
 40
7.00000000000002
100
AcDbArc
 50
-16.95776330000378
 51
16.95776330000422
  0
ARC
  5
4B6
100
AcDbEntity
  8
0
  6
CONTINUOUS
 62
             7
100
AcDbCircle
 10
-808.75258618396583
 20
-326.92643615435179
 40
1.0000000000001
100
AcDbArc
 50
16.95776330000349
 51
90.0
  0
ARC
  5
4B5
100
AcDbEntity
  8
0
  6
CONTINUOUS
 62
             7
100
AcDbCircle
 10
-808.75258618396583
 20
-322.02643615435181
 40
1.0
100
AcDbArc
 50
-90.0
 51
-16.95776330000349
  0
ARC
  5
4B4
100
AcDbEntity
  8
0
  6
CONTINUOUS
 62
             7
100
AcDbCircle
 10
-814.49170632559026
 20
-320.27643615435181
 40
7.00000000000003
100
AcDbArc
 50
-16.95776330000422
 51
16.95776330000378
  0
ARC
  5
4B3
100
AcDbEntity
  8
0
  6
CONTINUOUS
 62
             7
100
AcDbCircle
 10
-808.75258618396583
 20
-318.52643615435181
 40
1.00000000000009
100
AcDbArc
 50
16.95776330000037
 51
90.0
  0
ARC
  5
4B2
100
AcDbEntity
  8
0
  6
CONTINUOUS
 62
             7
100
AcDbCircle
 10
-808.75258618396583
 20
-313.62643615435178
 40
1.0
100
AcDbArc
 50
-90.0
 51
-16.9577633000066
  0
ARC
  5
4B1
100
AcDbEntity
  8
0
  6
CONTINUOUS
 62
             7
100
AcDbCircle
 10
-814.49170632559026
 20
-311.87643615435178
 40
7.00000000000005
100
AcDbArc
 50
-16.95776330000467
 51
16.95776330000334
  0
ARC
  5
4B0
100
AcDbEntity
  8
0
  6
CONTINUOUS
 62
             7
100
AcDbCircle
 10
-808.75258618396583
 20
-310.12643615435178
 40
1.00000000000007
100
AcDbArc
 50
16.95776329999726
 51
90.0
  0
ARC
  5
4AF
100
AcDbEntity
  8
0
  6
CONTINUOUS
 62
             7
100
AcDbCircle
 10
-808.75258618396583
 20
-305.22643615435192
 40
1.0
100
AcDbArc
 50
-90.0
 51
-16.95776329999726
  0
ARC
  5
4AE
100
AcDbEntity
  8
0
  6
CONTINUOUS
 62
             7
100
AcDbCircle
 10
-814.49170632559026
 20
-303.47643615435192
 40
7.0
100
AcDbArc
 50
-16.95776330000334
 51
16.95776330000467
  0
ARC
  5
4AD
100
AcDbEntity
  8
0
  6
CONTINUOUS
 62
             7
100
AcDbCircle
 10
-808.75258618396583
 20
-301.72643615435192
 40
1.00000000000012
100
AcDbArc
 50
16.9577633000066
 51
90.0
  0
ARC
  5
4AC
100
AcDbEntity
  8
0
  6
CONTINUOUS
 62
             7
100
AcDbCircle
 10
-808.75258618396583
 20
-296.82643615435188
 40
1.0
100
AcDbArc
 50
-90.0
 51
-16.9577633000066
  0
ARC
  5
4AB
100
AcDbEntity
  8
0
  6
CONTINUOUS
 62
             7
100
AcDbCircle
 10
-814.49170632559026
 20
-295.07643615435188
 40
7.00000000000005
100
AcDbArc
 50
-16.95776330000467
 51
16.95776330000422
  0
ARC
  5
4AA
100
AcDbEntity
  8
0
  6
CONTINUOUS
 62
             7
100
AcDbCircle
 10
-808.75258618396583
 20
-293.32643615435188
 40
1.0000000000001
100
AcDbArc
 50
16.95776330000349
 51
90.0
  0
ARC
  5
4A9
100
AcDbEntity
  8
0
  6
CONTINUOUS
 62
             7
100
AcDbCircle
 10
-808.75258618396583
 20
-288.4264361543519
 40
1.0
100
AcDbArc
 50
-90.0
 51
-16.95776329999726
  0
ARC
  5
4A8
100
AcDbEntity
  8
0
  6
CONTINUOUS
 62
             7
100
AcDbCircle
 10
-814.49170632559026
 20
-286.6764361543519
 40
7.0
100
AcDbArc
 50
-16.95776330000334
 51
16.95776330000422
  0
ARC
  5
4A7
100
AcDbEntity
  8
0
  6
CONTINUOUS
 62
             7
100
AcDbCircle
 10
-808.75258618396583
 20
-284.9264361543519
 40
1.0000000000001
100
AcDbArc
 50
16.95776330000349
 51
90.0
  0
ARC
  5
4A6
100
AcDbEntity
  8
0
  6
CONTINUOUS
 62
             7
100
AcDbCircle
 10
-808.75258618396583
 20
-280.02643615435193
 40
1.0
100
AcDbArc
 50
-90.0
 51
-16.95776330000349
  0
ARC
  5
4A5
100
AcDbEntity
  8
0
  6
CONTINUOUS
 62
             7
100
AcDbCircle
 10
-814.49170632559026
 20
-278.27643615435193
 40
7.00000000000003
100
AcDbArc
 50
-16.95776330000422
 51
16.95776330000467
  0
ARC
  5
4A4
100
AcDbEntity
  8
0
  6
CONTINUOUS
 62
             7
100
AcDbCircle
 10
-808.75258618396583
 20
-276.52643615435193
 40
1.00000000000012
100
AcDbArc
 50
16.9577633000066
 51
90.0
  0
ARC
  5
4A3
100
AcDbEntity
  8
0
  6
CONTINUOUS
 62
             7
100
AcDbCircle
 10
-808.75258618396583
 20
-271.62643615435201
 40
1.0
100
AcDbArc
 50
-90.0
 51
-16.95776329999726
  0
ARC
  5
4A2
100
AcDbEntity
  8
0
  6
CONTINUOUS
 62
             7
100
AcDbCircle
 10
-814.49170632559026
 20
-269.87643615435201
 40
7.0
100
AcDbArc
 50
-16.95776330000334
 51
16.95776330000422
  0
ARC
  5
4A1
100
AcDbEntity
  8
0
  6
CONTINUOUS
 62
             7
100
AcDbCircle
 10
-808.75258618396583
 20
-268.12643615435201
 40
1.0000000000001
100
AcDbArc
 50
16.95776330000349
 51
90.0
  0
ARC
  5
4A0
100
AcDbEntity
  8
0
  6
CONTINUOUS
 62
             7
100
AcDbCircle
 10
-808.75258618396583
 20
-263.22643615435192
 40
1.0
100
AcDbArc
 50
-90.0
 51
-16.95776330000349
  0
ARC
  5
49F
100
AcDbEntity
  8
0
  6
CONTINUOUS
 62
             7
100
AcDbCircle
 10
-814.49170632559026
 20
-261.47643615435192
 40
7.00000000000003
100
AcDbArc
 50
-16.95776330000422
 51
16.95776330000378
  0
ARC
  5
49E
100
AcDbEntity
  8
0
  6
CONTINUOUS
 62
             7
100
AcDbCircle
 10
-808.75258618396583
 20
-259.72643615435192
 40
1.00000000000009
100
AcDbArc
 50
16.95776330000037
 51
90.0
  0
ARC
  5
49D
100
AcDbEntity
  8
0
  6
CONTINUOUS
 62
             7
100
AcDbCircle
 10
-808.75258618396583
 20
-254.826436154352
 40
1.0
100
AcDbArc
 50
-90.0
 51
-16.95776329999881
  0
ARC
  5
49C
100
AcDbEntity
  8
0
  6
CONTINUOUS
 62
             7
100
AcDbCircle
 10
-814.49170632559026
 20
-253.076436154352
 40
7.00000000000001
100
AcDbArc
 50
-16.95776330000356
 51
16.95776330000422
  0
ARC
  5
49B
100
AcDbEntity
  8
0
  6
CONTINUOUS
 62
             7
100
AcDbCircle
 10
-808.75258618396583
 20
-251.326436154352
 40
1.0000000000001
100
AcDbArc
 50
16.95776330000349
 51
90.0
  0
LINE
  5
49A
100
AcDbEntity
  8
1
  6
CONTINUOUS
 62
             7
100
AcDbLine
 10
-1014.763760834122
 20
-296.52643615435181
 11
-1014.763760834122
 21
-298.2264361543518
  0
LINE
  5
499
100
AcDbEntity
  8
1
  6
CONTINUOUS
 62
             7
100
AcDbLine
 10
-1011.863760834122
 20
-296.52643615435181
 11
-1014.763760834122
 21
-296.52643615435181
  0
LINE
  5
498
100
AcDbEntity
  8
1
  6
CONTINUOUS
 62
             7
100
AcDbLine
 10
-1011.863760834122
 20
-298.2264361543518
 11
-1011.863760834122
 21
-296.52643615435181
  0
LINE
  5
497
100
AcDbEntity
  8
1
  6
CONTINUOUS
 62
             7
100
AcDbLine
 10
-1014.763760834122
 20
-298.2264361543518
 11
-1011.863760834122
 21
-298.2264361543518
  0
LINE
  5
496
100
AcDbEntity
  8
1
  6
CONTINUOUS
 62
             7
100
AcDbLine
 10
-1011.363760834122
 20
-298.7264361543518
 11
-1011.363760834122
 21
-296.02643615435181
  0
LINE
  5
495
100
AcDbEntity
  8
1
  6
CONTINUOUS
 62
             7
100
AcDbLine
 10
-1015.263760834122
 20
-298.7264361543518
 11
-1011.363760834122
 21
-298.7264361543518
  0
LINE
  5
494
100
AcDbEntity
  8
1
  6
CONTINUOUS
 62
             7
100
AcDbLine
 10
-1015.263760834122
 20
-296.02643615435181
 11
-1015.263760834122
 21
-298.7264361543518
  0
LINE
  5
493
100
AcDbEntity
  8
1
  6
CONTINUOUS
 62
             7
100
AcDbLine
 10
-1011.363760834122
 20
-296.02643615435181
 11
-1015.263760834122
 21
-296.02643615435181
  0
LINE
  5
492
100
AcDbEntity
  8
1
  6
CONTINUOUS
 62
             7
100
AcDbLine
 10
-914.51376083412197
 20
-298.32643615435182
 11
-914.51376083412197
 21
-303.32643615435182
  0
LINE
  5
491
100
AcDbEntity
  8
1
  6
CONTINUOUS
 62
             7
100
AcDbLine
 10
-918.51376083412197
 20
-297.57643615435171
 11
-914.01376083412197
 21
-297.57643615435171
  0
LINE
  5
490
100
AcDbEntity
  8
1
  6
CONTINUOUS
 62
             7
100
AcDbLine
 10
-918.51376083412197
 20
-252.07643615435171
 11
-918.51376083412197
 21
-297.57643615435171
  0
LINE
  5
48F
100
AcDbEntity
  8
1
  6
CONTINUOUS
 62
             7
100
AcDbLine
 10
-914.01376083412197
 20
-252.07643615435171
 11
-918.51376083412197
 21
-252.07643615435171
  0
LINE
  5
48E
100
AcDbEntity
  8
1
  6
CONTINUOUS
 62
             7
100
AcDbLine
 10
-904.01376083412185
 20
-338.87643615435172
 11
-904.01376083412185
 21
-242.87643615435169
  0
LINE
  5
48D
100
AcDbEntity
  8
1
  6
CONTINUOUS
 62
             7
100
AcDbLine
 10
-891.01376083412185
 20
-324.37643615435172
 11
-889.51376083412185
 21
-325.87643615435172
  0
LINE
  5
48C
100
AcDbEntity
  8
1
  6
CONTINUOUS
 62
             7
100
AcDbLine
 10
-814.51376083412185
 20
-334.87643615435172
 11
-815.01376083412185
 21
-334.87643615435172
  0
LINE
  5
48B
100
AcDbEntity
  8
1
  6
CONTINUOUS
 62
             7
100
AcDbLine
 10
-814.51376083412185
 20
-246.87643615435169
 11
-815.01376083412185
 21
-246.87643615435169
  0
LINE
  5
48A
100
AcDbEntity
  8
1
  6
CONTINUOUS
 62
             7
100
AcDbLine
 10
-816.51376083412185
 20
-245.37643615435169
 11
-816.51376083412185
 21
-336.37643615435172
  0
LINE
  5
489
100
AcDbEntity
  8
1
  6
CONTINUOUS
 62
             7
100
AcDbLine
 10
-821.69562616891653
 20
-249.94791167580789
 11
-823.78189549932779
 21
-253.56143615435161
  0
LINE
  5
488
100
AcDbEntity
  8
1
  6
CONTINUOUS
 62
             7
100
AcDbLine
 10
-823.60003016453277
 20
-253.87643615435169
 11
-819.4274915037123
 21
-253.87643615435169
  0
LINE
  5
487
100
AcDbEntity
  8
1
  6
CONTINUOUS
 62
             7
100
AcDbLine
 10
-819.24562616891728
 20
-253.56143615435161
 11
-821.33189549932774
 21
-249.94791167580789
  0
LINE
  5
486
100
AcDbEntity
  8
1
  6
CONTINUOUS
 62
             7
100
AcDbLine
 10
-821.51376083412185
 20
-250.1229116758079
 11
-823.53940838626784
 21
-253.63143615435169
  0
LINE
  5
485
100
AcDbEntity
  8
1
  6
CONTINUOUS
 62
             7
100
AcDbLine
 10
-823.53940838626784
 20
-253.63143615435169
 11
-819.48811328197678
 21
-253.63143615435169
  0
LINE
  5
484
100
AcDbEntity
  8
1
  6
CONTINUOUS
 62
             7
100
AcDbLine
 10
-819.48811328197678
 20
-253.63143615435169
 11
-821.51376083412185
 21
-250.1229116758079
  0
LINE
  5
483
100
AcDbEntity
  8
1
  6
CONTINUOUS
 62
             7
100
AcDbLine
 10
-821.23570530209179
 20
-251.31937733082219
 11
-821.37473306810728
 21
-252.49290674258691
  0
LINE
  5
482
100
AcDbEntity
  8
1
  6
CONTINUOUS
 62
             7
100
AcDbLine
 10
-821.6527886001378
 20
-252.49290674258691
 11
-821.79181636615283
 21
-251.31937733082219
  0
LINE
  5
481
100
AcDbEntity
  8
1
  6
CONTINUOUS
 62
             7
100
AcDbLine
 10
-818.51376083412174
 20
-248.87643615435169
 11
-824.51376083412174
 21
-248.87643615435169
  0
LINE
  5
480
100
AcDbEntity
  8
1
  6
CONTINUOUS
 62
             7
100
AcDbLine
 10
-824.51376083412174
 20
-248.87643615435169
 11
-824.51376083412174
 21
-254.87643615435169
  0
LINE
  5
47F
100
AcDbEntity
  8
1
  6
CONTINUOUS
 62
             7
100
AcDbLine
 10
-824.51376083412174
 20
-254.87643615435169
 11
-818.51376083412174
 21
-254.87643615435169
  0
LINE
  5
47E
100
AcDbEntity
  8
1
  6
CONTINUOUS
 62
             7
100
AcDbLine
 10
-818.51376083412174
 20
-254.87643615435169
 11
-818.51376083412174
 21
-248.87643615435169
  0
LINE
  5
47D
100
AcDbEntity
  8
1
  6
CONTINUOUS
 62
             7
100
AcDbLine
 10
-811.51376083412185
 20
-256.59625641406461
 11
-814.51376083412185
 21
-256.54389121928028
  0
LINE
  5
47C
100
AcDbEntity
  8
1
  6
CONTINUOUS
 62
             7
100
AcDbLine
 10
-811.51376083412185
 20
-249.55661589463881
 11
-814.51376083412185
 21
-249.60898108942371
  0
LINE
  5
47B
100
AcDbEntity
  8
1
  6
CONTINUOUS
 62
             7
100
AcDbLine
 10
-814.51376083412185
 20
-249.60898108942371
 11
-814.51376083412185
 21
-256.54389121928028
  0
LINE
  5
47A
100
AcDbEntity
  8
1
  6
CONTINUOUS
 62
             7
100
AcDbLine
 10
-810.89170632559023
 20
-249.54575789280381
 11
-810.89170632559023
 21
-256.60711441590013
  0
LINE
  5
479
100
AcDbEntity
  8
1
  6
CONTINUOUS
 62
             7
100
AcDbLine
 10
-811.51376083412185
 20
-264.99625641406459
 11
-814.51376083412185
 21
-264.9438912192802
  0
LINE
  5
478
100
AcDbEntity
  8
1
  6
CONTINUOUS
 62
             7
100
AcDbLine
 10
-814.51376083412185
 20
-258.00898108942368
 11
-814.51376083412185
 21
-264.9438912192802
  0
LINE
  5
477
100
AcDbEntity
  8
1
  6
CONTINUOUS
 62
             7
100
AcDbLine
 10
-811.51376083412185
 20
-257.95661589463879
 11
-814.51376083412185
 21
-258.00898108942368
  0
LINE
  5
476
100
AcDbEntity
  8
1
  6
CONTINUOUS
 62
             7
100
AcDbLine
 10
-810.89170632559023
 20
-257.94575789280378
 11
-810.89170632559023
 21
-265.00711441590011
  0
LINE
  5
475
100
AcDbEntity
  8
1
  6
CONTINUOUS
 62
             7
100
AcDbLine
 10
-810.89170632559023
 20
-266.3457578928037
 11
-810.89170632559023
 21
-273.40711441590008
  0
LINE
  5
474
100
AcDbEntity
  8
1
  6
CONTINUOUS
 62
             7
100
AcDbLine
 10
-811.51376083412185
 20
-266.35661589463888
 11
-814.51376083412185
 21
-266.40898108942372
  0
LINE
  5
473
100
AcDbEntity
  8
1
  6
CONTINUOUS
 62
             7
100
AcDbLine
 10
-811.51376083412185
 20
-273.39625641406462
 11
-814.51376083412185
 21
-273.34389121928018
  0
LINE
  5
472
100
AcDbEntity
  8
1
  6
CONTINUOUS
 62
             7
100
AcDbLine
 10
-814.51376083412185
 20
-266.40898108942372
 11
-814.51376083412185
 21
-273.34389121928018
  0
LINE
  5
471
100
AcDbEntity
  8
1
  6
CONTINUOUS
 62
             7
100
AcDbLine
 10
-810.89170632559023
 20
-274.74575789280368
 11
-810.89170632559023
 21
-281.80711441590012
  0
LINE
  5
470
100
AcDbEntity
  8
1
  6
CONTINUOUS
 62
             7
100
AcDbLine
 10
-811.51376083412185
 20
-274.75661589463891
 11
-814.51376083412185
 21
-274.8089810894237
  0
LINE
  5
46F
100
AcDbEntity
  8
1
  6
CONTINUOUS
 62
             7
100
AcDbLine
 10
-814.51376083412185
 20
-274.8089810894237
 11
-814.51376083412185
 21
-281.74389121928021
  0
LINE
  5
46E
100
AcDbEntity
  8
1
  6
CONTINUOUS
 62
             7
100
AcDbLine
 10
-811.51376083412185
 20
-281.7962564140646
 11
-814.51376083412185
 21
-281.74389121928021
  0
LINE
  5
46D
100
AcDbEntity
  8
1
  6
CONTINUOUS
 62
             7
100
AcDbLine
 10
-811.51376083412185
 20
-290.19625641406458
 11
-814.51376083412185
 21
-290.14389121928019
  0
LINE
  5
46C
100
AcDbEntity
  8
1
  6
CONTINUOUS
 62
             7
100
AcDbLine
 10
-814.51376083412185
 20
-283.20898108942367
 11
-814.51376083412185
 21
-290.14389121928019
  0
LINE
  5
46B
100
AcDbEntity
  8
1
  6
CONTINUOUS
 62
             7
100
AcDbLine
 10
-811.51376083412185
 20
-283.15661589463878
 11
-814.51376083412185
 21
-283.20898108942367
  0
LINE
  5
46A
100
AcDbEntity
  8
1
  6
CONTINUOUS
 62
             7
100
AcDbLine
 10
-810.89170632559023
 20
-283.14575789280372
 11
-810.89170632559023
 21
-290.20711441589998
  0
LINE
  5
469
100
AcDbEntity
  8
1
  6
CONTINUOUS
 62
             7
100
AcDbLine
 10
-811.51376083412185
 20
-298.59625641406461
 11
-814.51376083412185
 21
-298.54389121928023
  0
LINE
  5
468
100
AcDbEntity
  8
1
  6
CONTINUOUS
 62
             7
100
AcDbLine
 10
-811.51376083412185
 20
-291.55661589463881
 11
-814.51376083412185
 21
-291.60898108942371
  0
LINE
  5
467
100
AcDbEntity
  8
1
  6
CONTINUOUS
 62
             7
100
AcDbLine
 10
-814.51376083412185
 20
-291.60898108942371
 11
-814.51376083412185
 21
-298.54389121928023
  0
LINE
  5
466
100
AcDbEntity
  8
1
  6
CONTINUOUS
 62
             7
100
AcDbLine
 10
-810.89170632559023
 20
-291.54575789280369
 11
-810.89170632559023
 21
-298.60711441590001
  0
LINE
  5
465
100
AcDbEntity
  8
1
  6
CONTINUOUS
 62
             7
100
AcDbLine
 10
-811.51376083412185
 20
-306.9962564140647
 11
-814.51376083412185
 21
-306.9438912192802
  0
LINE
  5
464
100
AcDbEntity
  8
1
  6
CONTINUOUS
 62
             7
100
AcDbLine
 10
-814.51376083412185
 20
-300.00898108942363
 11
-814.51376083412185
 21
-306.9438912192802
  0
LINE
  5
463
100
AcDbEntity
  8
1
  6
CONTINUOUS
 62
             7
100
AcDbLine
 10
-811.51376083412185
 20
-299.95661589463879
 11
-814.51376083412185
 21
-300.00898108942363
  0
LINE
  5
462
100
AcDbEntity
  8
1
  6
CONTINUOUS
 62
             7
100
AcDbLine
 10
-810.89170632559023
 20
-299.94575789280373
 11
-810.89170632559023
 21
-307.00711441589999
  0
LINE
  5
461
100
AcDbEntity
  8
1
  6
CONTINUOUS
 62
             7
100
AcDbLine
 10
-811.51376083412185
 20
-308.35661589463888
 11
-814.51376083412185
 21
-308.40898108942361
  0
LINE
  5
460
100
AcDbEntity
  8
1
  6
CONTINUOUS
 62
             7
100
AcDbLine
 10
-811.51376083412185
 20
-315.39625641406462
 11
-814.51376083412185
 21
-315.34389121928012
  0
LINE
  5
45F
100
AcDbEntity
  8
1
  6
CONTINUOUS
 62
             7
100
AcDbLine
 10
-814.51376083412185
 20
-308.40898108942361
 11
-814.51376083412185
 21
-315.34389121928012
  0
LINE
  5
45E
100
AcDbEntity
  8
1
  6
CONTINUOUS
 62
             7
100
AcDbLine
 10
-810.89170632559023
 20
-308.3457578928037
 11
-810.89170632559023
 21
-315.40711441590003
  0
LINE
  5
45D
100
AcDbEntity
  8
1
  6
CONTINUOUS
 62
             7
100
AcDbLine
 10
-811.51376083412185
 20
-316.75661589463891
 11
-814.51376083412185
 21
-316.80898108942358
  0
LINE
  5
45C
100
AcDbEntity
  8
1
  6
CONTINUOUS
 62
             7
100
AcDbLine
 10
-810.89170632559023
 20
-316.74575789280362
 11
-810.89170632559023
 21
-323.8071144159
  0
LINE
  5
45B
100
AcDbEntity
  8
1
  6
CONTINUOUS
 62
             7
100
AcDbLine
 10
-814.51376083412185
 20
-316.80898108942358
 11
-814.51376083412185
 21
-323.74389121927999
  0
LINE
  5
45A
100
AcDbEntity
  8
1
  6
CONTINUOUS
 62
             7
100
AcDbLine
 10
-811.51376083412185
 20
-323.79625641406449
 11
-814.51376083412185
 21
-323.74389121927999
  0
LINE
  5
459
100
AcDbEntity
  8
1
  6
CONTINUOUS
 62
             7
100
AcDbLine
 10
-811.51376083412185
 20
-332.19625641406452
 11
-814.51376083412185
 21
-332.14389121928008
  0
LINE
  5
458
100
AcDbEntity
  8
1
  6
CONTINUOUS
 62
             7
100
AcDbLine
 10
-811.51376083412185
 20
-325.15661589463878
 11
-814.51376083412185
 21
-325.20898108942362
  0
LINE
  5
457
100
AcDbEntity
  8
1
  6
CONTINUOUS
 62
             7
100
AcDbLine
 10
-814.51376083412185
 20
-325.20898108942362
 11
-814.51376083412185
 21
-332.14389121928008
  0
LINE
  5
456
100
AcDbEntity
  8
1
  6
CONTINUOUS
 62
             7
100
AcDbLine
 10
-810.89170632559023
 20
-332.20711441589998
 11
-806.01376083412185
 21
-332.29225927116971
  0
LINE
  5
455
100
AcDbEntity
  8
1
  6
CONTINUOUS
 62
             7
100
AcDbLine
 10
-810.89170632559023
 20
-325.1457578928036
 11
-811.51376083412185
 21
-325.15661589463878
  0
LINE
  5
454
100
AcDbEntity
  8
1
  6
CONTINUOUS
 62
             7
100
AcDbLine
 10
-810.89170632559023
 20
-325.1457578928036
 11
-810.89170632559023
 21
-332.20711441589998
  0
LINE
  5
453
100
AcDbEntity
  8
1
  6
CONTINUOUS
 62
             7
100
AcDbLine
 10
-811.51376083412185
 20
-332.19625641406452
 11
-810.89170632559023
 21
-332.20711441589998
  0
LINE
  5
452
100
AcDbEntity
  8
1
  6
CONTINUOUS
 62
             7
100
AcDbLine
 10
-804.51376083412185
 20
-334.87643615435172
 11
-806.01376083412185
 21
-334.87643615435172
  0
LINE
  5
451
100
AcDbEntity
  8
1
  6
CONTINUOUS
 62
             7
100
AcDbLine
 10
-806.01376083412185
 20
-334.87643615435172
 11
-806.01376083412185
 21
-332.29225927116971
  0
LINE
  5
450
100
AcDbEntity
  8
1
  6
CONTINUOUS
 62
             7
100
AcDbLine
 10
-804.01376083412185
 20
-334.37643615435172
 11
-804.01376083412185
 21
-332.3271694010262
  0
LINE
  5
44F
100
AcDbEntity
  8
1
  6
CONTINUOUS
 62
             7
100
AcDbLine
 10
-811.51376083412185
 20
-323.79625641406449
 11
-806.01376083412185
 21
-323.89225927116968
  0
LINE
  5
44E
100
AcDbEntity
  8
1
  6
CONTINUOUS
 62
             7
100
AcDbLine
 10
-805.51376083412185
 20
-325.05188550506949
 11
-806.01376083412185
 21
-325.06061303753359
  0
LINE
  5
44D
100
AcDbEntity
  8
1
  6
CONTINUOUS
 62
             7
100
AcDbLine
 10
-806.01376083412185
 20
-325.06061303753359
 11
-806.01376083412185
 21
-323.89225927116968
  0
LINE
  5
44C
100
AcDbEntity
  8
1
  6
CONTINUOUS
 62
             7
100
AcDbLine
 10
-804.01376083412185
 20
-325.02570290767721
 11
-804.01376083412185
 21
-323.92716940102628
  0
LINE
  5
44B
100
AcDbEntity
  8
1
  6
CONTINUOUS
 62
             7
100
AcDbLine
 10
-811.51376083412185
 20
-315.39625641406462
 11
-806.01376083412185
 21
-315.49225927116981
  0
LINE
  5
44A
100
AcDbEntity
  8
1
  6
CONTINUOUS
 62
             7
100
AcDbLine
 10
-805.51376083412185
 20
-316.65188550506952
 11
-806.01376083412185
 21
-316.66061303753372
  0
LINE
  5
449
100
AcDbEntity
  8
1
  6
CONTINUOUS
 62
             7
100
AcDbLine
 10
-806.01376083412185
 20
-316.66061303753372
 11
-806.01376083412185
 21
-315.49225927116981
  0
LINE
  5
448
100
AcDbEntity
  8
1
  6
CONTINUOUS
 62
             7
100
AcDbLine
 10
-804.01376083412185
 20
-316.62570290767718
 11
-804.01376083412185
 21
-315.5271694010263
  0
LINE
  5
447
100
AcDbEntity
  8
1
  6
CONTINUOUS
 62
             7
100
AcDbLine
 10
-811.51376083412185
 20
-306.9962564140647
 11
-806.01376083412185
 21
-307.09225927116978
  0
LINE
  5
446
100
AcDbEntity
  8
1
  6
CONTINUOUS
 62
             7
100
AcDbLine
 10
-805.51376083412185
 20
-308.25188550506948
 11
-806.01376083412185
 21
-308.26061303753357
  0
LINE
  5
445
100
AcDbEntity
  8
1
  6
CONTINUOUS
 62
             7
100
AcDbLine
 10
-806.01376083412185
 20
-308.26061303753357
 11
-806.01376083412185
 21
-307.09225927116978
  0
LINE
  5
444
100
AcDbEntity
  8
1
  6
CONTINUOUS
 62
             7
100
AcDbLine
 10
-804.01376083412185
 20
-308.2257029076772
 11
-804.01376083412185
 21
-307.12716940102621
  0
LINE
  5
443
100
AcDbEntity
  8
1
  6
CONTINUOUS
 62
             7
100
AcDbLine
 10
-811.51376083412185
 20
-298.59625641406461
 11
-806.01376083412185
 21
-298.6922592711698
  0
LINE
  5
442
100
AcDbEntity
  8
1
  6
CONTINUOUS
 62
             7
100
AcDbLine
 10
-805.51376083412185
 20
-299.8518855050695
 11
-806.01376083412185
 21
-299.8606130375336
  0
LINE
  5
441
100
AcDbEntity
  8
1
  6
CONTINUOUS
 62
             7
100
AcDbLine
 10
-806.01376083412185
 20
-299.8606130375336
 11
-806.01376083412185
 21
-298.6922592711698
  0
LINE
  5
440
100
AcDbEntity
  8
1
  6
CONTINUOUS
 62
             7
100
AcDbLine
 10
-804.01376083412185
 20
-299.82570290767723
 11
-804.01376083412185
 21
-298.72716940102617
  0
LINE
  5
43F
100
AcDbEntity
  8
1
  6
CONTINUOUS
 62
             7
100
AcDbLine
 10
-811.51376083412185
 20
-290.19625641406458
 11
-806.01376083412185
 21
-290.29225927116971
  0
LINE
  5
43E
100
AcDbEntity
  8
1
  6
CONTINUOUS
 62
             7
100
AcDbLine
 10
-805.51376083412185
 20
-291.45188550506953
 11
-806.01376083412185
 21
-291.46061303753362
  0
LINE
  5
43D
100
AcDbEntity
  8
1
  6
CONTINUOUS
 62
             7
100
AcDbLine
 10
-806.01376083412185
 20
-291.46061303753362
 11
-806.01376083412185
 21
-290.29225927116971
  0
LINE
  5
43C
100
AcDbEntity
  8
1
  6
CONTINUOUS
 62
             7
100
AcDbLine
 10
-804.01376083412185
 20
-291.42570290767731
 11
-804.01376083412185
 21
-290.3271694010262
  0
LINE
  5
43B
100
AcDbEntity
  8
1
  6
CONTINUOUS
 62
             7
100
AcDbLine
 10
-811.51376083412185
 20
-281.7962564140646
 11
-806.01376083412185
 21
-281.89225927116968
  0
LINE
  5
43A
100
AcDbEntity
  8
1
  6
CONTINUOUS
 62
             7
100
AcDbLine
 10
-805.51376083412185
 20
-283.05188550506949
 11
-806.01376083412185
 21
-283.0606130375337
  0
LINE
  5
439
100
AcDbEntity
  8
1
  6
CONTINUOUS
 62
             7
100
AcDbLine
 10
-806.01376083412185
 20
-283.0606130375337
 11
-806.01376083412185
 21
-281.89225927116968
  0
LINE
  5
438
100
AcDbEntity
  8
1
  6
CONTINUOUS
 62
             7
100
AcDbLine
 10
-804.01376083412185
 20
-283.02570290767721
 11
-804.01376083412185
 21
-281.92716940102622
  0
LINE
  5
437
100
AcDbEntity
  8
1
  6
CONTINUOUS
 62
             7
100
AcDbLine
 10
-811.51376083412185
 20
-273.39625641406462
 11
-806.01376083412185
 21
-273.49225927116981
  0
LINE
  5
436
100
AcDbEntity
  8
1
  6
CONTINUOUS
 62
             7
100
AcDbLine
 10
-805.51376083412185
 20
-274.65188550506952
 11
-806.01376083412185
 21
-274.66061303753372
  0
LINE
  5
435
100
AcDbEntity
  8
1
  6
CONTINUOUS
 62
             7
100
AcDbLine
 10
-806.01376083412185
 20
-274.66061303753372
 11
-806.01376083412185
 21
-273.49225927116981
  0
LINE
  5
434
100
AcDbEntity
  8
1
  6
CONTINUOUS
 62
             7
100
AcDbLine
 10
-804.01376083412185
 20
-274.62570290767718
 11
-804.01376083412185
 21
-273.5271694010263
  0
LINE
  5
433
100
AcDbEntity
  8
1
  6
CONTINUOUS
 62
             7
100
AcDbLine
 10
-811.51376083412185
 20
-264.99625641406459
 11
-806.01376083412185
 21
-265.09225927116978
  0
LINE
  5
432
100
AcDbEntity
  8
1
  6
CONTINUOUS
 62
             7
100
AcDbLine
 10
-805.51376083412185
 20
-266.25188550506959
 11
-806.01376083412185
 21
-266.26061303753357
  0
LINE
  5
431
100
AcDbEntity
  8
1
  6
CONTINUOUS
 62
             7
100
AcDbLine
 10
-806.01376083412185
 20
-266.26061303753357
 11
-806.01376083412185
 21
-265.09225927116978
  0
LINE
  5
430
100
AcDbEntity
  8
1
  6
CONTINUOUS
 62
             7
100
AcDbLine
 10
-804.01376083412185
 20
-266.2257029076772
 11
-804.01376083412185
 21
-265.12716940102632
  0
LINE
  5
42F
100
AcDbEntity
  8
1
  6
CONTINUOUS
 62
             7
100
AcDbLine
 10
-811.51376083412185
 20
-256.59625641406461
 11
-806.01376083412185
 21
-256.6922592711698
  0
LINE
  5
42E
100
AcDbEntity
  8
1
  6
CONTINUOUS
 62
             7
100
AcDbLine
 10
-805.51376083412185
 20
-257.8518855050695
 11
-806.01376083412185
 21
-257.8606130375336
  0
LINE
  5
42D
100
AcDbEntity
  8
1
  6
CONTINUOUS
 62
             7
100
AcDbLine
 10
-806.01376083412185
 20
-257.8606130375336
 11
-806.01376083412185
 21
-256.6922592711698
  0
LINE
  5
42C
100
AcDbEntity
  8
1
  6
CONTINUOUS
 62
             7
100
AcDbLine
 10
-804.01376083412185
 20
-257.82570290767728
 11
-804.01376083412185
 21
-256.72716940102617
  0
LINE
  5
42B
100
AcDbEntity
  8
1
  6
CONTINUOUS
 62
             7
100
AcDbLine
 10
-805.51376083412185
 20
-249.4518855050695
 11
-806.01376083412185
 21
-249.46061303753359
  0
LINE
  5
42A
100
AcDbEntity
  8
1
  6
CONTINUOUS
 62
             7
100
AcDbLine
 10
-804.51376083412185
 20
-246.87643615435169
 11
-806.01376083412185
 21
-246.87643615435169
  0
LINE
  5
429
100
AcDbEntity
  8
1
  6
CONTINUOUS
 62
             7
100
AcDbLine
 10
-806.01376083412185
 20
-249.46061303753359
 11
-806.01376083412185
 21
-246.87643615435169
  0
LINE
  5
428
100
AcDbEntity
  8
1
  6
CONTINUOUS
 62
             7
100
AcDbLine
 10
-804.01376083412185
 20
-249.42570290767731
 11
-804.01376083412185
 21
-247.37643615435169
  0
LINE
  5
427
100
AcDbEntity
  8
1
  6
CONTINUOUS
 62
             7
100
AcDbLine
 10
-804.01376083412185
 20
-249.42570290767731
 11
-805.51376083412185
 21
-249.4518855050695
  0
LINE
  5
426
100
AcDbEntity
  8
1
  6
CONTINUOUS
 62
             7
100
AcDbLine
 10
-806.01376083412185
 20
-256.6922592711698
 11
-805.51376083412185
 21
-256.7009868036339
  0
LINE
  5
425
100
AcDbEntity
  8
1
  6
CONTINUOUS
 62
             7
100
AcDbLine
 10
-806.01376083412185
 20
-249.46061303753359
 11
-811.51376083412185
 21
-249.55661589463881
  0
LINE
  5
424
100
AcDbEntity
  8
1
  6
CONTINUOUS
 62
             7
100
AcDbLine
 10
-805.51376083412185
 20
-256.7009868036339
 11
-804.01376083412185
 21
-256.72716940102617
  0
LINE
  5
423
100
AcDbEntity
  8
1
  6
CONTINUOUS
 62
             7
100
AcDbLine
 10
-805.51376083412185
 20
-265.10098680363387
 11
-804.01376083412185
 21
-265.12716940102632
  0
LINE
  5
422
100
AcDbEntity
  8
1
  6
CONTINUOUS
 62
             7
100
AcDbLine
 10
-806.01376083412185
 20
-257.8606130375336
 11
-811.51376083412185
 21
-257.95661589463879
  0
LINE
  5
421
100
AcDbEntity
  8
1
  6
CONTINUOUS
 62
             7
100
AcDbLine
 10
-806.01376083412185
 20
-265.09225927116978
 11
-805.51376083412185
 21
-265.10098680363387
  0
LINE
  5
420
100
AcDbEntity
  8
1
  6
CONTINUOUS
 62
             7
100
AcDbLine
 10
-804.01376083412185
 20
-257.82570290767728
 11
-805.51376083412185
 21
-257.8518855050695
  0
LINE
  5
41F
100
AcDbEntity
  8
1
  6
CONTINUOUS
 62
             7
100
AcDbLine
 10
-804.01376083412185
 20
-266.2257029076772
 11
-805.51376083412185
 21
-266.25188550506959
  0
LINE
  5
41E
100
AcDbEntity
  8
1
  6
CONTINUOUS
 62
             7
100
AcDbLine
 10
-806.01376083412185
 20
-273.49225927116981
 11
-805.51376083412185
 21
-273.50098680363391
  0
LINE
  5
41D
100
AcDbEntity
  8
1
  6
CONTINUOUS
 62
             7
100
AcDbLine
 10
-806.01376083412185
 20
-266.26061303753357
 11
-811.51376083412185
 21
-266.35661589463888
  0
LINE
  5
41C
100
AcDbEntity
  8
1
  6
CONTINUOUS
 62
             7
100
AcDbLine
 10
-805.51376083412185
 20
-273.50098680363391
 11
-804.01376083412185
 21
-273.5271694010263
  0
LINE
  5
41B
100
AcDbEntity
  8
1
  6
CONTINUOUS
 62
             7
100
AcDbLine
 10
-805.51376083412185
 20
-281.90098680363388
 11
-804.01376083412185
 21
-281.92716940102622
  0
LINE
  5
41A
100
AcDbEntity
  8
1
  6
CONTINUOUS
 62
             7
100
AcDbLine
 10
-806.01376083412185
 20
-274.66061303753372
 11
-811.51376083412185
 21
-274.75661589463891
  0
LINE
  5
419
100
AcDbEntity
  8
1
  6
CONTINUOUS
 62
             7
100
AcDbLine
 10
-806.01376083412185
 20
-281.89225927116968
 11
-805.51376083412185
 21
-281.90098680363388
  0
LINE
  5
418
100
AcDbEntity
  8
1
  6
CONTINUOUS
 62
             7
100
AcDbLine
 10
-804.01376083412185
 20
-274.62570290767718
 11
-805.51376083412185
 21
-274.65188550506952
  0
LINE
  5
417
100
AcDbEntity
  8
1
  6
CONTINUOUS
 62
             7
100
AcDbLine
 10
-804.01376083412185
 20
-283.02570290767721
 11
-805.51376083412185
 21
-283.05188550506949
  0
LINE
  5
416
100
AcDbEntity
  8
1
  6
CONTINUOUS
 62
             7
100
AcDbLine
 10
-806.01376083412185
 20
-290.29225927116971
 11
-805.51376083412185
 21
-290.30098680363392
  0
LINE
  5
415
100
AcDbEntity
  8
1
  6
CONTINUOUS
 62
             7
100
AcDbLine
 10
-806.01376083412185
 20
-283.0606130375337
 11
-811.51376083412185
 21
-283.15661589463878
  0
LINE
  5
414
100
AcDbEntity
  8
1
  6
CONTINUOUS
 62
             7
100
AcDbLine
 10
-805.51376083412185
 20
-290.30098680363392
 11
-804.01376083412185
 21
-290.3271694010262
  0
LINE
  5
413
100
AcDbEntity
  8
1
  6
CONTINUOUS
 62
             7
100
AcDbLine
 10
-805.51376083412185
 20
-298.70098680363378
 11
-804.01376083412185
 21
-298.72716940102617
  0
LINE
  5
412
100
AcDbEntity
  8
1
  6
CONTINUOUS
 62
             7
100
AcDbLine
 10
-806.01376083412185
 20
-291.46061303753362
 11
-811.51376083412185
 21
-291.55661589463881
  0
LINE
  5
411
100
AcDbEntity
  8
1
  6
CONTINUOUS
 62
             7
100
AcDbLine
 10
-806.01376083412185
 20
-298.6922592711698
 11
-805.51376083412185
 21
-298.70098680363378
  0
LINE
  5
410
100
AcDbEntity
  8
1
  6
CONTINUOUS
 62
             7
100
AcDbLine
 10
-804.01376083412185
 20
-291.42570290767731
 11
-805.51376083412185
 21
-291.45188550506953
  0
LINE
  5
40F
100
AcDbEntity
  8
1
  6
CONTINUOUS
 62
             7
100
AcDbLine
 10
-804.01376083412185
 20
-299.82570290767723
 11
-805.51376083412185
 21
-299.8518855050695
  0
LINE
  5
40E
100
AcDbEntity
  8
1
  6
CONTINUOUS
 62
             7
100
AcDbLine
 10
-806.01376083412185
 20
-307.09225927116978
 11
-805.51376083412185
 21
-307.10098680363399
  0
LINE
  5
40D
100
AcDbEntity
  8
1
  6
CONTINUOUS
 62
             7
100
AcDbLine
 10
-806.01376083412185
 20
-299.8606130375336
 11
-811.51376083412185
 21
-299.95661589463879
  0
LINE
  5
40C
100
AcDbEntity
  8
1
  6
CONTINUOUS
 62
             7
100
AcDbLine
 10
-805.51376083412185
 20
-307.10098680363399
 11
-804.01376083412185
 21
-307.12716940102621
  0
LINE
  5
40B
100
AcDbEntity
  8
1
  6
CONTINUOUS
 62
             7
100
AcDbLine
 10
-805.51376083412185
 20
-315.50098680363391
 11
-804.01376083412185
 21
-315.5271694010263
  0
LINE
  5
40A
100
AcDbEntity
  8
1
  6
CONTINUOUS
 62
             7
100
AcDbLine
 10
-806.01376083412185
 20
-308.26061303753357
 11
-811.51376083412185
 21
-308.35661589463888
  0
LINE
  5
409
100
AcDbEntity
  8
1
  6
CONTINUOUS
 62
             7
100
AcDbLine
 10
-806.01376083412185
 20
-315.49225927116981
 11
-805.51376083412185
 21
-315.50098680363391
  0
LINE
  5
408
100
AcDbEntity
  8
1
  6
CONTINUOUS
 62
             7
100
AcDbLine
 10
-804.01376083412185
 20
-308.2257029076772
 11
-805.51376083412185
 21
-308.25188550506948
  0
LINE
  5
407
100
AcDbEntity
  8
1
  6
CONTINUOUS
 62
             7
100
AcDbLine
 10
-804.01376083412185
 20
-316.62570290767718
 11
-805.51376083412185
 21
-316.65188550506952
  0
LINE
  5
406
100
AcDbEntity
  8
1
  6
CONTINUOUS
 62
             7
100
AcDbLine
 10
-806.01376083412185
 20
-323.89225927116968
 11
-805.51376083412185
 21
-323.90098680363388
  0
LINE
  5
405
100
AcDbEntity
  8
1
  6
CONTINUOUS
 62
             7
100
AcDbLine
 10
-806.01376083412185
 20
-316.66061303753372
 11
-811.51376083412185
 21
-316.75661589463891
  0
LINE
  5
404
100
AcDbEntity
  8
1
  6
CONTINUOUS
 62
             7
100
AcDbLine
 10
-805.51376083412185
 20
-323.90098680363388
 11
-804.01376083412185
 21
-323.92716940102628
  0
LINE
  5
403
100
AcDbEntity
  8
1
  6
CONTINUOUS
 62
             7
100
AcDbLine
 10
-805.51376083412185
 20
-332.30098680363392
 11
-804.01376083412185
 21
-332.3271694010262
  0
LINE
  5
402
100
AcDbEntity
  8
1
  6
CONTINUOUS
 62
             7
100
AcDbLine
 10
-806.01376083412185
 20
-325.06061303753359
 11
-810.89170632559023
 21
-325.1457578928036
  0
LINE
  5
401
100
AcDbEntity
  8
1
  6
CONTINUOUS
 62
             7
100
AcDbLine
 10
-816.51376083412185
 20
-336.37643615435172
 11
-804.51376083412185
 21
-336.37643615435172
  0
LINE
  5
400
100
AcDbEntity
  8
1
  6
CONTINUOUS
 62
             7
100
AcDbLine
 10
-804.51376083412185
 20
-336.37643615435172
 11
-804.01376083412185
 21
-335.87643615435172
  0
LINE
  5
3FF
100
AcDbEntity
  8
1
  6
CONTINUOUS
 62
             7
100
AcDbLine
 10
-804.01376083412185
 20
-335.87643615435172
 11
-804.01376083412185
 21
-334.37643615435172
  0
LINE
  5
3FE
100
AcDbEntity
  8
1
  6
CONTINUOUS
 62
             7
100
AcDbLine
 10
-804.01376083412185
 20
-247.37643615435169
 11
-804.01376083412185
 21
-245.87643615435169
  0
LINE
  5
3FD
100
AcDbEntity
  8
1
  6
CONTINUOUS
 62
             7
100
AcDbLine
 10
-804.01376083412185
 20
-245.87643615435169
 11
-804.51376083412185
 21
-245.37643615435169
  0
LINE
  5
3FC
100
AcDbEntity
  8
1
  6
CONTINUOUS
 62
             7
100
AcDbLine
 10
-804.51376083412185
 20
-245.37643615435169
 11
-816.51376083412185
 21
-245.37643615435169
  0
LINE
  5
3FB
100
AcDbEntity
  8
1
  6
CONTINUOUS
 62
             7
100
AcDbLine
 10
-806.01376083412185
 20
-332.29225927116971
 11
-805.51376083412185
 21
-332.30098680363392
  0
LINE
  5
3FA
100
AcDbEntity
  8
1
  6
CONTINUOUS
 62
             7
100
AcDbLine
 10
-806.01376083412185
 20
-334.87643615435172
 11
-814.51376083412185
 21
-334.87643615435172
  0
LINE
  5
3F9
100
AcDbEntity
  8
1
  6
CONTINUOUS
 62
             7
100
AcDbLine
 10
-804.01376083412185
 20
-325.02570290767721
 11
-805.51376083412185
 21
-325.05188550506949
  0
LINE
  5
3F8
100
AcDbEntity
  8
1
  6
CONTINUOUS
 62
             7
100
AcDbLine
 10
-806.01376083412185
 20
-246.87643615435169
 11
-814.51376083412185
 21
-246.87643615435169
  0
LINE
  5
3F7
100
AcDbEntity
  8
1
  6
CONTINUOUS
 62
             7
100
AcDbLine
 10
-891.01376083412185
 20
-255.87643615435169
 11
-891.01376083412185
 21
-324.37643615435172
  0
LINE
  5
3F6
100
AcDbEntity
  8
1
  6
CONTINUOUS
 62
             7
100
AcDbLine
 10
-819.01376083412185
 20
-325.87643615435172
 11
-819.01376083412185
 21
-255.87643615435169
  0
LINE
  5
3F5
100
AcDbEntity
  8
1
  6
CONTINUOUS
 62
             7
100
AcDbLine
 10
-889.51376083412185
 20
-325.87643615435172
 11
-819.01376083412185
 21
-325.87643615435172
  0
LINE
  5
3F4
100
AcDbEntity
  8
1
  6
CONTINUOUS
 62
             7
100
AcDbLine
 10
-891.01376083412185
 20
-255.87643615435169
 11
-819.01376083412185
 21
-255.87643615435169
  0
LINE
  5
3F3
100
AcDbEntity
  8
1
  6
CONTINUOUS
 62
             7
100
AcDbLine
 10
-833.01376083412185
 20
-332.37643615435172
 11
-845.51376083412185
 21
-332.37643615435172
  0
LINE
  5
3F2
100
AcDbEntity
  8
1
  6
CONTINUOUS
 62
             7
100
AcDbLine
 10
-845.51376083412185
 20
-330.37643615435172
 11
-833.01376083412185
 21
-330.37643615435172
  0
LINE
  5
3F1
100
AcDbEntity
  8
1
  6
CONTINUOUS
 62
             7
100
AcDbLine
 10
-872.01376083412185
 20
-332.37643615435172
 11
-884.51376083412185
 21
-332.37643615435172
  0
LINE
  5
3F0
100
AcDbEntity
  8
1
  6
CONTINUOUS
 62
             7
100
AcDbLine
 10
-884.51376083412185
 20
-330.37643615435172
 11
-872.01376083412185
 21
-330.37643615435172
  0
LINE
  5
3EF
100
AcDbEntity
  8
1
  6
CONTINUOUS
 62
             7
100
AcDbLine
 10
-845.51376083412185
 20
-326.87643615435172
 11
-833.01376083412185
 21
-326.87643615435172
  0
LINE
  5
3EE
100
AcDbEntity
  8
1
  6
CONTINUOUS
 62
             7
100
AcDbLine
 10
-833.01376083412185
 20
-328.87643615435172
 11
-845.51376083412185
 21
-328.87643615435172
  0
LINE
  5
3ED
100
AcDbEntity
  8
1
  6
CONTINUOUS
 62
             7
100
AcDbLine
 10
-852.51376083412185
 20
-328.87643615435172
 11
-865.01376083412185
 21
-328.87643615435172
  0
LINE
  5
3EC
100
AcDbEntity
  8
1
  6
CONTINUOUS
 62
             7
100
AcDbLine
 10
-865.01376083412185
 20
-326.87643615435172
 11
-852.51376083412185
 21
-326.87643615435172
  0
LINE
  5
3EB
100
AcDbEntity
  8
1
  6
CONTINUOUS
 62
             7
100
AcDbLine
 10
-865.01376083412185
 20
-330.37643615435172
 11
-852.51376083412185
 21
-330.37643615435172
  0
LINE
  5
3EA
100
AcDbEntity
  8
1
  6
CONTINUOUS
 62
             7
100
AcDbLine
 10
-852.51376083412185
 20
-332.37643615435172
 11
-865.01376083412185
 21
-332.37643615435172
  0
LINE
  5
3E9
100
AcDbEntity
  8
1
  6
CONTINUOUS
 62
             7
100
AcDbLine
 10
-884.51376083412185
 20
-326.87643615435172
 11
-872.01376083412185
 21
-326.87643615435172
  0
LINE
  5
3E8
100
AcDbEntity
  8
1
  6
CONTINUOUS
 62
             7
100
AcDbLine
 10
-872.01376083412185
 20
-328.87643615435172
 11
-884.51376083412185
 21
-328.87643615435172
  0
LINE
  5
3E7
100
AcDbEntity
  8
1
  6
CONTINUOUS
 62
             7
100
AcDbLine
 10
-804.01376083412185
 20
-247.37643615435169
 11
-804.51376083412185
 21
-246.87643615435169
  0
LINE
  5
3E6
100
AcDbEntity
  8
1
  6
CONTINUOUS
 62
             7
100
AcDbLine
 10
-804.01376083412185
 20
-334.37643615435172
 11
-804.51376083412185
 21
-334.87643615435172
  0
LINE
  5
3E5
100
AcDbEntity
  8
1
  6
CONTINUOUS
 62
             7
100
AcDbLine
 10
-816.51376083412185
 20
-336.37643615435172
 11
-815.01376083412185
 21
-334.87643615435172
  0
LINE
  5
3E4
100
AcDbEntity
  8
1
  6
CONTINUOUS
 62
             7
100
AcDbLine
 10
-815.01376083412185
 20
-246.87643615435169
 11
-816.51376083412185
 21
-245.37643615435169
  0
LINE
  5
3E3
100
AcDbEntity
  8
1
  6
CONTINUOUS
 62
             7
100
AcDbLine
 10
-816.51376083412185
 20
-336.37643615435172
 11
-904.01376083412185
 21
-336.37643615435172
  0
LINE
  5
3E2
100
AcDbEntity
  8
1
  6
CONTINUOUS
 62
             7
100
AcDbLine
 10
-904.01376083412185
 20
-245.37643615435169
 11
-902.01376083412185
 21
-245.37643615435169
  0
LINE
  5
3E1
100
AcDbEntity
  8
1
  6
CONTINUOUS
 62
             7
100
AcDbLine
 10
-914.31376083412204
 20
-243.87643615435169
 11
-914.01376083412185
 21
-244.17643615435159
  0
LINE
  5
3E0
100
AcDbEntity
  8
1
  6
CONTINUOUS
 62
             7
100
AcDbLine
 10
-914.31376083412204
 20
-337.87643615435172
 11
-914.01376083412185
 21
-337.57643615435171
  0
LINE
  5
3DF
100
AcDbEntity
  8
1
  6
CONTINUOUS
 62
             7
100
AcDbLine
 10
-914.31376083412204
 20
-338.87643615435172
 11
-909.01376083412185
 21
-338.87643615435172
  0
LINE
  5
3DE
100
AcDbEntity
  8
1
  6
CONTINUOUS
 62
             7
100
AcDbLine
 10
-914.31376083412204
 20
-242.87643615435169
 11
-909.01376083412185
 21
-242.87643615435169
  0
LINE
  5
3DD
100
AcDbEntity
  8
1
  6
CONTINUOUS
 62
             7
100
AcDbLine
 10
-909.01376083412185
 20
-338.87643615435172
 11
-909.01376083412185
 21
-242.87643615435169
  0
LINE
  5
3DC
100
AcDbEntity
  8
1
  6
CONTINUOUS
 62
             7
100
AcDbLine
 10
-914.31376083412204
 20
-337.87643615435172
 11
-914.31376083412204
 21
-338.87643615435172
  0
LINE
  5
3DB
100
AcDbEntity
  8
1
  6
CONTINUOUS
 62
             7
100
AcDbLine
 10
-909.01376083412185
 20
-338.87643615435172
 11
-904.01376083412185
 21
-338.87643615435172
  0
LINE
  5
3DA
100
AcDbEntity
  8
1
  6
CONTINUOUS
 62
             7
100
AcDbLine
 10
-914.31376083412204
 20
-243.87643615435169
 11
-914.31376083412204
 21
-242.87643615435169
  0
LINE
  5
3D9
100
AcDbEntity
  8
1
  6
CONTINUOUS
 62
             7
100
AcDbLine
 10
-909.01376083412185
 20
-242.87643615435169
 11
-904.01376083412185
 21
-242.87643615435169
  0
LINE
  5
3D8
100
AcDbEntity
  8
1
  6
CONTINUOUS
 62
             7
100
AcDbLine
 10
-811.51376083412185
 20
-249.55661589463881
 11
-811.51376083412185
 21
-256.59625641406461
  0
LINE
  5
3D7
100
AcDbEntity
  8
1
  6
CONTINUOUS
 62
             7
100
AcDbLine
 10
-811.51376083412185
 20
-257.95661589463879
 11
-811.51376083412185
 21
-264.99625641406459
  0
LINE
  5
3D6
100
AcDbEntity
  8
1
  6
CONTINUOUS
 62
             7
100
AcDbLine
 10
-811.51376083412185
 20
-266.35661589463888
 11
-811.51376083412185
 21
-273.39625641406462
  0
LINE
  5
3D5
100
AcDbEntity
  8
1
  6
CONTINUOUS
 62
             7
100
AcDbLine
 10
-811.51376083412185
 20
-274.75661589463891
 11
-811.51376083412185
 21
-281.7962564140646
  0
LINE
  5
3D4
100
AcDbEntity
  8
1
  6
CONTINUOUS
 62
             7
100
AcDbLine
 10
-811.51376083412185
 20
-283.15661589463878
 11
-811.51376083412185
 21
-290.19625641406458
  0
LINE
  5
3D3
100
AcDbEntity
  8
1
  6
CONTINUOUS
 62
             7
100
AcDbLine
 10
-811.51376083412185
 20
-291.55661589463881
 11
-811.51376083412185
 21
-298.59625641406461
  0
LINE
  5
3D2
100
AcDbEntity
  8
1
  6
CONTINUOUS
 62
             7
100
AcDbLine
 10
-811.51376083412185
 20
-299.95661589463879
 11
-811.51376083412185
 21
-306.9962564140647
  0
LINE
  5
3D1
100
AcDbEntity
  8
1
  6
CONTINUOUS
 62
             7
100
AcDbLine
 10
-811.51376083412185
 20
-308.35661589463888
 11
-811.51376083412185
 21
-315.39625641406462
  0
LINE
  5
3D0
100
AcDbEntity
  8
1
  6
CONTINUOUS
 62
             7
100
AcDbLine
 10
-811.51376083412185
 20
-316.75661589463891
 11
-811.51376083412185
 21
-323.79625641406449
  0
LINE
  5
3CF
100
AcDbEntity
  8
1
  6
CONTINUOUS
 62
             7
100
AcDbLine
 10
-811.51376083412185
 20
-325.15661589463878
 11
-811.51376083412185
 21
-332.19625641406452
  0
LINE
  5
3CE
100
AcDbEntity
  8
1
  6
CONTINUOUS
 62
             7
100
AcDbLine
 10
-902.01376083412185
 20
-245.87643615435169
 11
-902.01376083412185
 21
-245.37643615435169
  0
LINE
  5
3CD
100
AcDbEntity
  8
1
  6
CONTINUOUS
 62
             7
100
AcDbLine
 10
-902.01376083412185
 20
-245.37643615435169
 11
-891.01376083412185
 21
-245.37643615435169
  0
LINE
  5
3CC
100
AcDbEntity
  8
1
  6
CONTINUOUS
 62
             7
100
AcDbLine
 10
-902.01376083412185
 20
-245.87643615435169
 11
-891.01376083412185
 21
-245.87643615435169
  0
LINE
  5
3CB
100
AcDbEntity
  8
1
  6
CONTINUOUS
 62
             7
100
AcDbLine
 10
-891.01376083412185
 20
-245.87643615435169
 11
-891.01376083412185
 21
-245.37643615435169
  0
LINE
  5
3CA
100
AcDbEntity
  8
1
  6
CONTINUOUS
 62
             7
100
AcDbLine
 10
-891.01376083412185
 20
-245.37643615435169
 11
-816.51376083412185
 21
-245.37643615435169
  0
LINE
  5
3C9
100
AcDbEntity
  8
1
  6
CONTINUOUS
 62
             7
100
AcDbLine
 10
-909.2137608341219
 20
-337.4764361543518
 11
-909.2137608341219
 21
-244.2764361543517
  0
LINE
  5
3C8
100
AcDbEntity
  8
1
  6
CONTINUOUS
 62
             7
100
AcDbLine
 10
-909.2137608341219
 20
-244.2764361543517
 11
-909.2137608341219
 21
-242.87643615435169
  0
LINE
  5
3C7
100
AcDbEntity
  8
1
  6
CONTINUOUS
 62
             7
100
AcDbLine
 10
-909.2137608341219
 20
-338.87643615435172
 11
-909.2137608341219
 21
-337.4764361543518
  0
LINE
  5
3C6
100
AcDbEntity
  8
1
  6
CONTINUOUS
 62
             7
100
AcDbLine
 10
-914.01376083412197
 20
-243.67834239474939
 11
-914.01376083412197
 21
-338.07452991395411
  0
LINE
  5
3C5
100
AcDbEntity
  8
1
  6
CONTINUOUS
 62
             7
100
AcDbLine
 10
-909.2137608341219
 20
-338.87643615435172
 11
-913.548639070994
 21
-338.57331193908402
  0
LINE
  5
3C4
100
AcDbEntity
  8
1
  6
CONTINUOUS
 62
             7
100
AcDbLine
 10
-913.548639070994
 20
-243.17956036961951
 11
-909.2137608341219
 21
-242.87643615435169
  0
LINE
  5
3C3
100
AcDbEntity
  8
1
  6
CONTINUOUS
 62
             7
100
AcDbLine
 10
-1033.013760834122
 20
-335.37643615435172
 11
-1033.013760834122
 21
-246.37643615435169
  0
LINE
  5
3C2
100
AcDbEntity
  8
1
  6
CONTINUOUS
 62
             7
100
AcDbLine
 10
-941.01376083412197
 20
-335.37643615435172
 11
-1033.013760834122
 21
-335.37643615435172
  0
LINE
  5
3C1
100
AcDbEntity
  8
1
  6
CONTINUOUS
 62
             7
100
AcDbLine
 10
-941.01376083412197
 20
-246.37643615435169
 11
-941.01376083412197
 21
-335.37643615435172
  0
LINE
  5
3C0
100
AcDbEntity
  8
1
  6
CONTINUOUS
 62
             7
100
AcDbLine
 10
-1033.013760834122
 20
-246.37643615435169
 11
-941.01376083412197
 21
-246.37643615435169
  0
LINE
  5
3BF
100
AcDbEntity
  8
1
  6
CONTINUOUS
 62
             7
100
AcDbLine
 10
-939.01376083412197
 20
-243.87643615435169
 11
-939.01376083412197
 21
-337.87643615435172
  0
LINE
  5
3BE
100
AcDbEntity
  8
1
  6
CONTINUOUS
 62
             7
100
AcDbLine
 10
-1035.013760834122
 20
-337.87643615435172
 11
-1035.013760834122
 21
-243.87643615435169
  0
LINE
  5
3BD
100
AcDbEntity
  8
1
  6
CONTINUOUS
 62
             7
100
AcDbLine
 10
-940.01376083412197
 20
-338.87643615435172
 11
-981.51376083412197
 21
-338.87643615435172
  0
LINE
  5
3BC
100
AcDbEntity
  8
1
  6
CONTINUOUS
 62
             7
100
AcDbLine
 10
-1034.013760834122
 20
-242.87643615435169
 11
-992.51376083412197
 21
-242.87643615435169
  0
LINE
  5
3BB
100
AcDbEntity
  8
1
  6
CONTINUOUS
 62
             7
100
AcDbLine
 10
-992.51376083412197
 20
-244.2764361543517
 11
-989.51376083412197
 21
-244.2764361543517
  0
LINE
  5
3BA
100
AcDbEntity
  8
1
  6
CONTINUOUS
 62
             7
100
AcDbLine
 10
-981.51376083412197
 20
-244.2764361543517
 11
-981.51376083412197
 21
-242.87643615435169
  0
LINE
  5
3B9
100
AcDbEntity
  8
1
  6
CONTINUOUS
 62
             7
100
AcDbLine
 10
-992.51376083412197
 20
-244.2764361543517
 11
-992.51376083412197
 21
-242.87643615435169
  0
LINE
  5
3B8
100
AcDbEntity
  8
1
  6
CONTINUOUS
 62
             7
100
AcDbLine
 10
-989.51376083412197
 20
-244.2764361543517
 11
-984.51376083412197
 21
-244.2764361543517
  0
LINE
  5
3B7
100
AcDbEntity
  8
1
  6
CONTINUOUS
 62
             7
100
AcDbLine
 10
-984.51376083412197
 20
-244.2764361543517
 11
-981.51376083412197
 21
-244.2764361543517
  0
LINE
  5
3B6
100
AcDbEntity
  8
1
  6
CONTINUOUS
 62
             7
100
AcDbLine
 10
-981.51376083412197
 20
-337.4764361543518
 11
-984.51376083412197
 21
-337.4764361543518
  0
LINE
  5
3B5
100
AcDbEntity
  8
1
  6
CONTINUOUS
 62
             7
100
AcDbLine
 10
-984.51376083412197
 20
-337.4764361543518
 11
-989.51376083412197
 21
-337.4764361543518
  0
LINE
  5
3B4
100
AcDbEntity
  8
1
  6
CONTINUOUS
 62
             7
100
AcDbLine
 10
-992.51376083412197
 20
-338.87643615435172
 11
-992.51376083412185
 21
-337.4764361543518
  0
LINE
  5
3B3
100
AcDbEntity
  8
1
  6
CONTINUOUS
 62
             7
100
AcDbLine
 10
-981.51376083412197
 20
-338.87643615435172
 11
-981.51376083412197
 21
-337.4764361543518
  0
LINE
  5
3B2
100
AcDbEntity
  8
1
  6
CONTINUOUS
 62
             7
100
AcDbLine
 10
-989.51376083412197
 20
-337.4764361543518
 11
-992.51376083412185
 21
-337.4764361543518
  0
LINE
  5
3B1
100
AcDbEntity
  8
1
  6
CONTINUOUS
 62
             7
100
AcDbLine
 10
-981.51376083412197
 20
-242.87643615435169
 11
-940.01376083412197
 21
-242.87643615435169
  0
LINE
  5
3B0
100
AcDbEntity
  8
1
  6
CONTINUOUS
 62
             7
100
AcDbLine
 10
-992.51376083412197
 20
-338.87643615435172
 11
-1034.013760834122
 21
-338.87643615435172
  0
LINE
  5
3AF
100
AcDbEntity
  8
1
  6
CONTINUOUS
 62
             7
100
AcDbLine
 10
-992.51376083412197
 20
-242.87643615435169
 11
-981.51376083412197
 21
-242.87643615435169
  0
LINE
  5
3AE
100
AcDbEntity
  8
1
  6
CONTINUOUS
 62
             7
100
AcDbLine
 10
-992.51376083412197
 20
-338.87643615435172
 11
-981.51376083412197
 21
-338.87643615435172
  0
LINE
  5
3AD
100
AcDbEntity
  8
1
  6
CONTINUOUS
 62
             7
100
AcDbLine
 10
-960.01376083412185
 20
-265.37643615435172
 11
-967.01376083412185
 21
-265.37643615435172
  0
LINE
  5
3AC
100
AcDbEntity
  8
1
  6
CONTINUOUS
 62
             7
100
AcDbLine
 10
-968.01376083412197
 20
-264.37643615435172
 11
-968.01376083412185
 21
-254.37643615435169
  0
LINE
  5
3AB
100
AcDbEntity
  8
1
  6
CONTINUOUS
 62
             7
100
AcDbLine
 10
-967.01376083412174
 20
-253.37643615435169
 11
-960.01376083412185
 21
-253.37643615435169
  0
LINE
  5
3AA
100
AcDbEntity
  8
0
  6
CONTINUOUS
 62
             7
100
AcDbLine
 10
-965.60087609397385
 20
-255.37643615435169
 11
-965.19651040845656
 21
-255.0371330567734
  0
LINE
  5
3A9
100
AcDbEntity
  8
0
  6
CONTINUOUS
 62
             7
100
AcDbLine
 10
-966.39434750716202
 20
-259.87643615435172
 11
-967.01149193964159
 21
-263.37643615435172
  0
LINE
  5
3A8
100
AcDbEntity
  8
0
  6
CONTINUOUS
 62
             7
100
AcDbLine
 10
-967.01149193964159
 20
-263.37643615435172
 11
-966.75263902647464
 21
-263.68492504357198
  0
LINE
  5
3A7
100
AcDbEntity
  8
0
  6
CONTINUOUS
 62
             7
100
AcDbLine
 10
-960.01602972860235
 20
-255.37643615435169
 11
-960.63317416108191
 21
-258.87643615435172
  0
LINE
  5
3A6
100
AcDbEntity
  8
0
  6
CONTINUOUS
 62
             7
100
AcDbLine
 10
-960.63317416108191
 20
-258.87643615435172
 11
-961.03753984659932
 21
-259.21573925193007
  0
LINE
  5
3A5
100
AcDbEntity
  8
0
  6
CONTINUOUS
 62
             7
100
AcDbLine
 10
-960.80950114179041
 20
-259.87643615435172
 11
-961.42664557427008
 21
-263.37643615435172
  0
LINE
  5
3A4
100
AcDbEntity
  8
0
  6
CONTINUOUS
 62
             7
100
AcDbLine
 10
-961.42664557427008
 20
-263.37643615435172
 11
-961.83101125978737
 21
-263.71573925193007
  0
LINE
  5
3A3
100
AcDbEntity
  8
0
  6
CONTINUOUS
 62
             7
100
AcDbLine
 10
-966.1723923084644
 20
-264.37643615435172
 11
-962.61839916686426
 21
-264.37643615435172
  0
LINE
  5
3A2
100
AcDbEntity
  8
0
  6
CONTINUOUS
 62
             7
100
AcDbLine
 10
-962.61839916686426
 20
-264.37643615435172
 11
-962.21403348134686
 21
-264.03713305677343
  0
LINE
  5
3A1
100
AcDbEntity
  8
0
  6
CONTINUOUS
 62
             7
100
AcDbLine
 10
-960.85512935977954
 20
-254.37643615435169
 11
-964.40912250137967
 21
-254.37643615435169
  0
LINE
  5
3A0
100
AcDbEntity
  8
0
  6
CONTINUOUS
 62
             7
100
AcDbLine
 10
-964.40912250137967
 20
-254.37643615435169
 11
-964.81348818689708
 21
-254.7157392519301
  0
LINE
  5
39F
100
AcDbEntity
  8
0
  6
CONTINUOUS
 62
             7
100
AcDbLine
 10
-961.97495259530081
 20
-258.87643615435172
 11
-961.58125897058039
 21
-259.34562194599363
  0
LINE
  5
39E
100
AcDbEntity
  8
0
  6
CONTINUOUS
 62
             7
100
AcDbLine
 10
-961.58125897058039
 20
-259.34562194599363
 11
-962.21385871039126
 21
-259.87643615435172
  0
LINE
  5
39D
100
AcDbEntity
  8
0
  6
CONTINUOUS
 62
             7
100
AcDbLine
 10
-962.21385871039126
 20
-259.87643615435172
 11
-965.05256907294313
 21
-259.87643615435172
  0
LINE
  5
39C
100
AcDbEntity
  8
0
  6
CONTINUOUS
 62
             7
100
AcDbLine
 10
-961.97495259530081
 20
-258.87643615435172
 11
-964.81366295785267
 21
-258.87643615435172
  0
LINE
  5
39B
100
AcDbEntity
  8
0
  6
CONTINUOUS
 62
             7
100
AcDbLine
 10
-964.81366295785267
 20
-258.87643615435172
 11
-965.44626269766354
 21
-259.40725036270982
  0
LINE
  5
39A
100
AcDbEntity
  8
0
  6
CONTINUOUS
 62
             7
100
AcDbLine
 10
-965.44626269766354
 20
-259.40725036270982
 11
-965.05256907294313
 21
-259.87643615435172
  0
LINE
  5
399
100
AcDbEntity
  8
0
  6
CONTINUOUS
 62
             7
100
AcDbLine
 10
-965.60087609397385
 20
-255.37643615435169
 11
-966.2219821549055
 21
-258.8989036657677
  0
LINE
  5
398
100
AcDbEntity
  8
0
  6
CONTINUOUS
 62
             7
100
AcDbLine
 10
-965.98998182164462
 20
-259.53713305677343
 11
-965.43559129450273
 21
-260.19782995919502
  0
LINE
  5
397
100
AcDbEntity
  8
0
  6
CONTINUOUS
 62
             7
100
AcDbLine
 10
-965.98998182164462
 20
-259.53713305677343
 11
-966.39434750716202
 21
-259.87643615435172
  0
LINE
  5
396
100
AcDbEntity
  8
0
  6
CONTINUOUS
 62
             7
100
AcDbLine
 10
-965.13505676269597
 20
-258.49341393279218
 11
-965.96441332253937
 21
-259.1893267162713
  0
LINE
  5
395
100
AcDbEntity
  8
0
  6
CONTINUOUS
 62
             7
100
AcDbLine
 10
-965.96441332253937
 20
-259.1893267162713
 11
-966.2219821549055
 21
-258.8989036657677
  0
LINE
  5
394
100
AcDbEntity
  8
0
  6
CONTINUOUS
 62
             7
100
AcDbLine
 10
-961.59193037374121
 20
-258.55504234950843
 11
-961.03753984659932
 21
-259.21573925193007
  0
LINE
  5
393
100
AcDbEntity
  8
0
  6
CONTINUOUS
 62
             7
100
AcDbLine
 10
-961.59193037374121
 20
-258.55504234950843
 11
-961.09899349235991
 21
-255.75945837591121
  0
LINE
  5
392
100
AcDbEntity
  8
0
  6
CONTINUOUS
 62
             7
100
AcDbLine
 10
-961.89246490554797
 20
-260.25945837591121
 11
-961.06835405495735
 21
-259.56794726513152
  0
LINE
  5
391
100
AcDbEntity
  8
0
  6
CONTINUOUS
 62
             7
100
AcDbLine
 10
-961.06835405495735
 20
-259.56794726513152
 11
-960.80950114179041
 21
-259.87643615435172
  0
LINE
  5
390
100
AcDbEntity
  8
0
  6
CONTINUOUS
 62
             7
100
AcDbLine
 10
-965.92852817588403
 20
-262.99341393279218
 11
-966.75263902647464
 21
-263.68492504357198
  0
LINE
  5
38F
100
AcDbEntity
  8
0
  6
CONTINUOUS
 62
             7
100
AcDbLine
 10
-965.92852817588403
 20
-262.99341393279218
 11
-965.43559129450273
 21
-260.19782995919502
  0
LINE
  5
38E
100
AcDbEntity
  8
0
  6
CONTINUOUS
 62
             7
100
AcDbLine
 10
-965.60713437104073
 20
-263.37643615435172
 11
-966.43124522163134
 21
-264.06794726513152
  0
LINE
  5
38D
100
AcDbEntity
  8
0
  6
CONTINUOUS
 62
             7
100
AcDbLine
 10
-965.60713437104073
 20
-263.37643615435172
 11
-962.76842400848886
 21
-263.37643615435172
  0
LINE
  5
38C
100
AcDbEntity
  8
0
  6
CONTINUOUS
 62
             7
100
AcDbLine
 10
-966.43124522163134
 20
-264.06794726513152
 11
-966.1723923084644
 21
-264.37643615435172
  0
LINE
  5
38B
100
AcDbEntity
  8
0
  6
CONTINUOUS
 62
             7
100
AcDbLine
 10
-962.76842400848886
 20
-263.37643615435172
 11
-962.21403348134686
 21
-264.03713305677343
  0
LINE
  5
38A
100
AcDbEntity
  8
0
  6
CONTINUOUS
 62
             7
100
AcDbLine
 10
-962.38540178692938
 20
-263.05504234950843
 11
-961.83101125978737
 21
-263.71573925193007
  0
LINE
  5
389
100
AcDbEntity
  8
0
  6
CONTINUOUS
 62
             7
100
AcDbLine
 10
-962.38540178692938
 20
-263.05504234950843
 11
-961.89246490554797
 21
-260.25945837591121
  0
LINE
  5
388
100
AcDbEntity
  8
0
  6
CONTINUOUS
 62
             7
100
AcDbLine
 10
-965.19651040845656
 20
-255.0371330567734
 11
-964.64211988131456
 21
-255.69782995919499
  0
LINE
  5
387
100
AcDbEntity
  8
0
  6
CONTINUOUS
 62
             7
100
AcDbLine
 10
-964.64211988131456
 20
-255.69782995919499
 11
-965.13505676269597
 21
-258.49341393279218
  0
LINE
  5
386
100
AcDbEntity
  8
0
  6
CONTINUOUS
 62
             7
100
AcDbLine
 10
-964.25909765975507
 20
-255.37643615435169
 11
-964.81348818689708
 21
-254.7157392519301
  0
LINE
  5
385
100
AcDbEntity
  8
0
  6
CONTINUOUS
 62
             7
100
AcDbLine
 10
-964.25909765975507
 20
-255.37643615435169
 11
-961.42038729720321
 21
-255.37643615435169
  0
LINE
  5
384
100
AcDbEntity
  8
0
  6
CONTINUOUS
 62
             7
100
AcDbLine
 10
-961.42038729720321
 20
-255.37643615435169
 11
-960.59627644661259
 21
-254.68492504357201
  0
LINE
  5
383
100
AcDbEntity
  8
0
  6
CONTINUOUS
 62
             7
100
AcDbLine
 10
-960.59627644661259
 20
-254.68492504357201
 11
-960.85512935977954
 21
-254.37643615435169
  0
LINE
  5
382
100
AcDbEntity
  8
0
  6
CONTINUOUS
 62
             7
100
AcDbLine
 10
-960.2748826417693
 20
-255.06794726513149
 11
-961.09899349235991
 21
-255.75945837591121
  0
LINE
  5
381
100
AcDbEntity
  8
0
  6
CONTINUOUS
 62
             7
100
AcDbLine
 10
-960.2748826417693
 20
-255.06794726513149
 11
-960.01602972860235
 21
-255.37643615435169
  0
LINE
  5
380
100
AcDbEntity
  8
1
  6
CONTINUOUS
 62
             7
100
AcDbLine
 10
-959.01376083412185
 20
-254.37643615435169
 11
-959.01376083412185
 21
-264.37643615435172
  0
LINE
  5
37F
100
AcDbEntity
  8
0
  6
CONTINUOUS
 62
             7
100
AcDbLine
 10
-968.05693377427667
 20
-273.1664361543518
 11
-968.94033194762608
 21
-278.17643615435168
  0
LINE
  5
37E
100
AcDbEntity
  8
0
  6
CONTINUOUS
 62
             7
100
AcDbLine
 10
-968.94033194762608
 20
-278.17643615435168
 11
-968.57793786919217
 21
-278.60832059926008
  0
LINE
  5
37D
100
AcDbEntity
  8
0
  6
CONTINUOUS
 62
             7
100
AcDbLine
 10
-969.18718972061777
 20
-279.57643615435171
 11
-970.0705878939674
 21
-284.5864361543517
  0
LINE
  5
37C
100
AcDbEntity
  8
0
  6
CONTINUOUS
 62
             7
100
AcDbLine
 10
-970.0705878939674
 20
-284.5864361543517
 11
-969.70819381553349
 21
-285.01832059926022
  0
LINE
  5
37B
100
AcDbEntity
  8
0
  6
CONTINUOUS
 62
             7
100
AcDbLine
 10
-963.93904292359923
 20
-285.98643615435168
 11
-968.89584841031899
 21
-285.98643615435168
  0
LINE
  5
37A
100
AcDbEntity
  8
0
  6
CONTINUOUS
 62
             7
100
AcDbLine
 10
-968.89584841031899
 20
-285.98643615435168
 11
-969.2582424887529
 21
-285.55455170944339
  0
LINE
  5
379
100
AcDbEntity
  8
0
  6
CONTINUOUS
 62
             7
100
AcDbLine
 10
-961.38718972061804
 20
-279.57643615435171
 11
-962.27058789396722
 21
-284.5864361543517
  0
LINE
  5
378
100
AcDbEntity
  8
0
  6
CONTINUOUS
 62
             7
100
AcDbLine
 10
-961.14033194762612
 20
-278.17643615435168
 11
-960.25693377427649
 21
-273.1664361543518
  0
LINE
  5
377
100
AcDbEntity
  8
0
  6
CONTINUOUS
 62
             7
100
AcDbLine
 10
-960.25693377427649
 20
-273.1664361543518
 11
-960.6193278527104
 21
-272.73455170944339
  0
LINE
  5
376
100
AcDbEntity
  8
0
  6
CONTINUOUS
 62
             7
100
AcDbLine
 10
-961.4316732579249
 20
-271.76643615435171
 11
-966.38847874464489
 21
-271.76643615435171
  0
LINE
  5
375
100
AcDbEntity
  8
0
  6
CONTINUOUS
 62
             7
100
AcDbLine
 10
-966.38847874464489
 20
-271.76643615435171
 11
-966.95459070436902
 21
-272.24146049096152
  0
LINE
  5
374
100
AcDbEntity
  8
0
  6
CONTINUOUS
 62
             7
100
AcDbLine
 10
-962.48259064534921
 20
-277.7264848275712
 11
-961.70644390735049
 21
-278.65146049096131
  0
LINE
  5
373
100
AcDbEntity
  8
0
  6
CONTINUOUS
 62
             7
100
AcDbLine
 10
-961.70644390735049
 20
-278.65146049096131
 11
-961.14033194762612
 21
-278.17643615435168
  0
LINE
  5
372
100
AcDbEntity
  8
0
  6
CONTINUOUS
 62
             7
100
AcDbLine
 10
-963.01882175553226
 20
-278.17643615435168
 11
-962.46765068092407
 21
-278.83329626265038
  0
LINE
  5
371
100
AcDbEntity
  8
0
  6
CONTINUOUS
 62
             7
100
AcDbLine
 10
-962.46765068092407
 20
-278.83329626265038
 11
-963.35329031665913
 21
-279.57643615435171
  0
LINE
  5
370
100
AcDbEntity
  8
0
  6
CONTINUOUS
 62
             7
100
AcDbLine
 10
-963.35329031665913
 20
-279.57643615435171
 11
-967.30869991271163
 21
-279.57643615435171
  0
LINE
  5
36F
100
AcDbEntity
  8
0
  6
CONTINUOUS
 62
             7
100
AcDbLine
 10
-966.97423135158476
 20
-278.17643615435168
 11
-967.89606965453561
 21
-278.87643615435161
  0
LINE
  5
36E
100
AcDbEntity
  8
0
  6
CONTINUOUS
 62
             7
100
AcDbLine
 10
-966.97423135158476
 20
-278.17643615435168
 11
-963.01882175553226
 21
-278.17643615435168
  0
LINE
  5
36D
100
AcDbEntity
  8
0
  6
CONTINUOUS
 62
             7
100
AcDbLine
 10
-967.89606965453561
 20
-278.87643615435161
 11
-967.30869991271163
 21
-279.57643615435171
  0
LINE
  5
36C
100
AcDbEntity
  8
0
  6
CONTINUOUS
 62
             7
100
AcDbLine
 10
-967.42418267836536
 20
-277.64020504416851
 11
-968.57793786919217
 21
-278.60832059926008
  0
LINE
  5
36B
100
AcDbEntity
  8
0
  6
CONTINUOUS
 62
             7
100
AcDbLine
 10
-967.42418267836536
 20
-277.64020504416851
 11
-966.71467507655359
 21
-273.61638748113228
  0
LINE
  5
36A
100
AcDbEntity
  8
0
  6
CONTINUOUS
 62
             7
100
AcDbLine
 10
-968.62107776089363
 20
-279.10141181774202
 11
-967.84493102289468
 21
-280.0263874811323
  0
LINE
  5
369
100
AcDbEntity
  8
0
  6
CONTINUOUS
 62
             7
100
AcDbLine
 10
-968.62107776089363
 20
-279.10141181774202
 11
-969.18718972061777
 21
-279.57643615435171
  0
LINE
  5
368
100
AcDbEntity
  8
0
  6
CONTINUOUS
 62
             7
100
AcDbLine
 10
-961.74958379905172
 20
-279.14455170944342
 11
-962.90333898987853
 21
-280.11266726453488
  0
LINE
  5
367
100
AcDbEntity
  8
0
  6
CONTINUOUS
 62
             7
100
AcDbLine
 10
-961.74958379905172
 20
-279.14455170944342
 11
-961.38718972061804
 21
-279.57643615435171
  0
LINE
  5
366
100
AcDbEntity
  8
0
  6
CONTINUOUS
 62
             7
100
AcDbLine
 10
-961.06927917949099
 20
-272.19832059926011
 11
-962.22303437031781
 21
-273.1664361543518
  0
LINE
  5
365
100
AcDbEntity
  8
0
  6
CONTINUOUS
 62
             7
100
AcDbLine
 10
-961.06927917949099
 20
-272.19832059926011
 11
-961.4316732579249
 21
-271.76643615435171
  0
LINE
  5
364
100
AcDbEntity
  8
0
  6
CONTINUOUS
 62
             7
100
AcDbLine
 10
-960.6193278527104
 20
-272.73455170944339
 11
-961.77308304353721
 21
-273.70266726453502
  0
LINE
  5
363
100
AcDbEntity
  8
0
  6
CONTINUOUS
 62
             7
100
AcDbLine
 10
-961.77308304353721
 20
-273.70266726453502
 11
-962.48259064534921
 21
-277.7264848275712
  0
LINE
  5
362
100
AcDbEntity
  8
0
  6
CONTINUOUS
 62
             7
100
AcDbLine
 10
-966.95459070436902
 20
-272.24146049096152
 11
-966.17844396637031
 21
-273.1664361543518
  0
LINE
  5
361
100
AcDbEntity
  8
0
  6
CONTINUOUS
 62
             7
100
AcDbLine
 10
-966.17844396637031
 20
-273.1664361543518
 11
-962.22303437031781
 21
-273.1664361543518
  0
LINE
  5
360
100
AcDbEntity
  8
0
  6
CONTINUOUS
 62
             7
100
AcDbLine
 10
-967.49082181455231
 20
-272.69141181774211
 11
-966.71467507655359
 21
-273.61638748113228
  0
LINE
  5
35F
100
AcDbEntity
  8
0
  6
CONTINUOUS
 62
             7
100
AcDbLine
 10
-967.49082181455231
 20
-272.69141181774211
 11
-968.05693377427667
 21
-273.1664361543518
  0
LINE
  5
35E
100
AcDbEntity
  8
0
  6
CONTINUOUS
 62
             7
100
AcDbLine
 10
-969.70819381553349
 20
-285.01832059926022
 11
-968.55443862470668
 21
-284.05020504416842
  0
LINE
  5
35D
100
AcDbEntity
  8
0
  6
CONTINUOUS
 62
             7
100
AcDbLine
 10
-968.55443862470668
 20
-284.05020504416842
 11
-967.84493102289468
 21
-280.0263874811323
  0
LINE
  5
35C
100
AcDbEntity
  8
0
  6
CONTINUOUS
 62
             7
100
AcDbLine
 10
-968.10448729792608
 20
-284.5864361543517
 11
-969.2582424887529
 21
-285.55455170944339
  0
LINE
  5
35B
100
AcDbEntity
  8
0
  6
CONTINUOUS
 62
             7
100
AcDbLine
 10
-968.10448729792608
 20
-284.5864361543517
 11
-964.14907770187381
 21
-284.5864361543517
  0
LINE
  5
35A
100
AcDbEntity
  8
0
  6
CONTINUOUS
 62
             7
100
AcDbLine
 10
-964.14907770187381
 20
-284.5864361543517
 11
-963.37293096387486
 21
-285.51141181774199
  0
LINE
  5
359
100
AcDbEntity
  8
0
  6
CONTINUOUS
 62
             7
100
AcDbLine
 10
-963.37293096387486
 20
-285.51141181774199
 11
-963.93904292359923
 21
-285.98643615435168
  0
LINE
  5
358
100
AcDbEntity
  8
0
  6
CONTINUOUS
 62
             7
100
AcDbLine
 10
-962.83669985369158
 20
-285.06146049096151
 11
-963.6128465916903
 21
-284.13648482757122
  0
LINE
  5
357
100
AcDbEntity
  8
0
  6
CONTINUOUS
 62
             7
100
AcDbLine
 10
-962.83669985369158
 20
-285.06146049096151
 11
-962.27058789396722
 21
-284.5864361543517
  0
LINE
  5
356
100
AcDbEntity
  8
0
  6
CONTINUOUS
 62
             7
100
AcDbLine
 10
-963.6128465916903
 20
-284.13648482757122
 11
-962.90333898987853
 21
-280.11266726453488
  0
LINE
  5
355
100
AcDbEntity
  8
0
  6
CONTINUOUS
 62
             7
100
AcDbLine
 10
-976.31284659169035
 20
-284.13648482757122
 11
-975.60333898987835
 21
-280.11266726453488
  0
LINE
  5
354
100
AcDbEntity
  8
0
  6
CONTINUOUS
 62
             7
100
AcDbLine
 10
-975.53669985369163
 20
-285.06146049096151
 11
-974.97058789396726
 21
-284.5864361543517
  0
LINE
  5
353
100
AcDbEntity
  8
0
  6
CONTINUOUS
 62
             7
100
AcDbLine
 10
-975.53669985369163
 20
-285.06146049096151
 11
-976.31284659169035
 21
-284.13648482757122
  0
LINE
  5
352
100
AcDbEntity
  8
0
  6
CONTINUOUS
 62
             7
100
AcDbLine
 10
-976.07293096387491
 20
-285.51141181774199
 11
-976.63904292359928
 21
-285.98643615435168
  0
LINE
  5
351
100
AcDbEntity
  8
0
  6
CONTINUOUS
 62
             7
100
AcDbLine
 10
-976.84907770187363
 20
-284.5864361543517
 11
-976.07293096387491
 21
-285.51141181774199
  0
LINE
  5
350
100
AcDbEntity
  8
0
  6
CONTINUOUS
 62
             7
100
AcDbLine
 10
-980.80448729792613
 20
-284.5864361543517
 11
-976.84907770187363
 21
-284.5864361543517
  0
LINE
  5
34F
100
AcDbEntity
  8
0
  6
CONTINUOUS
 62
             7
100
AcDbLine
 10
-980.80448729792613
 20
-284.5864361543517
 11
-981.95824248875294
 21
-285.55455170944339
  0
LINE
  5
34E
100
AcDbEntity
  8
0
  6
CONTINUOUS
 62
             7
100
AcDbLine
 10
-981.25443862470672
 20
-284.05020504416842
 11
-980.54493102289496
 21
-280.0263874811323
  0
LINE
  5
34D
100
AcDbEntity
  8
0
  6
CONTINUOUS
 62
             7
100
AcDbLine
 10
-982.40819381553354
 20
-285.01832059926022
 11
-981.25443862470672
 21
-284.05020504416842
  0
LINE
  5
34C
100
AcDbEntity
  8
0
  6
CONTINUOUS
 62
             7
100
AcDbLine
 10
-980.19082181455235
 20
-272.69141181774211
 11
-980.75693377427649
 21
-273.1664361543518
  0
LINE
  5
34B
100
AcDbEntity
  8
0
  6
CONTINUOUS
 62
             7
100
AcDbLine
 10
-980.19082181455235
 20
-272.69141181774211
 11
-979.41467507655341
 21
-273.61638748113228
  0
LINE
  5
34A
100
AcDbEntity
  8
0
  6
CONTINUOUS
 62
             7
100
AcDbLine
 10
-978.87844396637036
 20
-273.1664361543518
 11
-974.92303437031785
 21
-273.1664361543518
  0
LINE
  5
349
100
AcDbEntity
  8
0
  6
CONTINUOUS
 62
             7
100
AcDbLine
 10
-979.65459070436907
 20
-272.24146049096152
 11
-978.87844396637036
 21
-273.1664361543518
  0
LINE
  5
348
100
AcDbEntity
  8
0
  6
CONTINUOUS
 62
             7
100
AcDbLine
 10
-974.47308304353726
 20
-273.70266726453502
 11
-975.18259064534902
 21
-277.7264848275712
  0
LINE
  5
347
100
AcDbEntity
  8
0
  6
CONTINUOUS
 62
             7
100
AcDbLine
 10
-973.31932785271044
 20
-272.73455170944339
 11
-974.47308304353726
 21
-273.70266726453502
  0
LINE
  5
346
100
AcDbEntity
  8
0
  6
CONTINUOUS
 62
             7
100
AcDbLine
 10
-973.76927917949104
 20
-272.19832059926011
 11
-974.13167325792472
 21
-271.76643615435171
  0
LINE
  5
345
100
AcDbEntity
  8
0
  6
CONTINUOUS
 62
             7
100
AcDbLine
 10
-973.76927917949104
 20
-272.19832059926011
 11
-974.92303437031785
 21
-273.1664361543518
  0
LINE
  5
344
100
AcDbEntity
  8
0
  6
CONTINUOUS
 62
             7
100
AcDbLine
 10
-974.44958379905154
 20
-279.14455170944342
 11
-974.08718972061786
 21
-279.57643615435171
  0
LINE
  5
343
100
AcDbEntity
  8
0
  6
CONTINUOUS
 62
             7
100
AcDbLine
 10
-974.44958379905154
 20
-279.14455170944342
 11
-975.60333898987835
 21
-280.11266726453488
  0
LINE
  5
342
100
AcDbEntity
  8
0
  6
CONTINUOUS
 62
             7
100
AcDbLine
 10
-981.32107776089367
 20
-279.10141181774202
 11
-981.88718972061804
 21
-279.57643615435171
  0
LINE
  5
341
100
AcDbEntity
  8
0
  6
CONTINUOUS
 62
             7
100
AcDbLine
 10
-981.32107776089367
 20
-279.10141181774202
 11
-980.54493102289496
 21
-280.0263874811323
  0
LINE
  5
340
100
AcDbEntity
  8
0
  6
CONTINUOUS
 62
             7
100
AcDbLine
 10
-980.1241826783654
 20
-277.64020504416851
 11
-979.41467507655341
 21
-273.61638748113228
  0
LINE
  5
33F
100
AcDbEntity
  8
0
  6
CONTINUOUS
 62
             7
100
AcDbLine
 10
-980.1241826783654
 20
-277.64020504416851
 11
-981.27793786919221
 21
-278.60832059926008
  0
LINE
  5
33E
100
AcDbEntity
  8
0
  6
CONTINUOUS
 62
             7
100
AcDbLine
 10
-980.59606965453565
 20
-278.87643615435161
 11
-980.00869991271145
 21
-279.57643615435171
  0
LINE
  5
33D
100
AcDbEntity
  8
0
  6
CONTINUOUS
 62
             7
100
AcDbLine
 10
-979.67423135158481
 20
-278.17643615435168
 11
-975.71882175553253
 21
-278.17643615435168
  0
LINE
  5
33C
100
AcDbEntity
  8
0
  6
CONTINUOUS
 62
             7
100
AcDbLine
 10
-979.67423135158481
 20
-278.17643615435168
 11
-980.59606965453565
 21
-278.87643615435161
  0
LINE
  5
33B
100
AcDbEntity
  8
0
  6
CONTINUOUS
 62
             7
100
AcDbLine
 10
-976.05329031665894
 20
-279.57643615435171
 11
-980.00869991271145
 21
-279.57643615435171
  0
LINE
  5
33A
100
AcDbEntity
  8
0
  6
CONTINUOUS
 62
             7
100
AcDbLine
 10
-975.16765068092388
 20
-278.83329626265038
 11
-976.05329031665894
 21
-279.57643615435171
  0
LINE
  5
339
100
AcDbEntity
  8
0
  6
CONTINUOUS
 62
             7
100
AcDbLine
 10
-975.71882175553253
 20
-278.17643615435168
 11
-975.16765068092388
 21
-278.83329626265038
  0
LINE
  5
338
100
AcDbEntity
  8
0
  6
CONTINUOUS
 62
             7
100
AcDbLine
 10
-974.40644390735031
 20
-278.65146049096131
 11
-973.84033194762594
 21
-278.17643615435168
  0
LINE
  5
337
100
AcDbEntity
  8
0
  6
CONTINUOUS
 62
             7
100
AcDbLine
 10
-975.18259064534902
 20
-277.7264848275712
 11
-974.40644390735031
 21
-278.65146049096131
  0
LINE
  5
336
100
AcDbEntity
  8
0
  6
CONTINUOUS
 62
             7
100
AcDbLine
 10
-979.0884787446447
 20
-271.76643615435171
 11
-979.65459070436907
 21
-272.24146049096152
  0
LINE
  5
335
100
AcDbEntity
  8
0
  6
CONTINUOUS
 62
             7
100
AcDbLine
 10
-974.13167325792472
 20
-271.76643615435171
 11
-979.0884787446447
 21
-271.76643615435171
  0
LINE
  5
334
100
AcDbEntity
  8
0
  6
CONTINUOUS
 62
             7
100
AcDbLine
 10
-972.95693377427676
 20
-273.1664361543518
 11
-973.31932785271044
 21
-272.73455170944339
  0
LINE
  5
333
100
AcDbEntity
  8
0
  6
CONTINUOUS
 62
             7
100
AcDbLine
 10
-973.84033194762594
 20
-278.17643615435168
 11
-972.95693377427676
 21
-273.1664361543518
  0
LINE
  5
332
100
AcDbEntity
  8
0
  6
CONTINUOUS
 62
             7
100
AcDbLine
 10
-974.08718972061786
 20
-279.57643615435171
 11
-974.97058789396726
 21
-284.5864361543517
  0
LINE
  5
331
100
AcDbEntity
  8
0
  6
CONTINUOUS
 62
             7
100
AcDbLine
 10
-981.59584841031926
 20
-285.98643615435168
 11
-981.95824248875294
 21
-285.55455170944339
  0
LINE
  5
330
100
AcDbEntity
  8
0
  6
CONTINUOUS
 62
             7
100
AcDbLine
 10
-976.63904292359928
 20
-285.98643615435168
 11
-981.59584841031926
 21
-285.98643615435168
  0
LINE
  5
32F
100
AcDbEntity
  8
0
  6
CONTINUOUS
 62
             7
100
AcDbLine
 10
-982.77058789396722
 20
-284.5864361543517
 11
-982.40819381553354
 21
-285.01832059926022
  0
LINE
  5
32E
100
AcDbEntity
  8
0
  6
CONTINUOUS
 62
             7
100
AcDbLine
 10
-981.88718972061804
 20
-279.57643615435171
 11
-982.77058789396722
 21
-284.5864361543517
  0
LINE
  5
32D
100
AcDbEntity
  8
0
  6
CONTINUOUS
 62
             7
100
AcDbLine
 10
-981.64033194762612
 20
-278.17643615435168
 11
-981.27793786919221
 21
-278.60832059926008
  0
LINE
  5
32C
100
AcDbEntity
  8
0
  6
CONTINUOUS
 62
             7
100
AcDbLine
 10
-980.75693377427649
 20
-273.1664361543518
 11
-981.64033194762612
 21
-278.17643615435168
  0
LINE
  5
32B
100
AcDbEntity
  8
0
  6
CONTINUOUS
 62
             7
100
AcDbLine
 10
-1006.2569337742769
 20
-273.1664361543518
 11
-1007.140331947626
 21
-278.17643615435168
  0
LINE
  5
32A
100
AcDbEntity
  8
0
  6
CONTINUOUS
 62
             7
100
AcDbLine
 10
-1007.140331947626
 20
-278.17643615435168
 11
-1006.777937869192
 21
-278.60832059926008
  0
LINE
  5
329
100
AcDbEntity
  8
0
  6
CONTINUOUS
 62
             7
100
AcDbLine
 10
-1007.387189720618
 20
-279.57643615435171
 11
-1008.270587893967
 21
-284.5864361543517
  0
LINE
  5
328
100
AcDbEntity
  8
0
  6
CONTINUOUS
 62
             7
100
AcDbLine
 10
-1008.270587893967
 20
-284.5864361543517
 11
-1007.908193815534
 21
-285.01832059926022
  0
LINE
  5
327
100
AcDbEntity
  8
0
  6
CONTINUOUS
 62
             7
100
AcDbLine
 10
-1002.139042923599
 20
-285.98643615435168
 11
-1007.095848410319
 21
-285.98643615435168
  0
LINE
  5
326
100
AcDbEntity
  8
0
  6
CONTINUOUS
 62
             7
100
AcDbLine
 10
-1007.095848410319
 20
-285.98643615435168
 11
-1007.4582424887529
 21
-285.55455170944339
  0
LINE
  5
325
100
AcDbEntity
  8
0
  6
CONTINUOUS
 62
             7
100
AcDbLine
 10
-999.58718972061797
 20
-279.57643615435171
 11
-1000.470587893967
 21
-284.5864361543517
  0
LINE
  5
324
100
AcDbEntity
  8
0
  6
CONTINUOUS
 62
             7
100
AcDbLine
 10
-999.34033194762594
 20
-278.17643615435168
 11
-998.45693377427676
 21
-273.1664361543518
  0
LINE
  5
323
100
AcDbEntity
  8
0
  6
CONTINUOUS
 62
             7
100
AcDbLine
 10
-998.45693377427676
 20
-273.1664361543518
 11
-998.81932785271044
 21
-272.73455170944339
  0
LINE
  5
322
100
AcDbEntity
  8
0
  6
CONTINUOUS
 62
             7
100
AcDbLine
 10
-999.63167325792494
 20
-271.76643615435171
 11
-1004.588478744645
 21
-271.76643615435171
  0
LINE
  5
321
100
AcDbEntity
  8
0
  6
CONTINUOUS
 62
             7
100
AcDbLine
 10
-1004.588478744645
 20
-271.76643615435171
 11
-1005.154590704369
 21
-272.24146049096152
  0
LINE
  5
320
100
AcDbEntity
  8
0
  6
CONTINUOUS
 62
             7
100
AcDbLine
 10
-1000.682590645349
 20
-277.7264848275712
 11
-999.90644390734997
 21
-278.65146049096131
  0
LINE
  5
31F
100
AcDbEntity
  8
0
  6
CONTINUOUS
 62
             7
100
AcDbLine
 10
-999.90644390734997
 20
-278.65146049096131
 11
-999.34033194762594
 21
-278.17643615435168
  0
LINE
  5
31E
100
AcDbEntity
  8
0
  6
CONTINUOUS
 62
             7
100
AcDbLine
 10
-1001.218821755533
 20
-278.17643615435168
 11
-1000.667650680924
 21
-278.83329626265038
  0
LINE
  5
31D
100
AcDbEntity
  8
0
  6
CONTINUOUS
 62
             7
100
AcDbLine
 10
-1000.667650680924
 20
-278.83329626265038
 11
-1001.5532903166589
 21
-279.57643615435171
  0
LINE
  5
31C
100
AcDbEntity
  8
0
  6
CONTINUOUS
 62
             7
100
AcDbLine
 10
-1001.5532903166589
 20
-279.57643615435171
 11
-1005.508699912711
 21
-279.57643615435171
  0
LINE
  5
31B
100
AcDbEntity
  8
0
  6
CONTINUOUS
 62
             7
100
AcDbLine
 10
-1005.174231351585
 20
-278.17643615435168
 11
-1006.096069654536
 21
-278.87643615435161
  0
LINE
  5
31A
100
AcDbEntity
  8
0
  6
CONTINUOUS
 62
             7
100
AcDbLine
 10
-1005.174231351585
 20
-278.17643615435168
 11
-1001.218821755533
 21
-278.17643615435168
  0
LINE
  5
319
100
AcDbEntity
  8
0
  6
CONTINUOUS
 62
             7
100
AcDbLine
 10
-1006.096069654536
 20
-278.87643615435161
 11
-1005.508699912711
 21
-279.57643615435171
  0
LINE
  5
318
100
AcDbEntity
  8
0
  6
CONTINUOUS
 62
             7
100
AcDbLine
 10
-1005.6241826783649
 20
-277.64020504416851
 11
-1006.777937869192
 21
-278.60832059926008
  0
LINE
  5
317
100
AcDbEntity
  8
0
  6
CONTINUOUS
 62
             7
100
AcDbLine
 10
-1005.6241826783649
 20
-277.64020504416851
 11
-1004.914675076553
 21
-273.61638748113228
  0
LINE
  5
316
100
AcDbEntity
  8
0
  6
CONTINUOUS
 62
             7
100
AcDbLine
 10
-1006.821077760894
 20
-279.10141181774202
 11
-1006.044931022895
 21
-280.0263874811323
  0
LINE
  5
315
100
AcDbEntity
  8
0
  6
CONTINUOUS
 62
             7
100
AcDbLine
 10
-1006.821077760894
 20
-279.10141181774202
 11
-1007.387189720618
 21
-279.57643615435171
  0
LINE
  5
314
100
AcDbEntity
  8
0
  6
CONTINUOUS
 62
             7
100
AcDbLine
 10
-999.94958379905199
 20
-279.14455170944342
 11
-1001.103338989878
 21
-280.11266726453488
  0
LINE
  5
313
100
AcDbEntity
  8
0
  6
CONTINUOUS
 62
             7
100
AcDbLine
 10
-999.94958379905199
 20
-279.14455170944342
 11
-999.58718972061797
 21
-279.57643615435171
  0
LINE
  5
312
100
AcDbEntity
  8
0
  6
CONTINUOUS
 62
             7
100
AcDbLine
 10
-999.26927917949104
 20
-272.19832059926011
 11
-1000.423034370318
 21
-273.1664361543518
  0
LINE
  5
311
100
AcDbEntity
  8
0
  6
CONTINUOUS
 62
             7
100
AcDbLine
 10
-999.26927917949104
 20
-272.19832059926011
 11
-999.63167325792494
 21
-271.76643615435171
  0
LINE
  5
310
100
AcDbEntity
  8
0
  6
CONTINUOUS
 62
             7
100
AcDbLine
 10
-998.81932785271044
 20
-272.73455170944339
 11
-999.97308304353703
 21
-273.70266726453502
  0
LINE
  5
30F
100
AcDbEntity
  8
0
  6
CONTINUOUS
 62
             7
100
AcDbLine
 10
-999.97308304353703
 20
-273.70266726453502
 11
-1000.682590645349
 21
-277.7264848275712
  0
LINE
  5
30E
100
AcDbEntity
  8
0
  6
CONTINUOUS
 62
             7
100
AcDbLine
 10
-1005.154590704369
 20
-272.24146049096152
 11
-1004.37844396637
 21
-273.1664361543518
  0
LINE
  5
30D
100
AcDbEntity
  8
0
  6
CONTINUOUS
 62
             7
100
AcDbLine
 10
-1004.37844396637
 20
-273.1664361543518
 11
-1000.423034370318
 21
-273.1664361543518
  0
LINE
  5
30C
100
AcDbEntity
  8
0
  6
CONTINUOUS
 62
             7
100
AcDbLine
 10
-1005.690821814552
 20
-272.69141181774211
 11
-1004.914675076553
 21
-273.61638748113228
  0
LINE
  5
30B
100
AcDbEntity
  8
0
  6
CONTINUOUS
 62
             7
100
AcDbLine
 10
-1005.690821814552
 20
-272.69141181774211
 11
-1006.2569337742769
 21
-273.1664361543518
  0
LINE
  5
30A
100
AcDbEntity
  8
0
  6
CONTINUOUS
 62
             7
100
AcDbLine
 10
-1007.908193815534
 20
-285.01832059926022
 11
-1006.7544386247069
 21
-284.05020504416842
  0
LINE
  5
309
100
AcDbEntity
  8
0
  6
CONTINUOUS
 62
             7
100
AcDbLine
 10
-1006.7544386247069
 20
-284.05020504416842
 11
-1006.044931022895
 21
-280.0263874811323
  0
LINE
  5
308
100
AcDbEntity
  8
0
  6
CONTINUOUS
 62
             7
100
AcDbLine
 10
-1006.304487297926
 20
-284.5864361543517
 11
-1007.4582424887529
 21
-285.55455170944339
  0
LINE
  5
307
100
AcDbEntity
  8
0
  6
CONTINUOUS
 62
             7
100
AcDbLine
 10
-1006.304487297926
 20
-284.5864361543517
 11
-1002.349077701874
 21
-284.5864361543517
  0
LINE
  5
306
100
AcDbEntity
  8
0
  6
CONTINUOUS
 62
             7
100
AcDbLine
 10
-1002.349077701874
 20
-284.5864361543517
 11
-1001.572930963875
 21
-285.51141181774199
  0
LINE
  5
305
100
AcDbEntity
  8
0
  6
CONTINUOUS
 62
             7
100
AcDbLine
 10
-1001.572930963875
 20
-285.51141181774199
 11
-1002.139042923599
 21
-285.98643615435168
  0
LINE
  5
304
100
AcDbEntity
  8
0
  6
CONTINUOUS
 62
             7
100
AcDbLine
 10
-1001.036699853692
 20
-285.06146049096151
 11
-1001.81284659169
 21
-284.13648482757122
  0
LINE
  5
303
100
AcDbEntity
  8
0
  6
CONTINUOUS
 62
             7
100
AcDbLine
 10
-1001.036699853692
 20
-285.06146049096151
 11
-1000.470587893967
 21
-284.5864361543517
  0
LINE
  5
302
100
AcDbEntity
  8
0
  6
CONTINUOUS
 62
             7
100
AcDbLine
 10
-1001.81284659169
 20
-284.13648482757122
 11
-1001.103338989878
 21
-280.11266726453488
  0
LINE
  5
301
100
AcDbEntity
  8
0
  6
CONTINUOUS
 62
             7
100
AcDbLine
 10
-989.1128465916903
 20
-284.13648482757122
 11
-988.40333898987853
 21
-280.11266726453488
  0
LINE
  5
300
100
AcDbEntity
  8
0
  6
CONTINUOUS
 62
             7
100
AcDbLine
 10
-988.33669985369158
 20
-285.06146049096151
 11
-987.77058789396722
 21
-284.5864361543517
  0
LINE
  5
2FF
100
AcDbEntity
  8
0
  6
CONTINUOUS
 62
             7
100
AcDbLine
 10
-988.33669985369158
 20
-285.06146049096151
 11
-989.1128465916903
 21
-284.13648482757122
  0
LINE
  5
2FE
100
AcDbEntity
  8
0
  6
CONTINUOUS
 62
             7
100
AcDbLine
 10
-988.87293096387486
 20
-285.51141181774199
 11
-989.43904292359923
 21
-285.98643615435168
  0
LINE
  5
2FD
100
AcDbEntity
  8
0
  6
CONTINUOUS
 62
             7
100
AcDbLine
 10
-989.64907770187381
 20
-284.5864361543517
 11
-988.87293096387486
 21
-285.51141181774199
  0
LINE
  5
2FC
100
AcDbEntity
  8
0
  6
CONTINUOUS
 62
             7
100
AcDbLine
 10
-993.60448729792608
 20
-284.5864361543517
 11
-989.64907770187381
 21
-284.5864361543517
  0
LINE
  5
2FB
100
AcDbEntity
  8
0
  6
CONTINUOUS
 62
             7
100
AcDbLine
 10
-993.60448729792608
 20
-284.5864361543517
 11
-994.7582424887529
 21
-285.55455170944339
  0
LINE
  5
2FA
100
AcDbEntity
  8
0
  6
CONTINUOUS
 62
             7
100
AcDbLine
 10
-994.05443862470668
 20
-284.05020504416842
 11
-993.34493102289468
 21
-280.0263874811323
  0
LINE
  5
2F9
100
AcDbEntity
  8
0
  6
CONTINUOUS
 62
             7
100
AcDbLine
 10
-995.20819381553349
 20
-285.01832059926022
 11
-994.05443862470668
 21
-284.05020504416842
  0
LINE
  5
2F8
100
AcDbEntity
  8
0
  6
CONTINUOUS
 62
             7
100
AcDbLine
 10
-992.99082181455231
 20
-272.69141181774211
 11
-993.55693377427667
 21
-273.1664361543518
  0
LINE
  5
2F7
100
AcDbEntity
  8
0
  6
CONTINUOUS
 62
             7
100
AcDbLine
 10
-992.99082181455231
 20
-272.69141181774211
 11
-992.21467507655359
 21
-273.61638748113228
  0
LINE
  5
2F6
100
AcDbEntity
  8
0
  6
CONTINUOUS
 62
             7
100
AcDbLine
 10
-991.67844396637031
 20
-273.1664361543518
 11
-987.72303437031781
 21
-273.1664361543518
  0
LINE
  5
2F5
100
AcDbEntity
  8
0
  6
CONTINUOUS
 62
             7
100
AcDbLine
 10
-992.45459070436902
 20
-272.24146049096152
 11
-991.67844396637031
 21
-273.1664361543518
  0
LINE
  5
2F4
100
AcDbEntity
  8
0
  6
CONTINUOUS
 62
             7
100
AcDbLine
 10
-987.27308304353721
 20
-273.70266726453502
 11
-987.98259064534921
 21
-277.7264848275712
  0
LINE
  5
2F3
100
AcDbEntity
  8
0
  6
CONTINUOUS
 62
             7
100
AcDbLine
 10
-986.1193278527104
 20
-272.73455170944339
 11
-987.27308304353721
 21
-273.70266726453502
  0
LINE
  5
2F2
100
AcDbEntity
  8
0
  6
CONTINUOUS
 62
             7
100
AcDbLine
 10
-986.56927917949099
 20
-272.19832059926011
 11
-986.9316732579249
 21
-271.76643615435171
  0
LINE
  5
2F1
100
AcDbEntity
  8
0
  6
CONTINUOUS
 62
             7
100
AcDbLine
 10
-986.56927917949099
 20
-272.19832059926011
 11
-987.72303437031781
 21
-273.1664361543518
  0
LINE
  5
2F0
100
AcDbEntity
  8
0
  6
CONTINUOUS
 62
             7
100
AcDbLine
 10
-987.24958379905172
 20
-279.14455170944342
 11
-986.88718972061804
 21
-279.57643615435171
  0
LINE
  5
2EF
100
AcDbEntity
  8
0
  6
CONTINUOUS
 62
             7
100
AcDbLine
 10
-987.24958379905172
 20
-279.14455170944342
 11
-988.40333898987853
 21
-280.11266726453488
  0
LINE
  5
2EE
100
AcDbEntity
  8
0
  6
CONTINUOUS
 62
             7
100
AcDbLine
 10
-994.12107776089363
 20
-279.10141181774202
 11
-994.68718972061777
 21
-279.57643615435171
  0
LINE
  5
2ED
100
AcDbEntity
  8
0
  6
CONTINUOUS
 62
             7
100
AcDbLine
 10
-994.12107776089363
 20
-279.10141181774202
 11
-993.34493102289468
 21
-280.0263874811323
  0
LINE
  5
2EC
100
AcDbEntity
  8
0
  6
CONTINUOUS
 62
             7
100
AcDbLine
 10
-992.92418267836536
 20
-277.64020504416851
 11
-992.21467507655359
 21
-273.61638748113228
  0
LINE
  5
2EB
100
AcDbEntity
  8
0
  6
CONTINUOUS
 62
             7
100
AcDbLine
 10
-992.92418267836536
 20
-277.64020504416851
 11
-994.07793786919217
 21
-278.60832059926008
  0
LINE
  5
2EA
100
AcDbEntity
  8
0
  6
CONTINUOUS
 62
             7
100
AcDbLine
 10
-993.39606965453561
 20
-278.87643615435161
 11
-992.80869991271163
 21
-279.57643615435171
  0
LINE
  5
2E9
100
AcDbEntity
  8
0
  6
CONTINUOUS
 62
             7
100
AcDbLine
 10
-992.47423135158476
 20
-278.17643615435168
 11
-988.51882175553226
 21
-278.17643615435168
  0
LINE
  5
2E8
100
AcDbEntity
  8
0
  6
CONTINUOUS
 62
             7
100
AcDbLine
 10
-992.47423135158476
 20
-278.17643615435168
 11
-993.39606965453561
 21
-278.87643615435161
  0
LINE
  5
2E7
100
AcDbEntity
  8
0
  6
CONTINUOUS
 62
             7
100
AcDbLine
 10
-988.85329031665913
 20
-279.57643615435171
 11
-992.80869991271163
 21
-279.57643615435171
  0
LINE
  5
2E6
100
AcDbEntity
  8
0
  6
CONTINUOUS
 62
             7
100
AcDbLine
 10
-987.96765068092407
 20
-278.83329626265038
 11
-988.85329031665913
 21
-279.57643615435171
  0
LINE
  5
2E5
100
AcDbEntity
  8
0
  6
CONTINUOUS
 62
             7
100
AcDbLine
 10
-988.51882175553226
 20
-278.17643615435168
 11
-987.96765068092407
 21
-278.83329626265038
  0
LINE
  5
2E4
100
AcDbEntity
  8
0
  6
CONTINUOUS
 62
             7
100
AcDbLine
 10
-987.20644390735049
 20
-278.65146049096131
 11
-986.64033194762612
 21
-278.17643615435168
  0
LINE
  5
2E3
100
AcDbEntity
  8
0
  6
CONTINUOUS
 62
             7
100
AcDbLine
 10
-987.98259064534921
 20
-277.7264848275712
 11
-987.20644390735049
 21
-278.65146049096131
  0
LINE
  5
2E2
100
AcDbEntity
  8
0
  6
CONTINUOUS
 62
             7
100
AcDbLine
 10
-991.88847874464489
 20
-271.76643615435171
 11
-992.45459070436902
 21
-272.24146049096152
  0
LINE
  5
2E1
100
AcDbEntity
  8
0
  6
CONTINUOUS
 62
             7
100
AcDbLine
 10
-986.9316732579249
 20
-271.76643615435171
 11
-991.88847874464489
 21
-271.76643615435171
  0
LINE
  5
2E0
100
AcDbEntity
  8
0
  6
CONTINUOUS
 62
             7
100
AcDbLine
 10
-985.75693377427649
 20
-273.1664361543518
 11
-986.1193278527104
 21
-272.73455170944339
  0
LINE
  5
2DF
100
AcDbEntity
  8
0
  6
CONTINUOUS
 62
             7
100
AcDbLine
 10
-986.64033194762612
 20
-278.17643615435168
 11
-985.75693377427649
 21
-273.1664361543518
  0
LINE
  5
2DE
100
AcDbEntity
  8
0
  6
CONTINUOUS
 62
             7
100
AcDbLine
 10
-986.88718972061804
 20
-279.57643615435171
 11
-987.77058789396722
 21
-284.5864361543517
  0
LINE
  5
2DD
100
AcDbEntity
  8
0
  6
CONTINUOUS
 62
             7
100
AcDbLine
 10
-994.39584841031899
 20
-285.98643615435168
 11
-994.7582424887529
 21
-285.55455170944339
  0
LINE
  5
2DC
100
AcDbEntity
  8
0
  6
CONTINUOUS
 62
             7
100
AcDbLine
 10
-989.43904292359923
 20
-285.98643615435168
 11
-994.39584841031899
 21
-285.98643615435168
  0
LINE
  5
2DB
100
AcDbEntity
  8
0
  6
CONTINUOUS
 62
             7
100
AcDbLine
 10
-995.5705878939674
 20
-284.5864361543517
 11
-995.20819381553349
 21
-285.01832059926022
  0
LINE
  5
2DA
100
AcDbEntity
  8
0
  6
CONTINUOUS
 62
             7
100
AcDbLine
 10
-994.68718972061777
 20
-279.57643615435171
 11
-995.5705878939674
 21
-284.5864361543517
  0
LINE
  5
2D9
100
AcDbEntity
  8
0
  6
CONTINUOUS
 62
             7
100
AcDbLine
 10
-994.44033194762608
 20
-278.17643615435168
 11
-994.07793786919217
 21
-278.60832059926008
  0
LINE
  5
2D8
100
AcDbEntity
  8
0
  6
CONTINUOUS
 62
             7
100
AcDbLine
 10
-993.55693377427667
 20
-273.1664361543518
 11
-994.44033194762608
 21
-278.17643615435168
  0
LINE
  5
2D7
100
AcDbEntity
  8
1
  6
CONTINUOUS
 62
             7
100
AcDbLine
 10
-1009.513760834122
 20
-271.37643615435172
 11
-1009.513760834122
 21
-286.37643615435172
  0
LINE
  5
2D6
100
AcDbEntity
  8
1
  6
CONTINUOUS
 62
             7
100
AcDbLine
 10
-960.01376083412185
 20
-270.37643615435172
 11
-1008.513760834122
 21
-270.37643615435172
  0
LINE
  5
2D5
100
AcDbEntity
  8
1
  6
CONTINUOUS
 62
             7
100
AcDbLine
 10
-959.01376083412185
 20
-286.37643615435172
 11
-959.01376083412185
 21
-271.37643615435172
  0
LINE
  5
2D4
100
AcDbEntity
  8
1
  6
CONTINUOUS
 62
             7
100
AcDbLine
 10
-1008.513760834122
 20
-287.37643615435172
 11
-960.01376083412185
 21
-287.37643615435172
  0
LINE
  5
2D3
100
AcDbEntity
  8
1
  6
CONTINUOUS
 62
             7
100
AcDbLine
 10
-1013.513760834122
 20
-288.37643615435172
 11
-1013.513760834122
 21
-250.87643615435169
  0
LINE
  5
2D2
100
AcDbEntity
  8
1
  6
CONTINUOUS
 62
             7
100
AcDbLine
 10
-1006.513760834122
 20
-290.37643615435172
 11
-1006.513760834122
 21
-305.87643615435172
  0
LINE
  5
2D1
100
AcDbEntity
  8
1
  6
CONTINUOUS
 62
             7
100
AcDbLine
 10
-1012.513760834122
 20
-289.37643615435172
 11
-1007.513760834122
 21
-289.37643615435172
  0
LINE
  5
2D0
100
AcDbEntity
  8
1
  6
CONTINUOUS
 62
             7
100
AcDbLine
 10
-1016.513760834122
 20
-249.87643615435169
 11
-1029.013760834122
 21
-249.87643615435169
  0
LINE
  5
2CF
100
AcDbEntity
  8
1
  6
CONTINUOUS
 62
             7
100
AcDbLine
 10
-1015.513760834122
 20
-290.37643615435172
 11
-1015.513760834122
 21
-250.87643615435169
  0
LINE
  5
2CE
100
AcDbEntity
  8
1
  6
CONTINUOUS
 62
             7
100
AcDbLine
 10
-1009.513760834122
 20
-291.37643615435172
 11
-1014.513760834122
 21
-291.37643615435172
  0
LINE
  5
2CD
100
AcDbEntity
  8
1
  6
CONTINUOUS
 62
             7
100
AcDbLine
 10
-1030.013760834122
 20
-320.87643615435172
 11
-1030.013760834122
 21
-326.87643615435172
  0
LINE
  5
2CC
100
AcDbEntity
  8
1
  6
CONTINUOUS
 62
             7
100
AcDbLine
 10
-1029.013760834122
 20
-327.87643615435172
 11
-1009.513760834122
 21
-327.87643615435172
  0
LINE
  5
2CB
100
AcDbEntity
  8
1
  6
CONTINUOUS
 62
             7
100
AcDbLine
 10
-1009.513760834122
 20
-319.87643615435172
 11
-1029.013760834122
 21
-319.87643615435172
  0
LINE
  5
2CA
100
AcDbEntity
  8
1
  6
CONTINUOUS
 62
             7
100
AcDbLine
 10
-1024.3137608341219
 20
-311.37643615435172
 11
-1027.713760834122
 21
-311.37643615435172
  0
LINE
  5
2C9
100
AcDbEntity
  8
1
  6
CONTINUOUS
 62
             7
100
AcDbLine
 10
-1027.713760834122
 20
-311.97643615435192
 11
-1024.3137608341219
 21
-311.97643615435192
  0
LINE
  5
2C8
100
AcDbEntity
  8
1
  6
CONTINUOUS
 62
             7
100
AcDbLine
 10
-1027.713760834122
 20
-313.17643615435168
 11
-1024.3137608341219
 21
-313.17643615435168
  0
LINE
  5
2C7
100
AcDbEntity
  8
1
  6
CONTINUOUS
 62
             7
100
AcDbLine
 10
-1024.3137608341219
 20
-312.57643615435182
 11
-1027.713760834122
 21
-312.57643615435182
  0
LINE
  5
2C6
100
AcDbEntity
  8
1
  6
CONTINUOUS
 62
             7
100
AcDbLine
 10
-1024.3137608341219
 20
-313.77643615435181
 11
-1027.713760834122
 21
-313.77643615435181
  0
LINE
  5
2C5
100
AcDbEntity
  8
1
  6
CONTINUOUS
 62
             7
100
AcDbLine
 10
-1027.713760834122
 20
-314.37643615435172
 11
-1024.3137608341219
 21
-314.37643615435172
  0
LINE
  5
2C4
100
AcDbEntity
  8
1
  6
CONTINUOUS
 62
             7
100
AcDbLine
 10
-1029.013760834122
 20
-316.87643615435172
 11
-1009.513760834122
 21
-316.87643615435172
  0
LINE
  5
2C3
100
AcDbEntity
  8
1
  6
CONTINUOUS
 62
             7
100
AcDbLine
 10
-1030.013760834122
 20
-309.87643615435172
 11
-1030.013760834122
 21
-315.87643615435161
  0
LINE
  5
2C2
100
AcDbEntity
  8
1
  6
CONTINUOUS
 62
             7
100
AcDbLine
 10
-1009.513760834122
 20
-308.87643615435172
 11
-1029.013760834122
 21
-308.87643615435172
  0
LINE
  5
2C1
100
AcDbEntity
  8
1
  6
CONTINUOUS
 62
             7
100
AcDbLine
 10
-1008.513760834122
 20
-309.87643615435172
 11
-1008.513760834122
 21
-315.87643615435172
  0
LINE
  5
2C0
100
AcDbEntity
  8
1
  6
CONTINUOUS
 62
             7
100
AcDbLine
 10
-1030.013760834122
 20
-250.87643615435169
 11
-1030.013760834122
 21
-305.87643615435172
  0
LINE
  5
2BF
100
AcDbEntity
  8
1
  6
CONTINUOUS
 62
             7
100
AcDbLine
 10
-944.01376083412185
 20
-326.87643615435161
 11
-944.01376083412185
 21
-320.87643615435172
  0
LINE
  5
2BE
100
AcDbEntity
  8
1
  6
CONTINUOUS
 62
             7
100
AcDbLine
 10
-946.31376083412204
 20
-322.37643615435172
 11
-949.71376083412167
 21
-322.37643615435172
  0
LINE
  5
2BD
100
AcDbEntity
  8
1
  6
CONTINUOUS
 62
             7
100
AcDbLine
 10
-949.71376083412167
 20
-322.97643615435192
 11
-946.31376083412204
 21
-322.97643615435192
  0
LINE
  5
2BC
100
AcDbEntity
  8
1
  6
CONTINUOUS
 62
             7
100
AcDbLine
 10
-949.71376083412167
 20
-324.17643615435168
 11
-946.31376083412204
 21
-324.17643615435168
  0
LINE
  5
2BB
100
AcDbEntity
  8
1
  6
CONTINUOUS
 62
             7
100
AcDbLine
 10
-946.31376083412204
 20
-323.57643615435182
 11
-949.71376083412167
 21
-323.57643615435182
  0
LINE
  5
2BA
100
AcDbEntity
  8
1
  6
CONTINUOUS
 62
             7
100
AcDbLine
 10
-946.31376083412204
 20
-324.77643615435181
 11
-949.71376083412167
 21
-324.77643615435181
  0
LINE
  5
2B9
100
AcDbEntity
  8
1
  6
CONTINUOUS
 62
             7
100
AcDbLine
 10
-949.71376083412167
 20
-325.37643615435172
 11
-946.31376083412204
 21
-325.37643615435172
  0
LINE
  5
2B8
100
AcDbEntity
  8
1
  6
CONTINUOUS
 62
             7
100
AcDbLine
 10
-969.71376083412167
 20
-322.37643615435172
 11
-964.31376083412204
 21
-322.37643615435172
  0
LINE
  5
2B7
100
AcDbEntity
  8
1
  6
CONTINUOUS
 62
             7
100
AcDbLine
 10
-964.31376083412204
 20
-322.97643615435192
 11
-969.71376083412167
 21
-322.97643615435192
  0
LINE
  5
2B6
100
AcDbEntity
  8
1
  6
CONTINUOUS
 62
             7
100
AcDbLine
 10
-964.31376083412204
 20
-324.17643615435168
 11
-969.71376083412167
 21
-324.17643615435168
  0
LINE
  5
2B5
100
AcDbEntity
  8
1
  6
CONTINUOUS
 62
             7
100
AcDbLine
 10
-969.71376083412167
 20
-323.57643615435182
 11
-964.31376083412204
 21
-323.57643615435182
  0
LINE
  5
2B4
100
AcDbEntity
  8
1
  6
CONTINUOUS
 62
             7
100
AcDbLine
 10
-969.71376083412167
 20
-324.77643615435181
 11
-964.31376083412204
 21
-324.77643615435181
  0
LINE
  5
2B3
100
AcDbEntity
  8
1
  6
CONTINUOUS
 62
             7
100
AcDbLine
 10
-964.31376083412204
 20
-325.37643615435172
 11
-969.71376083412167
 21
-325.37643615435172
  0
LINE
  5
2B2
100
AcDbEntity
  8
1
  6
CONTINUOUS
 62
             7
100
AcDbLine
 10
-1005.513760834122
 20
-319.87643615435172
 11
-945.01376083412185
 21
-319.87643615435172
  0
LINE
  5
2B1
100
AcDbEntity
  8
1
  6
CONTINUOUS
 62
             7
100
AcDbLine
 10
-945.01376083412185
 20
-327.87643615435172
 11
-1005.513760834122
 21
-327.87643615435161
  0
LINE
  5
2B0
100
AcDbEntity
  8
1
  6
CONTINUOUS
 62
             7
100
AcDbLine
 10
-1006.513760834122
 20
-326.87643615435161
 11
-1006.513760834122
 21
-320.87643615435172
  0
LINE
  5
2AF
100
AcDbEntity
  8
1
  6
CONTINUOUS
 62
             7
100
AcDbLine
 10
-1004.213760834122
 20
-322.37643615435172
 11
-984.31376083412204
 21
-322.37643615435172
  0
LINE
  5
2AE
100
AcDbEntity
  8
1
  6
CONTINUOUS
 62
             7
100
AcDbLine
 10
-1004.213760834122
 20
-322.97643615435192
 11
-984.31376083412204
 21
-322.97643615435192
  0
LINE
  5
2AD
100
AcDbEntity
  8
1
  6
CONTINUOUS
 62
             7
100
AcDbLine
 10
-1004.213760834122
 20
-324.17643615435168
 11
-984.31376083412204
 21
-324.17643615435168
  0
LINE
  5
2AC
100
AcDbEntity
  8
1
  6
CONTINUOUS
 62
             7
100
AcDbLine
 10
-1004.213760834122
 20
-323.57643615435182
 11
-984.31376083412204
 21
-323.57643615435182
  0
LINE
  5
2AB
100
AcDbEntity
  8
1
  6
CONTINUOUS
 62
             7
100
AcDbLine
 10
-1004.213760834122
 20
-324.77643615435181
 11
-984.31376083412204
 21
-324.77643615435181
  0
LINE
  5
2AA
100
AcDbEntity
  8
1
  6
CONTINUOUS
 62
             7
100
AcDbLine
 10
-1004.213760834122
 20
-325.37643615435172
 11
-984.31376083412204
 21
-325.37643615435172
  0
LINE
  5
2A9
100
AcDbEntity
  8
1
  6
CONTINUOUS
 62
             7
100
AcDbLine
 10
-989.71376083412201
 20
-314.37643615435172
 11
-984.31376083412204
 21
-314.37643615435172
  0
LINE
  5
2A8
100
AcDbEntity
  8
1
  6
CONTINUOUS
 62
             7
100
AcDbLine
 10
-989.71376083412201
 20
-313.77643615435181
 11
-984.31376083412204
 21
-313.77643615435181
  0
LINE
  5
2A7
100
AcDbEntity
  8
1
  6
CONTINUOUS
 62
             7
100
AcDbLine
 10
-989.71376083412201
 20
-312.57643615435182
 11
-984.31376083412204
 21
-312.57643615435182
  0
LINE
  5
2A6
100
AcDbEntity
  8
1
  6
CONTINUOUS
 62
             7
100
AcDbLine
 10
-989.71376083412201
 20
-313.17643615435168
 11
-984.31376083412204
 21
-313.17643615435168
  0
LINE
  5
2A5
100
AcDbEntity
  8
1
  6
CONTINUOUS
 62
             7
100
AcDbLine
 10
-964.31376083412204
 20
-314.37643615435172
 11
-969.71376083412167
 21
-314.37643615435172
  0
LINE
  5
2A4
100
AcDbEntity
  8
1
  6
CONTINUOUS
 62
             7
100
AcDbLine
 10
-969.71376083412167
 20
-313.77643615435181
 11
-964.31376083412204
 21
-313.77643615435181
  0
LINE
  5
2A3
100
AcDbEntity
  8
1
  6
CONTINUOUS
 62
             7
100
AcDbLine
 10
-969.71376083412167
 20
-312.57643615435182
 11
-964.31376083412204
 21
-312.57643615435182
  0
LINE
  5
2A2
100
AcDbEntity
  8
1
  6
CONTINUOUS
 62
             7
100
AcDbLine
 10
-964.31376083412204
 20
-313.17643615435168
 11
-969.71376083412167
 21
-313.17643615435168
  0
LINE
  5
2A1
100
AcDbEntity
  8
1
  6
CONTINUOUS
 62
             7
100
AcDbLine
 10
-949.71376083412167
 20
-314.37643615435172
 11
-946.31376083412204
 21
-314.37643615435172
  0
LINE
  5
2A0
100
AcDbEntity
  8
1
  6
CONTINUOUS
 62
             7
100
AcDbLine
 10
-946.31376083412204
 20
-313.77643615435181
 11
-949.71376083412167
 21
-313.77643615435181
  0
LINE
  5
29F
100
AcDbEntity
  8
1
  6
CONTINUOUS
 62
             7
100
AcDbLine
 10
-946.31376083412204
 20
-312.57643615435182
 11
-949.71376083412167
 21
-312.57643615435182
  0
LINE
  5
29E
100
AcDbEntity
  8
1
  6
CONTINUOUS
 62
             7
100
AcDbLine
 10
-949.71376083412167
 20
-313.17643615435168
 11
-946.31376083412204
 21
-313.17643615435168
  0
LINE
  5
29D
100
AcDbEntity
  8
1
  6
CONTINUOUS
 62
             7
100
AcDbLine
 10
-964.31376083412204
 20
-311.97643615435192
 11
-969.71376083412167
 21
-311.97643615435192
  0
LINE
  5
29C
100
AcDbEntity
  8
1
  6
CONTINUOUS
 62
             7
100
AcDbLine
 10
-969.71376083412167
 20
-311.37643615435172
 11
-964.31376083412204
 21
-311.37643615435172
  0
LINE
  5
29B
100
AcDbEntity
  8
1
  6
CONTINUOUS
 62
             7
100
AcDbLine
 10
-989.71376083412201
 20
-311.97643615435192
 11
-984.31376083412204
 21
-311.97643615435192
  0
LINE
  5
29A
100
AcDbEntity
  8
1
  6
CONTINUOUS
 62
             7
100
AcDbLine
 10
-989.71376083412201
 20
-311.37643615435172
 11
-984.31376083412204
 21
-311.37643615435172
  0
LINE
  5
299
100
AcDbEntity
  8
1
  6
CONTINUOUS
 62
             7
100
AcDbLine
 10
-949.71376083412167
 20
-311.97643615435192
 11
-946.31376083412204
 21
-311.97643615435192
  0
LINE
  5
298
100
AcDbEntity
  8
1
  6
CONTINUOUS
 62
             7
100
AcDbLine
 10
-946.31376083412204
 20
-311.37643615435172
 11
-949.71376083412167
 21
-311.37643615435172
  0
LINE
  5
297
100
AcDbEntity
  8
1
  6
CONTINUOUS
 62
             7
100
AcDbLine
 10
-944.01376083412185
 20
-315.87643615435161
 11
-944.01376083412185
 21
-309.87643615435172
  0
LINE
  5
296
100
AcDbEntity
  8
1
  6
CONTINUOUS
 62
             7
100
AcDbLine
 10
-945.01376083412185
 20
-316.87643615435161
 11
-1005.513760834122
 21
-316.87643615435161
  0
LINE
  5
295
100
AcDbEntity
  8
1
  6
CONTINUOUS
 62
             7
100
AcDbLine
 10
-1005.513760834122
 20
-308.87643615435172
 11
-945.01376083412185
 21
-308.87643615435172
  0
LINE
  5
294
100
AcDbEntity
  8
1
  6
CONTINUOUS
 62
             7
100
AcDbLine
 10
-1006.513760834122
 20
-315.87643615435161
 11
-1006.513760834122
 21
-309.87643615435172
  0
LINE
  5
293
100
AcDbEntity
  8
1
  6
CONTINUOUS
 62
             7
100
AcDbLine
 10
-1015.013760834122
 20
-324.62643615435172
 11
-1015.013760834122
 21
-323.12643615435172
  0
LINE
  5
292
100
AcDbEntity
  8
1
  6
CONTINUOUS
 62
             7
100
AcDbLine
 10
-1018.513760834122
 20
-325.12643615435172
 11
-1015.513760834122
 21
-325.12643615435172
  0
LINE
  5
291
100
AcDbEntity
  8
1
  6
CONTINUOUS
 62
             7
100
AcDbLine
 10
-1019.013760834122
 20
-323.12643615435172
 11
-1019.013760834122
 21
-324.62643615435172
  0
LINE
  5
290
100
AcDbEntity
  8
1
  6
CONTINUOUS
 62
             7
100
AcDbLine
 10
-1015.513760834122
 20
-322.62643615435172
 11
-1018.513760834122
 21
-322.62643615435172
  0
LINE
  5
28F
100
AcDbEntity
  8
1
  6
CONTINUOUS
 62
             7
100
AcDbLine
 10
-1018.313760834122
 20
-252.07643615435171
 11
-1018.313760834122
 21
-297.57643615435171
  0
LINE
  5
28E
100
AcDbEntity
  8
1
  6
CONTINUOUS
 62
             7
100
AcDbLine
 10
-1023.4137608341219
 20
-252.07643615435171
 11
-1018.313760834122
 21
-252.07643615435171
  0
LINE
  5
28D
100
AcDbEntity
  8
1
  6
CONTINUOUS
 62
             7
100
AcDbLine
 10
-997.01376083412185
 20
-253.37643615435169
 11
-980.01376083412185
 21
-253.37643615435169
  0
LINE
  5
28C
100
AcDbEntity
  8
1
  6
CONTINUOUS
 62
             7
100
AcDbLine
 10
-980.01376083412185
 20
-265.37643615435172
 11
-997.01376083412185
 21
-265.37643615435172
  0
LINE
  5
28B
100
AcDbEntity
  8
1
  6
CONTINUOUS
 62
             7
100
AcDbLine
 10
-998.01376083412197
 20
-264.37643615435172
 11
-998.01376083412185
 21
-254.37643615435169
  0
LINE
  5
28A
100
AcDbEntity
  8
1
  6
CONTINUOUS
 62
             7
100
AcDbLine
 10
-997.01376083412185
 20
-292.37643615435172
 11
-960.01376083412185
 21
-292.37643615435172
  0
LINE
  5
289
100
AcDbEntity
  8
1
  6
CONTINUOUS
 62
             7
100
AcDbLine
 10
-959.01376083412185
 20
-293.37643615435172
 11
-959.01376083412185
 21
-303.37643615435172
  0
LINE
  5
288
100
AcDbEntity
  8
1
  6
CONTINUOUS
 62
             7
100
AcDbLine
 10
-960.01376083412185
 20
-304.37643615435172
 11
-997.01376083412185
 21
-304.37643615435172
  0
LINE
  5
287
100
AcDbEntity
  8
1
  6
CONTINUOUS
 62
             7
100
AcDbLine
 10
-979.01376083412185
 20
-254.37643615435169
 11
-979.01376083412185
 21
-264.37643615435172
  0
LINE
  5
286
100
AcDbEntity
  8
1
  6
CONTINUOUS
 62
             7
100
AcDbLine
 10
-980.01376083412185
 20
-314.37643615435161
 11
-977.01376083412185
 21
-310.80117537656912
  0
LINE
  5
285
100
AcDbEntity
  8
1
  6
CONTINUOUS
 62
             7
100
AcDbLine
 10
-977.01376083412185
 20
-310.80117537656912
 11
-974.01376083412185
 21
-314.37643615435161
  0
LINE
  5
284
100
AcDbEntity
  8
1
  6
CONTINUOUS
 62
             7
100
AcDbLine
 10
-974.01376083412185
 20
-314.37643615435161
 11
-980.01376083412185
 21
-314.37643615435161
  0
LINE
  5
283
100
AcDbEntity
  8
1
  6
CONTINUOUS
 62
             7
100
AcDbLine
 10
-980.01376083412185
 20
-314.37643615435161
 11
-977.01376083412185
 21
-310.80117537656912
  0
LINE
  5
282
100
AcDbEntity
  8
1
  6
CONTINUOUS
 62
             7
100
AcDbLine
 10
-977.01376083412185
 20
-310.80117537656912
 11
-974.01376083412185
 21
-314.37643615435161
  0
LINE
  5
281
100
AcDbEntity
  8
1
  6
CONTINUOUS
 62
             7
100
AcDbLine
 10
-974.01376083412185
 20
-322.37643615435161
 11
-977.01376083412185
 21
-325.95169693213438
  0
LINE
  5
280
100
AcDbEntity
  8
1
  6
CONTINUOUS
 62
             7
100
AcDbLine
 10
-977.01376083412185
 20
-325.95169693213438
 11
-980.01376083412185
 21
-322.37643615435161
  0
LINE
  5
27F
100
AcDbEntity
  8
1
  6
CONTINUOUS
 62
             7
100
AcDbLine
 10
-974.01376083412185
 20
-322.37643615435161
 11
-977.01376083412185
 21
-325.95169693213438
  0
LINE
  5
27E
100
AcDbEntity
  8
1
  6
CONTINUOUS
 62
             7
100
AcDbLine
 10
-977.01376083412185
 20
-325.95169693213438
 11
-980.01376083412185
 21
-322.37643615435161
  0
LINE
  5
27D
100
AcDbEntity
  8
1
  6
CONTINUOUS
 62
             7
100
AcDbLine
 10
-980.01376083412185
 20
-322.37643615435161
 11
-974.01376083412185
 21
-322.37643615435161
  0
LINE
  5
27C
100
AcDbEntity
  8
1
  6
CONTINUOUS
 62
             7
100
AcDbLine
 10
-959.51376083412185
 20
-321.37643615435161
 11
-954.51376083412185
 21
-321.37643615435161
  0
LINE
  5
27B
100
AcDbEntity
  8
1
  6
CONTINUOUS
 62
             7
100
AcDbLine
 10
-955.01376083412185
 20
-321.87643615435161
 11
-959.01376083412185
 21
-321.87643615435161
  0
LINE
  5
27A
100
AcDbEntity
  8
1
  6
CONTINUOUS
 62
             7
100
AcDbLine
 10
-958.01376083412185
 20
-326.37643615435161
 11
-957.51376083412185
 21
-325.87643615435161
  0
LINE
  5
279
100
AcDbEntity
  8
1
  6
CONTINUOUS
 62
             7
100
AcDbLine
 10
-957.51376083412185
 20
-325.87643615435161
 11
-959.01376083412185
 21
-325.87643615435161
  0
LINE
  5
278
100
AcDbEntity
  8
1
  6
CONTINUOUS
 62
             7
100
AcDbLine
 10
-958.01376083412185
 20
-326.37643615435161
 11
-959.51376083412185
 21
-326.37643615435161
  0
LINE
  5
277
100
AcDbEntity
  8
1
  6
CONTINUOUS
 62
             7
100
AcDbLine
 10
-957.01376083412185
 20
-326.37643615435161
 11
-955.51376083412185
 21
-324.87643615435161
  0
LINE
  5
276
100
AcDbEntity
  8
1
  6
CONTINUOUS
 62
             7
100
AcDbLine
 10
-955.51376083412185
 20
-324.87643615435161
 11
-955.51376083412185
 21
-325.87643615435161
  0
LINE
  5
275
100
AcDbEntity
  8
1
  6
CONTINUOUS
 62
             7
100
AcDbLine
 10
-955.51376083412185
 20
-325.87643615435161
 11
-955.01376083412185
 21
-325.87643615435161
  0
LINE
  5
274
100
AcDbEntity
  8
1
  6
CONTINUOUS
 62
             7
100
AcDbLine
 10
-957.01376083412185
 20
-326.37643615435161
 11
-954.51376083412185
 21
-326.37643615435161
  0
LINE
  5
273
100
AcDbEntity
  8
1
  6
CONTINUOUS
 62
             7
100
AcDbLine
 10
-1023.4137608341219
 20
-297.57643615435171
 11
-1022.613760834122
 21
-297.57643615435171
  0
LINE
  5
272
100
AcDbEntity
  8
1
  6
CONTINUOUS
 62
             7
100
AcDbLine
 10
-1023.4137608341219
 20
-297.57643615435171
 11
-1023.4137608341219
 21
-252.07643615435171
  0
LINE
  5
271
100
AcDbEntity
  8
1
  6
CONTINUOUS
 62
             7
100
AcDbLine
 10
-1018.313760834122
 20
-297.57643615435171
 11
-1019.013760834122
 21
-297.57643615435171
  0
LINE
  5
270
100
AcDbEntity
  8
1
  6
CONTINUOUS
 62
             7
100
AcDbLine
 10
-1022.613760834122
 20
-297.57643615435171
 11
-1022.613760834122
 21
-303.97643615435169
  0
LINE
  5
26F
100
AcDbEntity
  8
1
  6
CONTINUOUS
 62
             7
100
AcDbLine
 10
-1019.013760834122
 20
-297.57643615435171
 11
-1019.013760834122
 21
-303.97643615435169
  0
LINE
  5
26E
100
AcDbEntity
  8
1
  6
CONTINUOUS
 62
             7
100
AcDbLine
 10
-1019.013760834122
 20
-303.97643615435169
 11
-1022.613760834122
 21
-303.97643615435169
  0
LINE
  5
26D
100
AcDbEntity
  8
1
  6
CONTINUOUS
 62
             7
100
AcDbLine
 10
-1012.513760834122
 20
-249.87643615435169
 11
-945.01376083412185
 21
-249.87643615435169
  0
LINE
  5
26C
100
AcDbEntity
  8
1
  6
CONTINUOUS
 62
             7
100
AcDbLine
 10
-944.01376083412185
 20
-250.87643615435169
 11
-944.01376083412185
 21
-305.87643615435172
  0
LINE
  5
26B
100
AcDbEntity
  8
1
  6
CONTINUOUS
 62
             7
100
AcDbLine
 10
-945.01376083412185
 20
-306.87643615435172
 11
-1005.513760834122
 21
-306.87643615435172
  0
LINE
  5
26A
100
AcDbEntity
  8
1
  6
CONTINUOUS
 62
             7
100
AcDbLine
 10
-1029.013760834122
 20
-306.87643615435172
 11
-1009.513760834122
 21
-306.87643615435172
  0
LINE
  5
269
100
AcDbEntity
  8
1
  6
CONTINUOUS
 62
             7
100
AcDbLine
 10
-1008.513760834122
 20
-320.87643615435172
 11
-1008.513760834122
 21
-326.87643615435161
  0
LINE
  5
268
100
AcDbEntity
  8
1
  6
CONTINUOUS
 62
             7
100
AcDbLine
 10
-1016.013760834122
 20
-295.47643615435169
 11
-1016.013760834122
 21
-301.27643615435181
  0
LINE
  5
267
100
AcDbEntity
  8
1
  6
CONTINUOUS
 62
             7
100
AcDbLine
 10
-1016.013760834122
 20
-295.47643615435169
 11
-1010.613760834122
 21
-295.47643615435169
  0
LINE
  5
266
100
AcDbEntity
  8
1
  6
CONTINUOUS
 62
             7
100
AcDbLine
 10
-1010.613760834122
 20
-295.47643615435169
 11
-1010.613760834122
 21
-301.27643615435181
  0
LINE
  5
265
100
AcDbEntity
  8
1
  6
CONTINUOUS
 62
             7
100
AcDbLine
 10
-1010.613760834122
 20
-301.27643615435181
 11
-1016.013760834122
 21
-301.27643615435181
  0
LINE
  5
264
100
AcDbEntity
  8
0
  6
CONTINUOUS
 62
             7
100
AcDbLine
 10
-990.2748826417693
 20
-255.06794726513149
 11
-990.01602972860235
 21
-255.37643615435169
  0
LINE
  5
263
100
AcDbEntity
  8
0
  6
CONTINUOUS
 62
             7
100
AcDbLine
 10
-990.2748826417693
 20
-255.06794726513149
 11
-991.09899349235991
 21
-255.75945837591121
  0
LINE
  5
262
100
AcDbEntity
  8
0
  6
CONTINUOUS
 62
             7
100
AcDbLine
 10
-990.59627644661259
 20
-254.68492504357201
 11
-990.85512935977954
 21
-254.37643615435169
  0
LINE
  5
261
100
AcDbEntity
  8
0
  6
CONTINUOUS
 62
             7
100
AcDbLine
 10
-991.42038729720321
 20
-255.37643615435169
 11
-990.59627644661259
 21
-254.68492504357201
  0
LINE
  5
260
100
AcDbEntity
  8
0
  6
CONTINUOUS
 62
             7
100
AcDbLine
 10
-994.25909765975507
 20
-255.37643615435169
 11
-991.42038729720321
 21
-255.37643615435169
  0
LINE
  5
25F
100
AcDbEntity
  8
0
  6
CONTINUOUS
 62
             7
100
AcDbLine
 10
-994.25909765975507
 20
-255.37643615435169
 11
-994.81348818689708
 21
-254.7157392519301
  0
LINE
  5
25E
100
AcDbEntity
  8
0
  6
CONTINUOUS
 62
             7
100
AcDbLine
 10
-994.64211988131456
 20
-255.69782995919499
 11
-995.13505676269597
 21
-258.49341393279218
  0
LINE
  5
25D
100
AcDbEntity
  8
0
  6
CONTINUOUS
 62
             7
100
AcDbLine
 10
-995.19651040845656
 20
-255.0371330567734
 11
-994.64211988131456
 21
-255.69782995919499
  0
LINE
  5
25C
100
AcDbEntity
  8
0
  6
CONTINUOUS
 62
             7
100
AcDbLine
 10
-992.38540178692938
 20
-263.05504234950843
 11
-991.89246490554797
 21
-260.25945837591121
  0
LINE
  5
25B
100
AcDbEntity
  8
0
  6
CONTINUOUS
 62
             7
100
AcDbLine
 10
-992.38540178692938
 20
-263.05504234950843
 11
-991.83101125978737
 21
-263.71573925193007
  0
LINE
  5
25A
100
AcDbEntity
  8
0
  6
CONTINUOUS
 62
             7
100
AcDbLine
 10
-992.76842400848886
 20
-263.37643615435172
 11
-992.21403348134686
 21
-264.03713305677343
  0
LINE
  5
259
100
AcDbEntity
  8
0
  6
CONTINUOUS
 62
             7
100
AcDbLine
 10
-996.43124522163134
 20
-264.06794726513152
 11
-996.1723923084644
 21
-264.37643615435172
  0
LINE
  5
258
100
AcDbEntity
  8
0
  6
CONTINUOUS
 62
             7
100
AcDbLine
 10
-995.60713437104073
 20
-263.37643615435172
 11
-992.76842400848886
 21
-263.37643615435172
  0
LINE
  5
257
100
AcDbEntity
  8
0
  6
CONTINUOUS
 62
             7
100
AcDbLine
 10
-995.60713437104073
 20
-263.37643615435172
 11
-996.43124522163134
 21
-264.06794726513152
  0
LINE
  5
256
100
AcDbEntity
  8
0
  6
CONTINUOUS
 62
             7
100
AcDbLine
 10
-995.92852817588403
 20
-262.99341393279218
 11
-995.43559129450273
 21
-260.19782995919502
  0
LINE
  5
255
100
AcDbEntity
  8
0
  6
CONTINUOUS
 62
             7
100
AcDbLine
 10
-995.92852817588403
 20
-262.99341393279218
 11
-996.75263902647464
 21
-263.68492504357198
  0
LINE
  5
254
100
AcDbEntity
  8
0
  6
CONTINUOUS
 62
             7
100
AcDbLine
 10
-991.06835405495735
 20
-259.56794726513152
 11
-990.80950114179041
 21
-259.87643615435172
  0
LINE
  5
253
100
AcDbEntity
  8
0
  6
CONTINUOUS
 62
             7
100
AcDbLine
 10
-991.89246490554797
 20
-260.25945837591121
 11
-991.06835405495735
 21
-259.56794726513152
  0
LINE
  5
252
100
AcDbEntity
  8
0
  6
CONTINUOUS
 62
             7
100
AcDbLine
 10
-991.59193037374121
 20
-258.55504234950843
 11
-991.09899349235991
 21
-255.75945837591121
  0
LINE
  5
251
100
AcDbEntity
  8
0
  6
CONTINUOUS
 62
             7
100
AcDbLine
 10
-991.59193037374121
 20
-258.55504234950843
 11
-991.03753984659932
 21
-259.21573925193007
  0
LINE
  5
250
100
AcDbEntity
  8
0
  6
CONTINUOUS
 62
             7
100
AcDbLine
 10
-995.96441332253937
 20
-259.1893267162713
 11
-996.2219821549055
 21
-258.8989036657677
  0
LINE
  5
24F
100
AcDbEntity
  8
0
  6
CONTINUOUS
 62
             7
100
AcDbLine
 10
-995.13505676269597
 20
-258.49341393279218
 11
-995.96441332253937
 21
-259.1893267162713
  0
LINE
  5
24E
100
AcDbEntity
  8
0
  6
CONTINUOUS
 62
             7
100
AcDbLine
 10
-995.98998182164462
 20
-259.53713305677343
 11
-996.39434750716202
 21
-259.87643615435172
  0
LINE
  5
24D
100
AcDbEntity
  8
0
  6
CONTINUOUS
 62
             7
100
AcDbLine
 10
-995.98998182164462
 20
-259.53713305677343
 11
-995.43559129450273
 21
-260.19782995919502
  0
LINE
  5
24C
100
AcDbEntity
  8
0
  6
CONTINUOUS
 62
             7
100
AcDbLine
 10
-995.60087609397385
 20
-255.37643615435169
 11
-996.2219821549055
 21
-258.8989036657677
  0
LINE
  5
24B
100
AcDbEntity
  8
0
  6
CONTINUOUS
 62
             7
100
AcDbLine
 10
-995.44626269766354
 20
-259.40725036270982
 11
-995.05256907294313
 21
-259.87643615435172
  0
LINE
  5
24A
100
AcDbEntity
  8
0
  6
CONTINUOUS
 62
             7
100
AcDbLine
 10
-994.81366295785267
 20
-258.87643615435172
 11
-995.44626269766354
 21
-259.40725036270982
  0
LINE
  5
249
100
AcDbEntity
  8
0
  6
CONTINUOUS
 62
             7
100
AcDbLine
 10
-991.97495259530081
 20
-258.87643615435172
 11
-994.81366295785267
 21
-258.87643615435172
  0
LINE
  5
248
100
AcDbEntity
  8
0
  6
CONTINUOUS
 62
             7
100
AcDbLine
 10
-992.21385871039126
 20
-259.87643615435172
 11
-995.05256907294313
 21
-259.87643615435172
  0
LINE
  5
247
100
AcDbEntity
  8
0
  6
CONTINUOUS
 62
             7
100
AcDbLine
 10
-991.58125897058039
 20
-259.34562194599363
 11
-992.21385871039126
 21
-259.87643615435172
  0
LINE
  5
246
100
AcDbEntity
  8
0
  6
CONTINUOUS
 62
             7
100
AcDbLine
 10
-991.97495259530081
 20
-258.87643615435172
 11
-991.58125897058039
 21
-259.34562194599363
  0
LINE
  5
245
100
AcDbEntity
  8
0
  6
CONTINUOUS
 62
             7
100
AcDbLine
 10
-994.40912250137967
 20
-254.37643615435169
 11
-994.81348818689708
 21
-254.7157392519301
  0
LINE
  5
244
100
AcDbEntity
  8
0
  6
CONTINUOUS
 62
             7
100
AcDbLine
 10
-990.85512935977954
 20
-254.37643615435169
 11
-994.40912250137967
 21
-254.37643615435169
  0
LINE
  5
243
100
AcDbEntity
  8
0
  6
CONTINUOUS
 62
             7
100
AcDbLine
 10
-992.61839916686426
 20
-264.37643615435172
 11
-992.21403348134686
 21
-264.03713305677343
  0
LINE
  5
242
100
AcDbEntity
  8
0
  6
CONTINUOUS
 62
             7
100
AcDbLine
 10
-996.1723923084644
 20
-264.37643615435172
 11
-992.61839916686426
 21
-264.37643615435172
  0
LINE
  5
241
100
AcDbEntity
  8
0
  6
CONTINUOUS
 62
             7
100
AcDbLine
 10
-991.42664557427008
 20
-263.37643615435172
 11
-991.83101125978737
 21
-263.71573925193007
  0
LINE
  5
240
100
AcDbEntity
  8
0
  6
CONTINUOUS
 62
             7
100
AcDbLine
 10
-990.80950114179041
 20
-259.87643615435172
 11
-991.42664557427008
 21
-263.37643615435172
  0
LINE
  5
23F
100
AcDbEntity
  8
0
  6
CONTINUOUS
 62
             7
100
AcDbLine
 10
-990.63317416108191
 20
-258.87643615435172
 11
-991.03753984659932
 21
-259.21573925193007
  0
LINE
  5
23E
100
AcDbEntity
  8
0
  6
CONTINUOUS
 62
             7
100
AcDbLine
 10
-990.01602972860235
 20
-255.37643615435169
 11
-990.63317416108191
 21
-258.87643615435172
  0
LINE
  5
23D
100
AcDbEntity
  8
0
  6
CONTINUOUS
 62
             7
100
AcDbLine
 10
-997.01149193964159
 20
-263.37643615435172
 11
-996.75263902647464
 21
-263.68492504357198
  0
LINE
  5
23C
100
AcDbEntity
  8
0
  6
CONTINUOUS
 62
             7
100
AcDbLine
 10
-996.39434750716202
 20
-259.87643615435172
 11
-997.01149193964159
 21
-263.37643615435172
  0
LINE
  5
23B
100
AcDbEntity
  8
0
  6
CONTINUOUS
 62
             7
100
AcDbLine
 10
-995.60087609397385
 20
-255.37643615435169
 11
-995.19651040845656
 21
-255.0371330567734
  0
LINE
  5
23A
100
AcDbEntity
  8
0
  6
CONTINUOUS
 62
             7
100
AcDbLine
 10
-990.2748826417693
 20
-294.06794726513152
 11
-990.01602972860235
 21
-294.37643615435172
  0
LINE
  5
239
100
AcDbEntity
  8
0
  6
CONTINUOUS
 62
             7
100
AcDbLine
 10
-990.2748826417693
 20
-294.06794726513152
 11
-991.09899349235991
 21
-294.75945837591121
  0
LINE
  5
238
100
AcDbEntity
  8
0
  6
CONTINUOUS
 62
             7
100
AcDbLine
 10
-990.59627644661259
 20
-293.68492504357198
 11
-990.85512935977954
 21
-293.37643615435172
  0
LINE
  5
237
100
AcDbEntity
  8
0
  6
CONTINUOUS
 62
             7
100
AcDbLine
 10
-991.42038729720321
 20
-294.37643615435172
 11
-990.59627644661259
 21
-293.68492504357198
  0
LINE
  5
236
100
AcDbEntity
  8
0
  6
CONTINUOUS
 62
             7
100
AcDbLine
 10
-994.25909765975507
 20
-294.37643615435172
 11
-991.42038729720321
 21
-294.37643615435172
  0
LINE
  5
235
100
AcDbEntity
  8
0
  6
CONTINUOUS
 62
             7
100
AcDbLine
 10
-994.25909765975507
 20
-294.37643615435172
 11
-994.81348818689708
 21
-293.71573925193007
  0
LINE
  5
234
100
AcDbEntity
  8
0
  6
CONTINUOUS
 62
             7
100
AcDbLine
 10
-994.64211988131456
 20
-294.69782995919502
 11
-995.13505676269597
 21
-297.49341393279218
  0
LINE
  5
233
100
AcDbEntity
  8
0
  6
CONTINUOUS
 62
             7
100
AcDbLine
 10
-995.19651040845656
 20
-294.03713305677343
 11
-994.64211988131456
 21
-294.69782995919502
  0
LINE
  5
232
100
AcDbEntity
  8
0
  6
CONTINUOUS
 62
             7
100
AcDbLine
 10
-992.38540178692938
 20
-302.05504234950843
 11
-991.89246490554797
 21
-299.25945837591121
  0
LINE
  5
231
100
AcDbEntity
  8
0
  6
CONTINUOUS
 62
             7
100
AcDbLine
 10
-992.38540178692938
 20
-302.05504234950843
 11
-991.83101125978737
 21
-302.71573925193007
  0
LINE
  5
230
100
AcDbEntity
  8
0
  6
CONTINUOUS
 62
             7
100
AcDbLine
 10
-992.76842400848886
 20
-302.37643615435172
 11
-992.21403348134686
 21
-303.03713305677343
  0
LINE
  5
22F
100
AcDbEntity
  8
0
  6
CONTINUOUS
 62
             7
100
AcDbLine
 10
-996.43124522163134
 20
-303.06794726513152
 11
-996.1723923084644
 21
-303.37643615435172
  0
LINE
  5
22E
100
AcDbEntity
  8
0
  6
CONTINUOUS
 62
             7
100
AcDbLine
 10
-995.60713437104073
 20
-302.37643615435172
 11
-992.76842400848886
 21
-302.37643615435172
  0
LINE
  5
22D
100
AcDbEntity
  8
0
  6
CONTINUOUS
 62
             7
100
AcDbLine
 10
-995.60713437104073
 20
-302.37643615435172
 11
-996.43124522163134
 21
-303.06794726513152
  0
LINE
  5
22C
100
AcDbEntity
  8
0
  6
CONTINUOUS
 62
             7
100
AcDbLine
 10
-995.92852817588403
 20
-301.99341393279218
 11
-995.43559129450273
 21
-299.19782995919502
  0
LINE
  5
22B
100
AcDbEntity
  8
0
  6
CONTINUOUS
 62
             7
100
AcDbLine
 10
-995.92852817588403
 20
-301.99341393279218
 11
-996.75263902647464
 21
-302.68492504357198
  0
LINE
  5
22A
100
AcDbEntity
  8
0
  6
CONTINUOUS
 62
             7
100
AcDbLine
 10
-991.06835405495735
 20
-298.56794726513152
 11
-990.80950114179041
 21
-298.87643615435172
  0
LINE
  5
229
100
AcDbEntity
  8
0
  6
CONTINUOUS
 62
             7
100
AcDbLine
 10
-991.89246490554797
 20
-299.25945837591121
 11
-991.06835405495735
 21
-298.56794726513152
  0
LINE
  5
228
100
AcDbEntity
  8
0
  6
CONTINUOUS
 62
             7
100
AcDbLine
 10
-991.59193037374121
 20
-297.55504234950843
 11
-991.09899349235991
 21
-294.75945837591121
  0
LINE
  5
227
100
AcDbEntity
  8
0
  6
CONTINUOUS
 62
             7
100
AcDbLine
 10
-991.59193037374121
 20
-297.55504234950843
 11
-991.03753984659932
 21
-298.21573925193007
  0
LINE
  5
226
100
AcDbEntity
  8
0
  6
CONTINUOUS
 62
             7
100
AcDbLine
 10
-995.96441332253937
 20
-298.1893267162713
 11
-996.2219821549055
 21
-297.8989036657677
  0
LINE
  5
225
100
AcDbEntity
  8
0
  6
CONTINUOUS
 62
             7
100
AcDbLine
 10
-995.13505676269597
 20
-297.49341393279218
 11
-995.96441332253937
 21
-298.1893267162713
  0
LINE
  5
224
100
AcDbEntity
  8
0
  6
CONTINUOUS
 62
             7
100
AcDbLine
 10
-995.98998182164462
 20
-298.53713305677343
 11
-996.39434750716202
 21
-298.87643615435172
  0
LINE
  5
223
100
AcDbEntity
  8
0
  6
CONTINUOUS
 62
             7
100
AcDbLine
 10
-995.98998182164462
 20
-298.53713305677343
 11
-995.43559129450273
 21
-299.19782995919502
  0
LINE
  5
222
100
AcDbEntity
  8
0
  6
CONTINUOUS
 62
             7
100
AcDbLine
 10
-995.60087609397385
 20
-294.37643615435172
 11
-996.2219821549055
 21
-297.8989036657677
  0
LINE
  5
221
100
AcDbEntity
  8
0
  6
CONTINUOUS
 62
             7
100
AcDbLine
 10
-995.44626269766354
 20
-298.40725036270982
 11
-995.05256907294313
 21
-298.87643615435172
  0
LINE
  5
220
100
AcDbEntity
  8
0
  6
CONTINUOUS
 62
             7
100
AcDbLine
 10
-994.81366295785267
 20
-297.87643615435172
 11
-995.44626269766354
 21
-298.40725036270982
  0
LINE
  5
21F
100
AcDbEntity
  8
0
  6
CONTINUOUS
 62
             7
100
AcDbLine
 10
-991.97495259530081
 20
-297.87643615435172
 11
-994.81366295785267
 21
-297.87643615435172
  0
LINE
  5
21E
100
AcDbEntity
  8
0
  6
CONTINUOUS
 62
             7
100
AcDbLine
 10
-992.21385871039126
 20
-298.87643615435172
 11
-995.05256907294313
 21
-298.87643615435172
  0
LINE
  5
21D
100
AcDbEntity
  8
0
  6
CONTINUOUS
 62
             7
100
AcDbLine
 10
-991.58125897058039
 20
-298.34562194599363
 11
-992.21385871039126
 21
-298.87643615435172
  0
LINE
  5
21C
100
AcDbEntity
  8
0
  6
CONTINUOUS
 62
             7
100
AcDbLine
 10
-991.97495259530081
 20
-297.87643615435172
 11
-991.58125897058039
 21
-298.34562194599363
  0
LINE
  5
21B
100
AcDbEntity
  8
0
  6
CONTINUOUS
 62
             7
100
AcDbLine
 10
-994.40912250137967
 20
-293.37643615435172
 11
-994.81348818689708
 21
-293.71573925193007
  0
LINE
  5
21A
100
AcDbEntity
  8
0
  6
CONTINUOUS
 62
             7
100
AcDbLine
 10
-990.85512935977954
 20
-293.37643615435172
 11
-994.40912250137967
 21
-293.37643615435172
  0
LINE
  5
219
100
AcDbEntity
  8
0
  6
CONTINUOUS
 62
             7
100
AcDbLine
 10
-992.61839916686426
 20
-303.37643615435172
 11
-992.21403348134686
 21
-303.03713305677343
  0
LINE
  5
218
100
AcDbEntity
  8
0
  6
CONTINUOUS
 62
             7
100
AcDbLine
 10
-996.1723923084644
 20
-303.37643615435172
 11
-992.61839916686426
 21
-303.37643615435172
  0
LINE
  5
217
100
AcDbEntity
  8
0
  6
CONTINUOUS
 62
             7
100
AcDbLine
 10
-991.42664557427008
 20
-302.37643615435172
 11
-991.83101125978737
 21
-302.71573925193007
  0
LINE
  5
216
100
AcDbEntity
  8
0
  6
CONTINUOUS
 62
             7
100
AcDbLine
 10
-990.80950114179041
 20
-298.87643615435172
 11
-991.42664557427008
 21
-302.37643615435172
  0
LINE
  5
215
100
AcDbEntity
  8
0
  6
CONTINUOUS
 62
             7
100
AcDbLine
 10
-990.63317416108191
 20
-297.87643615435172
 11
-991.03753984659932
 21
-298.21573925193007
  0
LINE
  5
214
100
AcDbEntity
  8
0
  6
CONTINUOUS
 62
             7
100
AcDbLine
 10
-990.01602972860235
 20
-294.37643615435172
 11
-990.63317416108191
 21
-297.87643615435172
  0
LINE
  5
213
100
AcDbEntity
  8
0
  6
CONTINUOUS
 62
             7
100
AcDbLine
 10
-997.01149193964159
 20
-302.37643615435172
 11
-996.75263902647464
 21
-302.68492504357198
  0
LINE
  5
212
100
AcDbEntity
  8
0
  6
CONTINUOUS
 62
             7
100
AcDbLine
 10
-996.39434750716202
 20
-298.87643615435172
 11
-997.01149193964159
 21
-302.37643615435172
  0
LINE
  5
211
100
AcDbEntity
  8
0
  6
CONTINUOUS
 62
             7
100
AcDbLine
 10
-995.60087609397385
 20
-294.37643615435172
 11
-995.19651040845656
 21
-294.03713305677343
  0
LINE
  5
210
100
AcDbEntity
  8
0
  6
CONTINUOUS
 62
             7
100
AcDbLine
 10
-985.60087609397385
 20
-294.37643615435172
 11
-985.19651040845656
 21
-294.03713305677343
  0
LINE
  5
20F
100
AcDbEntity
  8
0
  6
CONTINUOUS
 62
             7
100
AcDbLine
 10
-986.39434750716202
 20
-298.87643615435172
 11
-987.01149193964159
 21
-302.37643615435172
  0
LINE
  5
20E
100
AcDbEntity
  8
0
  6
CONTINUOUS
 62
             7
100
AcDbLine
 10
-987.01149193964159
 20
-302.37643615435172
 11
-986.75263902647464
 21
-302.68492504357198
  0
LINE
  5
20D
100
AcDbEntity
  8
0
  6
CONTINUOUS
 62
             7
100
AcDbLine
 10
-980.01602972860235
 20
-294.37643615435172
 11
-980.63317416108191
 21
-297.87643615435172
  0
LINE
  5
20C
100
AcDbEntity
  8
0
  6
CONTINUOUS
 62
             7
100
AcDbLine
 10
-980.63317416108191
 20
-297.87643615435172
 11
-981.03753984659932
 21
-298.21573925193007
  0
LINE
  5
20B
100
AcDbEntity
  8
0
  6
CONTINUOUS
 62
             7
100
AcDbLine
 10
-980.80950114179041
 20
-298.87643615435172
 11
-981.42664557427008
 21
-302.37643615435172
  0
LINE
  5
20A
100
AcDbEntity
  8
0
  6
CONTINUOUS
 62
             7
100
AcDbLine
 10
-981.42664557427008
 20
-302.37643615435172
 11
-981.83101125978737
 21
-302.71573925193007
  0
LINE
  5
209
100
AcDbEntity
  8
0
  6
CONTINUOUS
 62
             7
100
AcDbLine
 10
-986.1723923084644
 20
-303.37643615435172
 11
-982.61839916686426
 21
-303.37643615435172
  0
LINE
  5
208
100
AcDbEntity
  8
0
  6
CONTINUOUS
 62
             7
100
AcDbLine
 10
-982.61839916686426
 20
-303.37643615435172
 11
-982.21403348134686
 21
-303.03713305677343
  0
LINE
  5
207
100
AcDbEntity
  8
0
  6
CONTINUOUS
 62
             7
100
AcDbLine
 10
-980.85512935977954
 20
-293.37643615435172
 11
-984.40912250137967
 21
-293.37643615435172
  0
LINE
  5
206
100
AcDbEntity
  8
0
  6
CONTINUOUS
 62
             7
100
AcDbLine
 10
-984.40912250137967
 20
-293.37643615435172
 11
-984.81348818689708
 21
-293.71573925193007
  0
LINE
  5
205
100
AcDbEntity
  8
0
  6
CONTINUOUS
 62
             7
100
AcDbLine
 10
-981.97495259530081
 20
-297.87643615435172
 11
-981.58125897058039
 21
-298.34562194599363
  0
LINE
  5
204
100
AcDbEntity
  8
0
  6
CONTINUOUS
 62
             7
100
AcDbLine
 10
-981.58125897058039
 20
-298.34562194599363
 11
-982.21385871039126
 21
-298.87643615435172
  0
LINE
  5
203
100
AcDbEntity
  8
0
  6
CONTINUOUS
 62
             7
100
AcDbLine
 10
-982.21385871039126
 20
-298.87643615435172
 11
-985.05256907294313
 21
-298.87643615435172
  0
LINE
  5
202
100
AcDbEntity
  8
0
  6
CONTINUOUS
 62
             7
100
AcDbLine
 10
-981.97495259530081
 20
-297.87643615435172
 11
-984.81366295785267
 21
-297.87643615435172
  0
LINE
  5
201
100
AcDbEntity
  8
0
  6
CONTINUOUS
 62
             7
100
AcDbLine
 10
-984.81366295785267
 20
-297.87643615435172
 11
-985.44626269766354
 21
-298.40725036270982
  0
LINE
  5
200
100
AcDbEntity
  8
0
  6
CONTINUOUS
 62
             7
100
AcDbLine
 10
-985.44626269766354
 20
-298.40725036270982
 11
-985.05256907294313
 21
-298.87643615435172
  0
LINE
  5
1FF
100
AcDbEntity
  8
0
  6
CONTINUOUS
 62
             7
100
AcDbLine
 10
-985.60087609397385
 20
-294.37643615435172
 11
-986.2219821549055
 21
-297.8989036657677
  0
LINE
  5
1FE
100
AcDbEntity
  8
0
  6
CONTINUOUS
 62
             7
100
AcDbLine
 10
-985.98998182164462
 20
-298.53713305677343
 11
-985.43559129450273
 21
-299.19782995919502
  0
LINE
  5
1FD
100
AcDbEntity
  8
0
  6
CONTINUOUS
 62
             7
100
AcDbLine
 10
-985.98998182164462
 20
-298.53713305677343
 11
-986.39434750716202
 21
-298.87643615435172
  0
LINE
  5
1FC
100
AcDbEntity
  8
0
  6
CONTINUOUS
 62
             7
100
AcDbLine
 10
-985.13505676269597
 20
-297.49341393279218
 11
-985.96441332253937
 21
-298.1893267162713
  0
LINE
  5
1FB
100
AcDbEntity
  8
0
  6
CONTINUOUS
 62
             7
100
AcDbLine
 10
-985.96441332253937
 20
-298.1893267162713
 11
-986.2219821549055
 21
-297.8989036657677
  0
LINE
  5
1FA
100
AcDbEntity
  8
0
  6
CONTINUOUS
 62
             7
100
AcDbLine
 10
-981.59193037374121
 20
-297.55504234950843
 11
-981.03753984659932
 21
-298.21573925193007
  0
LINE
  5
1F9
100
AcDbEntity
  8
0
  6
CONTINUOUS
 62
             7
100
AcDbLine
 10
-981.59193037374121
 20
-297.55504234950843
 11
-981.09899349235991
 21
-294.75945837591121
  0
LINE
  5
1F8
100
AcDbEntity
  8
0
  6
CONTINUOUS
 62
             7
100
AcDbLine
 10
-981.89246490554797
 20
-299.25945837591121
 11
-981.06835405495735
 21
-298.56794726513152
  0
LINE
  5
1F7
100
AcDbEntity
  8
0
  6
CONTINUOUS
 62
             7
100
AcDbLine
 10
-981.06835405495735
 20
-298.56794726513152
 11
-980.80950114179041
 21
-298.87643615435172
  0
LINE
  5
1F6
100
AcDbEntity
  8
0
  6
CONTINUOUS
 62
             7
100
AcDbLine
 10
-985.92852817588403
 20
-301.99341393279218
 11
-986.75263902647464
 21
-302.68492504357198
  0
LINE
  5
1F5
100
AcDbEntity
  8
0
  6
CONTINUOUS
 62
             7
100
AcDbLine
 10
-985.92852817588403
 20
-301.99341393279218
 11
-985.43559129450273
 21
-299.19782995919502
  0
LINE
  5
1F4
100
AcDbEntity
  8
0
  6
CONTINUOUS
 62
             7
100
AcDbLine
 10
-985.60713437104073
 20
-302.37643615435172
 11
-986.43124522163134
 21
-303.06794726513152
  0
LINE
  5
1F3
100
AcDbEntity
  8
0
  6
CONTINUOUS
 62
             7
100
AcDbLine
 10
-985.60713437104073
 20
-302.37643615435172
 11
-982.76842400848886
 21
-302.37643615435172
  0
LINE
  5
1F2
100
AcDbEntity
  8
0
  6
CONTINUOUS
 62
             7
100
AcDbLine
 10
-986.43124522163134
 20
-303.06794726513152
 11
-986.1723923084644
 21
-303.37643615435172
  0
LINE
  5
1F1
100
AcDbEntity
  8
0
  6
CONTINUOUS
 62
             7
100
AcDbLine
 10
-982.76842400848886
 20
-302.37643615435172
 11
-982.21403348134686
 21
-303.03713305677343
  0
LINE
  5
1F0
100
AcDbEntity
  8
0
  6
CONTINUOUS
 62
             7
100
AcDbLine
 10
-982.38540178692938
 20
-302.05504234950843
 11
-981.83101125978737
 21
-302.71573925193007
  0
LINE
  5
1EF
100
AcDbEntity
  8
0
  6
CONTINUOUS
 62
             7
100
AcDbLine
 10
-982.38540178692938
 20
-302.05504234950843
 11
-981.89246490554797
 21
-299.25945837591121
  0
LINE
  5
1EE
100
AcDbEntity
  8
0
  6
CONTINUOUS
 62
             7
100
AcDbLine
 10
-985.19651040845656
 20
-294.03713305677343
 11
-984.64211988131456
 21
-294.69782995919502
  0
LINE
  5
1ED
100
AcDbEntity
  8
0
  6
CONTINUOUS
 62
             7
100
AcDbLine
 10
-984.64211988131456
 20
-294.69782995919502
 11
-985.13505676269597
 21
-297.49341393279218
  0
LINE
  5
1EC
100
AcDbEntity
  8
0
  6
CONTINUOUS
 62
             7
100
AcDbLine
 10
-984.25909765975507
 20
-294.37643615435172
 11
-984.81348818689708
 21
-293.71573925193007
  0
LINE
  5
1EB
100
AcDbEntity
  8
0
  6
CONTINUOUS
 62
             7
100
AcDbLine
 10
-984.25909765975507
 20
-294.37643615435172
 11
-981.42038729720321
 21
-294.37643615435172
  0
LINE
  5
1EA
100
AcDbEntity
  8
0
  6
CONTINUOUS
 62
             7
100
AcDbLine
 10
-981.42038729720321
 20
-294.37643615435172
 11
-980.59627644661259
 21
-293.68492504357198
  0
LINE
  5
1E9
100
AcDbEntity
  8
0
  6
CONTINUOUS
 62
             7
100
AcDbLine
 10
-980.59627644661259
 20
-293.68492504357198
 11
-980.85512935977954
 21
-293.37643615435172
  0
LINE
  5
1E8
100
AcDbEntity
  8
0
  6
CONTINUOUS
 62
             7
100
AcDbLine
 10
-980.2748826417693
 20
-294.06794726513152
 11
-981.09899349235991
 21
-294.75945837591121
  0
LINE
  5
1E7
100
AcDbEntity
  8
0
  6
CONTINUOUS
 62
             7
100
AcDbLine
 10
-980.2748826417693
 20
-294.06794726513152
 11
-980.01602972860235
 21
-294.37643615435172
  0
LINE
  5
1E6
100
AcDbEntity
  8
0
  6
CONTINUOUS
 62
             7
100
AcDbLine
 10
-970.2748826417693
 20
-294.06794726513152
 11
-970.01602972860235
 21
-294.37643615435172
  0
LINE
  5
1E5
100
AcDbEntity
  8
0
  6
CONTINUOUS
 62
             7
100
AcDbLine
 10
-970.2748826417693
 20
-294.06794726513152
 11
-971.09899349235991
 21
-294.75945837591121
  0
LINE
  5
1E4
100
AcDbEntity
  8
0
  6
CONTINUOUS
 62
             7
100
AcDbLine
 10
-970.59627644661259
 20
-293.68492504357198
 11
-970.85512935977954
 21
-293.37643615435172
  0
LINE
  5
1E3
100
AcDbEntity
  8
0
  6
CONTINUOUS
 62
             7
100
AcDbLine
 10
-971.42038729720321
 20
-294.37643615435172
 11
-970.59627644661259
 21
-293.68492504357198
  0
LINE
  5
1E2
100
AcDbEntity
  8
0
  6
CONTINUOUS
 62
             7
100
AcDbLine
 10
-974.25909765975507
 20
-294.37643615435172
 11
-971.42038729720321
 21
-294.37643615435172
  0
LINE
  5
1E1
100
AcDbEntity
  8
0
  6
CONTINUOUS
 62
             7
100
AcDbLine
 10
-974.25909765975507
 20
-294.37643615435172
 11
-974.81348818689708
 21
-293.71573925193007
  0
LINE
  5
1E0
100
AcDbEntity
  8
0
  6
CONTINUOUS
 62
             7
100
AcDbLine
 10
-974.64211988131456
 20
-294.69782995919502
 11
-975.13505676269597
 21
-297.49341393279218
  0
LINE
  5
1DF
100
AcDbEntity
  8
0
  6
CONTINUOUS
 62
             7
100
AcDbLine
 10
-975.19651040845656
 20
-294.03713305677343
 11
-974.64211988131456
 21
-294.69782995919502
  0
LINE
  5
1DE
100
AcDbEntity
  8
0
  6
CONTINUOUS
 62
             7
100
AcDbLine
 10
-972.38540178692938
 20
-302.05504234950843
 11
-971.89246490554797
 21
-299.25945837591121
  0
LINE
  5
1DD
100
AcDbEntity
  8
0
  6
CONTINUOUS
 62
             7
100
AcDbLine
 10
-972.38540178692938
 20
-302.05504234950843
 11
-971.83101125978737
 21
-302.71573925193007
  0
LINE
  5
1DC
100
AcDbEntity
  8
0
  6
CONTINUOUS
 62
             7
100
AcDbLine
 10
-972.76842400848886
 20
-302.37643615435172
 11
-972.21403348134686
 21
-303.03713305677343
  0
LINE
  5
1DB
100
AcDbEntity
  8
0
  6
CONTINUOUS
 62
             7
100
AcDbLine
 10
-976.43124522163134
 20
-303.06794726513152
 11
-976.1723923084644
 21
-303.37643615435172
  0
LINE
  5
1DA
100
AcDbEntity
  8
0
  6
CONTINUOUS
 62
             7
100
AcDbLine
 10
-975.60713437104073
 20
-302.37643615435172
 11
-972.76842400848886
 21
-302.37643615435172
  0
LINE
  5
1D9
100
AcDbEntity
  8
0
  6
CONTINUOUS
 62
             7
100
AcDbLine
 10
-975.60713437104073
 20
-302.37643615435172
 11
-976.43124522163134
 21
-303.06794726513152
  0
LINE
  5
1D8
100
AcDbEntity
  8
0
  6
CONTINUOUS
 62
             7
100
AcDbLine
 10
-975.92852817588403
 20
-301.99341393279218
 11
-975.43559129450273
 21
-299.19782995919502
  0
LINE
  5
1D7
100
AcDbEntity
  8
0
  6
CONTINUOUS
 62
             7
100
AcDbLine
 10
-975.92852817588403
 20
-301.99341393279218
 11
-976.75263902647464
 21
-302.68492504357198
  0
LINE
  5
1D6
100
AcDbEntity
  8
0
  6
CONTINUOUS
 62
             7
100
AcDbLine
 10
-971.06835405495735
 20
-298.56794726513152
 11
-970.80950114179041
 21
-298.87643615435172
  0
LINE
  5
1D5
100
AcDbEntity
  8
0
  6
CONTINUOUS
 62
             7
100
AcDbLine
 10
-971.89246490554797
 20
-299.25945837591121
 11
-971.06835405495735
 21
-298.56794726513152
  0
LINE
  5
1D4
100
AcDbEntity
  8
0
  6
CONTINUOUS
 62
             7
100
AcDbLine
 10
-971.59193037374121
 20
-297.55504234950843
 11
-971.09899349235991
 21
-294.75945837591121
  0
LINE
  5
1D3
100
AcDbEntity
  8
0
  6
CONTINUOUS
 62
             7
100
AcDbLine
 10
-971.59193037374121
 20
-297.55504234950843
 11
-971.03753984659932
 21
-298.21573925193007
  0
LINE
  5
1D2
100
AcDbEntity
  8
0
  6
CONTINUOUS
 62
             7
100
AcDbLine
 10
-975.96441332253937
 20
-298.1893267162713
 11
-976.2219821549055
 21
-297.8989036657677
  0
LINE
  5
1D1
100
AcDbEntity
  8
0
  6
CONTINUOUS
 62
             7
100
AcDbLine
 10
-975.13505676269597
 20
-297.49341393279218
 11
-975.96441332253937
 21
-298.1893267162713
  0
LINE
  5
1D0
100
AcDbEntity
  8
0
  6
CONTINUOUS
 62
             7
100
AcDbLine
 10
-975.98998182164462
 20
-298.53713305677343
 11
-976.39434750716202
 21
-298.87643615435172
  0
LINE
  5
1CF
100
AcDbEntity
  8
0
  6
CONTINUOUS
 62
             7
100
AcDbLine
 10
-975.98998182164462
 20
-298.53713305677343
 11
-975.43559129450273
 21
-299.19782995919502
  0
LINE
  5
1CE
100
AcDbEntity
  8
0
  6
CONTINUOUS
 62
             7
100
AcDbLine
 10
-975.60087609397385
 20
-294.37643615435172
 11
-976.2219821549055
 21
-297.8989036657677
  0
LINE
  5
1CD
100
AcDbEntity
  8
0
  6
CONTINUOUS
 62
             7
100
AcDbLine
 10
-975.44626269766354
 20
-298.40725036270982
 11
-975.05256907294313
 21
-298.87643615435172
  0
LINE
  5
1CC
100
AcDbEntity
  8
0
  6
CONTINUOUS
 62
             7
100
AcDbLine
 10
-974.81366295785267
 20
-297.87643615435172
 11
-975.44626269766354
 21
-298.40725036270982
  0
LINE
  5
1CB
100
AcDbEntity
  8
0
  6
CONTINUOUS
 62
             7
100
AcDbLine
 10
-971.97495259530081
 20
-297.87643615435172
 11
-974.81366295785267
 21
-297.87643615435172
  0
LINE
  5
1CA
100
AcDbEntity
  8
0
  6
CONTINUOUS
 62
             7
100
AcDbLine
 10
-972.21385871039126
 20
-298.87643615435172
 11
-975.05256907294313
 21
-298.87643615435172
  0
LINE
  5
1C9
100
AcDbEntity
  8
0
  6
CONTINUOUS
 62
             7
100
AcDbLine
 10
-971.58125897058039
 20
-298.34562194599363
 11
-972.21385871039126
 21
-298.87643615435172
  0
LINE
  5
1C8
100
AcDbEntity
  8
0
  6
CONTINUOUS
 62
             7
100
AcDbLine
 10
-971.97495259530081
 20
-297.87643615435172
 11
-971.58125897058039
 21
-298.34562194599363
  0
LINE
  5
1C7
100
AcDbEntity
  8
0
  6
CONTINUOUS
 62
             7
100
AcDbLine
 10
-974.40912250137967
 20
-293.37643615435172
 11
-974.81348818689708
 21
-293.71573925193007
  0
LINE
  5
1C6
100
AcDbEntity
  8
0
  6
CONTINUOUS
 62
             7
100
AcDbLine
 10
-970.85512935977954
 20
-293.37643615435172
 11
-974.40912250137967
 21
-293.37643615435172
  0
LINE
  5
1C5
100
AcDbEntity
  8
0
  6
CONTINUOUS
 62
             7
100
AcDbLine
 10
-972.61839916686426
 20
-303.37643615435172
 11
-972.21403348134686
 21
-303.03713305677343
  0
LINE
  5
1C4
100
AcDbEntity
  8
0
  6
CONTINUOUS
 62
             7
100
AcDbLine
 10
-976.1723923084644
 20
-303.37643615435172
 11
-972.61839916686426
 21
-303.37643615435172
  0
LINE
  5
1C3
100
AcDbEntity
  8
0
  6
CONTINUOUS
 62
             7
100
AcDbLine
 10
-971.42664557427008
 20
-302.37643615435172
 11
-971.83101125978737
 21
-302.71573925193007
  0
LINE
  5
1C2
100
AcDbEntity
  8
0
  6
CONTINUOUS
 62
             7
100
AcDbLine
 10
-970.80950114179041
 20
-298.87643615435172
 11
-971.42664557427008
 21
-302.37643615435172
  0
LINE
  5
1C1
100
AcDbEntity
  8
0
  6
CONTINUOUS
 62
             7
100
AcDbLine
 10
-970.63317416108191
 20
-297.87643615435172
 11
-971.03753984659932
 21
-298.21573925193007
  0
LINE
  5
1C0
100
AcDbEntity
  8
0
  6
CONTINUOUS
 62
             7
100
AcDbLine
 10
-970.01602972860235
 20
-294.37643615435172
 11
-970.63317416108191
 21
-297.87643615435172
  0
LINE
  5
1BF
100
AcDbEntity
  8
0
  6
CONTINUOUS
 62
             7
100
AcDbLine
 10
-977.01149193964159
 20
-302.37643615435172
 11
-976.75263902647464
 21
-302.68492504357198
  0
LINE
  5
1BE
100
AcDbEntity
  8
0
  6
CONTINUOUS
 62
             7
100
AcDbLine
 10
-976.39434750716202
 20
-298.87643615435172
 11
-977.01149193964159
 21
-302.37643615435172
  0
LINE
  5
1BD
100
AcDbEntity
  8
0
  6
CONTINUOUS
 62
             7
100
AcDbLine
 10
-975.60087609397385
 20
-294.37643615435172
 11
-975.19651040845656
 21
-294.03713305677343
  0
LINE
  5
1BC
100
AcDbEntity
  8
0
  6
CONTINUOUS
 62
             7
100
AcDbLine
 10
-965.60087609397385
 20
-294.37643615435172
 11
-965.19651040845656
 21
-294.03713305677343
  0
LINE
  5
1BB
100
AcDbEntity
  8
0
  6
CONTINUOUS
 62
             7
100
AcDbLine
 10
-966.39434750716202
 20
-298.87643615435172
 11
-967.01149193964159
 21
-302.37643615435172
  0
LINE
  5
1BA
100
AcDbEntity
  8
0
  6
CONTINUOUS
 62
             7
100
AcDbLine
 10
-967.01149193964159
 20
-302.37643615435172
 11
-966.75263902647464
 21
-302.68492504357198
  0
LINE
  5
1B9
100
AcDbEntity
  8
0
  6
CONTINUOUS
 62
             7
100
AcDbLine
 10
-960.01602972860235
 20
-294.37643615435172
 11
-960.63317416108191
 21
-297.87643615435172
  0
LINE
  5
1B8
100
AcDbEntity
  8
0
  6
CONTINUOUS
 62
             7
100
AcDbLine
 10
-960.63317416108191
 20
-297.87643615435172
 11
-961.03753984659932
 21
-298.21573925193007
  0
LINE
  5
1B7
100
AcDbEntity
  8
0
  6
CONTINUOUS
 62
             7
100
AcDbLine
 10
-960.80950114179041
 20
-298.87643615435172
 11
-961.42664557427008
 21
-302.37643615435172
  0
LINE
  5
1B6
100
AcDbEntity
  8
0
  6
CONTINUOUS
 62
             7
100
AcDbLine
 10
-961.42664557427008
 20
-302.37643615435172
 11
-961.83101125978737
 21
-302.71573925193007
  0
LINE
  5
1B5
100
AcDbEntity
  8
0
  6
CONTINUOUS
 62
             7
100
AcDbLine
 10
-966.1723923084644
 20
-303.37643615435172
 11
-962.61839916686426
 21
-303.37643615435172
  0
LINE
  5
1B4
100
AcDbEntity
  8
0
  6
CONTINUOUS
 62
             7
100
AcDbLine
 10
-962.61839916686426
 20
-303.37643615435172
 11
-962.21403348134686
 21
-303.03713305677343
  0
LINE
  5
1B3
100
AcDbEntity
  8
0
  6
CONTINUOUS
 62
             7
100
AcDbLine
 10
-960.85512935977954
 20
-293.37643615435172
 11
-964.40912250137967
 21
-293.37643615435172
  0
LINE
  5
1B2
100
AcDbEntity
  8
0
  6
CONTINUOUS
 62
             7
100
AcDbLine
 10
-964.40912250137967
 20
-293.37643615435172
 11
-964.81348818689708
 21
-293.71573925193007
  0
LINE
  5
1B1
100
AcDbEntity
  8
0
  6
CONTINUOUS
 62
             7
100
AcDbLine
 10
-961.97495259530081
 20
-297.87643615435172
 11
-961.58125897058039
 21
-298.34562194599363
  0
LINE
  5
1B0
100
AcDbEntity
  8
0
  6
CONTINUOUS
 62
             7
100
AcDbLine
 10
-961.58125897058039
 20
-298.34562194599363
 11
-962.21385871039126
 21
-298.87643615435172
  0
LINE
  5
1AF
100
AcDbEntity
  8
0
  6
CONTINUOUS
 62
             7
100
AcDbLine
 10
-962.21385871039126
 20
-298.87643615435172
 11
-965.05256907294313
 21
-298.87643615435172
  0
LINE
  5
1AE
100
AcDbEntity
  8
0
  6
CONTINUOUS
 62
             7
100
AcDbLine
 10
-961.97495259530081
 20
-297.87643615435172
 11
-964.81366295785267
 21
-297.87643615435172
  0
LINE
  5
1AD
100
AcDbEntity
  8
0
  6
CONTINUOUS
 62
             7
100
AcDbLine
 10
-964.81366295785267
 20
-297.87643615435172
 11
-965.44626269766354
 21
-298.40725036270982
  0
LINE
  5
1AC
100
AcDbEntity
  8
0
  6
CONTINUOUS
 62
             7
100
AcDbLine
 10
-965.44626269766354
 20
-298.40725036270982
 11
-965.05256907294313
 21
-298.87643615435172
  0
LINE
  5
1AB
100
AcDbEntity
  8
0
  6
CONTINUOUS
 62
             7
100
AcDbLine
 10
-965.60087609397385
 20
-294.37643615435172
 11
-966.2219821549055
 21
-297.8989036657677
  0
LINE
  5
1AA
100
AcDbEntity
  8
0
  6
CONTINUOUS
 62
             7
100
AcDbLine
 10
-965.98998182164462
 20
-298.53713305677343
 11
-965.43559129450273
 21
-299.19782995919502
  0
LINE
  5
1A9
100
AcDbEntity
  8
0
  6
CONTINUOUS
 62
             7
100
AcDbLine
 10
-965.98998182164462
 20
-298.53713305677343
 11
-966.39434750716202
 21
-298.87643615435172
  0
LINE
  5
1A8
100
AcDbEntity
  8
0
  6
CONTINUOUS
 62
             7
100
AcDbLine
 10
-965.13505676269597
 20
-297.49341393279218
 11
-965.96441332253937
 21
-298.1893267162713
  0
LINE
  5
1A7
100
AcDbEntity
  8
0
  6
CONTINUOUS
 62
             7
100
AcDbLine
 10
-965.96441332253937
 20
-298.1893267162713
 11
-966.2219821549055
 21
-297.8989036657677
  0
LINE
  5
1A6
100
AcDbEntity
  8
0
  6
CONTINUOUS
 62
             7
100
AcDbLine
 10
-961.59193037374121
 20
-297.55504234950843
 11
-961.03753984659932
 21
-298.21573925193007
  0
LINE
  5
1A5
100
AcDbEntity
  8
0
  6
CONTINUOUS
 62
             7
100
AcDbLine
 10
-961.59193037374121
 20
-297.55504234950843
 11
-961.09899349235991
 21
-294.75945837591121
  0
LINE
  5
1A4
100
AcDbEntity
  8
0
  6
CONTINUOUS
 62
             7
100
AcDbLine
 10
-961.89246490554797
 20
-299.25945837591121
 11
-961.06835405495735
 21
-298.56794726513152
  0
LINE
  5
1A3
100
AcDbEntity
  8
0
  6
CONTINUOUS
 62
             7
100
AcDbLine
 10
-961.06835405495735
 20
-298.56794726513152
 11
-960.80950114179041
 21
-298.87643615435172
  0
LINE
  5
1A2
100
AcDbEntity
  8
0
  6
CONTINUOUS
 62
             7
100
AcDbLine
 10
-965.92852817588403
 20
-301.99341393279218
 11
-966.75263902647464
 21
-302.68492504357198
  0
LINE
  5
1A1
100
AcDbEntity
  8
0
  6
CONTINUOUS
 62
             7
100
AcDbLine
 10
-965.92852817588403
 20
-301.99341393279218
 11
-965.43559129450273
 21
-299.19782995919502
  0
LINE
  5
1A0
100
AcDbEntity
  8
0
  6
CONTINUOUS
 62
             7
100
AcDbLine
 10
-965.60713437104073
 20
-302.37643615435172
 11
-966.43124522163134
 21
-303.06794726513152
  0
LINE
  5
19F
100
AcDbEntity
  8
0
  6
CONTINUOUS
 62
             7
100
AcDbLine
 10
-965.60713437104073
 20
-302.37643615435172
 11
-962.76842400848886
 21
-302.37643615435172
  0
LINE
  5
19E
100
AcDbEntity
  8
0
  6
CONTINUOUS
 62
             7
100
AcDbLine
 10
-966.43124522163134
 20
-303.06794726513152
 11
-966.1723923084644
 21
-303.37643615435172
  0
LINE
  5
19D
100
AcDbEntity
  8
0
  6
CONTINUOUS
 62
             7
100
AcDbLine
 10
-962.76842400848886
 20
-302.37643615435172
 11
-962.21403348134686
 21
-303.03713305677343
  0
LINE
  5
19C
100
AcDbEntity
  8
0
  6
CONTINUOUS
 62
             7
100
AcDbLine
 10
-962.38540178692938
 20
-302.05504234950843
 11
-961.83101125978737
 21
-302.71573925193007
  0
LINE
  5
19B
100
AcDbEntity
  8
0
  6
CONTINUOUS
 62
             7
100
AcDbLine
 10
-962.38540178692938
 20
-302.05504234950843
 11
-961.89246490554797
 21
-299.25945837591121
  0
LINE
  5
19A
100
AcDbEntity
  8
0
  6
CONTINUOUS
 62
             7
100
AcDbLine
 10
-965.19651040845656
 20
-294.03713305677343
 11
-964.64211988131456
 21
-294.69782995919502
  0
LINE
  5
199
100
AcDbEntity
  8
0
  6
CONTINUOUS
 62
             7
100
AcDbLine
 10
-964.64211988131456
 20
-294.69782995919502
 11
-965.13505676269597
 21
-297.49341393279218
  0
LINE
  5
198
100
AcDbEntity
  8
0
  6
CONTINUOUS
 62
             7
100
AcDbLine
 10
-964.25909765975507
 20
-294.37643615435172
 11
-964.81348818689708
 21
-293.71573925193007
  0
LINE
  5
197
100
AcDbEntity
  8
0
  6
CONTINUOUS
 62
             7
100
AcDbLine
 10
-964.25909765975507
 20
-294.37643615435172
 11
-961.42038729720321
 21
-294.37643615435172
  0
LINE
  5
196
100
AcDbEntity
  8
0
  6
CONTINUOUS
 62
             7
100
AcDbLine
 10
-961.42038729720321
 20
-294.37643615435172
 11
-960.59627644661259
 21
-293.68492504357198
  0
LINE
  5
195
100
AcDbEntity
  8
0
  6
CONTINUOUS
 62
             7
100
AcDbLine
 10
-960.59627644661259
 20
-293.68492504357198
 11
-960.85512935977954
 21
-293.37643615435172
  0
LINE
  5
194
100
AcDbEntity
  8
0
  6
CONTINUOUS
 62
             7
100
AcDbLine
 10
-960.2748826417693
 20
-294.06794726513152
 11
-961.09899349235991
 21
-294.75945837591121
  0
LINE
  5
193
100
AcDbEntity
  8
0
  6
CONTINUOUS
 62
             7
100
AcDbLine
 10
-960.2748826417693
 20
-294.06794726513152
 11
-960.01602972860235
 21
-294.37643615435172
  0
LINE
  5
192
100
AcDbEntity
  8
0
  6
CONTINUOUS
 62
             7
100
AcDbLine
 10
-980.2748826417693
 20
-255.06794726513149
 11
-980.01602972860235
 21
-255.37643615435169
  0
LINE
  5
191
100
AcDbEntity
  8
0
  6
CONTINUOUS
 62
             7
100
AcDbLine
 10
-980.2748826417693
 20
-255.06794726513149
 11
-981.09899349235991
 21
-255.75945837591121
  0
LINE
  5
190
100
AcDbEntity
  8
0
  6
CONTINUOUS
 62
             7
100
AcDbLine
 10
-980.59627644661259
 20
-254.68492504357201
 11
-980.85512935977954
 21
-254.37643615435169
  0
LINE
  5
18F
100
AcDbEntity
  8
0
  6
CONTINUOUS
 62
             7
100
AcDbLine
 10
-981.42038729720321
 20
-255.37643615435169
 11
-980.59627644661259
 21
-254.68492504357201
  0
LINE
  5
18E
100
AcDbEntity
  8
0
  6
CONTINUOUS
 62
             7
100
AcDbLine
 10
-984.25909765975507
 20
-255.37643615435169
 11
-981.42038729720321
 21
-255.37643615435169
  0
LINE
  5
18D
100
AcDbEntity
  8
0
  6
CONTINUOUS
 62
             7
100
AcDbLine
 10
-984.25909765975507
 20
-255.37643615435169
 11
-984.81348818689708
 21
-254.7157392519301
  0
LINE
  5
18C
100
AcDbEntity
  8
0
  6
CONTINUOUS
 62
             7
100
AcDbLine
 10
-984.64211988131456
 20
-255.69782995919499
 11
-985.13505676269597
 21
-258.49341393279218
  0
LINE
  5
18B
100
AcDbEntity
  8
0
  6
CONTINUOUS
 62
             7
100
AcDbLine
 10
-985.19651040845656
 20
-255.0371330567734
 11
-984.64211988131456
 21
-255.69782995919499
  0
LINE
  5
18A
100
AcDbEntity
  8
0
  6
CONTINUOUS
 62
             7
100
AcDbLine
 10
-982.38540178692938
 20
-263.05504234950843
 11
-981.89246490554797
 21
-260.25945837591121
  0
LINE
  5
189
100
AcDbEntity
  8
0
  6
CONTINUOUS
 62
             7
100
AcDbLine
 10
-982.38540178692938
 20
-263.05504234950843
 11
-981.83101125978737
 21
-263.71573925193007
  0
LINE
  5
188
100
AcDbEntity
  8
0
  6
CONTINUOUS
 62
             7
100
AcDbLine
 10
-982.76842400848886
 20
-263.37643615435172
 11
-982.21403348134686
 21
-264.03713305677343
  0
LINE
  5
187
100
AcDbEntity
  8
0
  6
CONTINUOUS
 62
             7
100
AcDbLine
 10
-986.43124522163134
 20
-264.06794726513152
 11
-986.1723923084644
 21
-264.37643615435172
  0
LINE
  5
186
100
AcDbEntity
  8
0
  6
CONTINUOUS
 62
             7
100
AcDbLine
 10
-985.60713437104073
 20
-263.37643615435172
 11
-982.76842400848886
 21
-263.37643615435172
  0
LINE
  5
185
100
AcDbEntity
  8
0
  6
CONTINUOUS
 62
             7
100
AcDbLine
 10
-985.60713437104073
 20
-263.37643615435172
 11
-986.43124522163134
 21
-264.06794726513152
  0
LINE
  5
184
100
AcDbEntity
  8
0
  6
CONTINUOUS
 62
             7
100
AcDbLine
 10
-985.92852817588403
 20
-262.99341393279218
 11
-985.43559129450273
 21
-260.19782995919502
  0
LINE
  5
183
100
AcDbEntity
  8
0
  6
CONTINUOUS
 62
             7
100
AcDbLine
 10
-985.92852817588403
 20
-262.99341393279218
 11
-986.75263902647464
 21
-263.68492504357198
  0
LINE
  5
182
100
AcDbEntity
  8
0
  6
CONTINUOUS
 62
             7
100
AcDbLine
 10
-981.06835405495735
 20
-259.56794726513152
 11
-980.80950114179041
 21
-259.87643615435172
  0
LINE
  5
181
100
AcDbEntity
  8
0
  6
CONTINUOUS
 62
             7
100
AcDbLine
 10
-981.89246490554797
 20
-260.25945837591121
 11
-981.06835405495735
 21
-259.56794726513152
  0
LINE
  5
180
100
AcDbEntity
  8
0
  6
CONTINUOUS
 62
             7
100
AcDbLine
 10
-981.59193037374121
 20
-258.55504234950843
 11
-981.09899349235991
 21
-255.75945837591121
  0
LINE
  5
17F
100
AcDbEntity
  8
0
  6
CONTINUOUS
 62
             7
100
AcDbLine
 10
-981.59193037374121
 20
-258.55504234950843
 11
-981.03753984659932
 21
-259.21573925193007
  0
LINE
  5
17E
100
AcDbEntity
  8
0
  6
CONTINUOUS
 62
             7
100
AcDbLine
 10
-985.96441332253937
 20
-259.1893267162713
 11
-986.2219821549055
 21
-258.8989036657677
  0
LINE
  5
17D
100
AcDbEntity
  8
0
  6
CONTINUOUS
 62
             7
100
AcDbLine
 10
-985.13505676269597
 20
-258.49341393279218
 11
-985.96441332253937
 21
-259.1893267162713
  0
LINE
  5
17C
100
AcDbEntity
  8
0
  6
CONTINUOUS
 62
             7
100
AcDbLine
 10
-985.98998182164462
 20
-259.53713305677343
 11
-986.39434750716202
 21
-259.87643615435172
  0
LINE
  5
17B
100
AcDbEntity
  8
0
  6
CONTINUOUS
 62
             7
100
AcDbLine
 10
-985.98998182164462
 20
-259.53713305677343
 11
-985.43559129450273
 21
-260.19782995919502
  0
LINE
  5
17A
100
AcDbEntity
  8
0
  6
CONTINUOUS
 62
             7
100
AcDbLine
 10
-985.60087609397385
 20
-255.37643615435169
 11
-986.2219821549055
 21
-258.8989036657677
  0
LINE
  5
179
100
AcDbEntity
  8
0
  6
CONTINUOUS
 62
             7
100
AcDbLine
 10
-985.44626269766354
 20
-259.40725036270982
 11
-985.05256907294313
 21
-259.87643615435172
  0
LINE
  5
178
100
AcDbEntity
  8
0
  6
CONTINUOUS
 62
             7
100
AcDbLine
 10
-984.81366295785267
 20
-258.87643615435172
 11
-985.44626269766354
 21
-259.40725036270982
  0
LINE
  5
177
100
AcDbEntity
  8
0
  6
CONTINUOUS
 62
             7
100
AcDbLine
 10
-981.97495259530081
 20
-258.87643615435172
 11
-984.81366295785267
 21
-258.87643615435172
  0
LINE
  5
176
100
AcDbEntity
  8
0
  6
CONTINUOUS
 62
             7
100
AcDbLine
 10
-982.21385871039126
 20
-259.87643615435172
 11
-985.05256907294313
 21
-259.87643615435172
  0
LINE
  5
175
100
AcDbEntity
  8
0
  6
CONTINUOUS
 62
             7
100
AcDbLine
 10
-981.58125897058039
 20
-259.34562194599363
 11
-982.21385871039126
 21
-259.87643615435172
  0
LINE
  5
174
100
AcDbEntity
  8
0
  6
CONTINUOUS
 62
             7
100
AcDbLine
 10
-981.97495259530081
 20
-258.87643615435172
 11
-981.58125897058039
 21
-259.34562194599363
  0
LINE
  5
173
100
AcDbEntity
  8
0
  6
CONTINUOUS
 62
             7
100
AcDbLine
 10
-984.40912250137967
 20
-254.37643615435169
 11
-984.81348818689708
 21
-254.7157392519301
  0
LINE
  5
172
100
AcDbEntity
  8
0
  6
CONTINUOUS
 62
             7
100
AcDbLine
 10
-980.85512935977954
 20
-254.37643615435169
 11
-984.40912250137967
 21
-254.37643615435169
  0
LINE
  5
171
100
AcDbEntity
  8
0
  6
CONTINUOUS
 62
             7
100
AcDbLine
 10
-982.61839916686426
 20
-264.37643615435172
 11
-982.21403348134686
 21
-264.03713305677343
  0
LINE
  5
170
100
AcDbEntity
  8
0
  6
CONTINUOUS
 62
             7
100
AcDbLine
 10
-986.1723923084644
 20
-264.37643615435172
 11
-982.61839916686426
 21
-264.37643615435172
  0
LINE
  5
16F
100
AcDbEntity
  8
0
  6
CONTINUOUS
 62
             7
100
AcDbLine
 10
-981.42664557427008
 20
-263.37643615435172
 11
-981.83101125978737
 21
-263.71573925193007
  0
LINE
  5
16E
100
AcDbEntity
  8
0
  6
CONTINUOUS
 62
             7
100
AcDbLine
 10
-980.80950114179041
 20
-259.87643615435172
 11
-981.42664557427008
 21
-263.37643615435172
  0
LINE
  5
16D
100
AcDbEntity
  8
0
  6
CONTINUOUS
 62
             7
100
AcDbLine
 10
-980.63317416108191
 20
-258.87643615435172
 11
-981.03753984659932
 21
-259.21573925193007
  0
LINE
  5
16C
100
AcDbEntity
  8
0
  6
CONTINUOUS
 62
             7
100
AcDbLine
 10
-980.01602972860235
 20
-255.37643615435169
 11
-980.63317416108191
 21
-258.87643615435172
  0
LINE
  5
16B
100
AcDbEntity
  8
0
  6
CONTINUOUS
 62
             7
100
AcDbLine
 10
-987.01149193964159
 20
-263.37643615435172
 11
-986.75263902647464
 21
-263.68492504357198
  0
LINE
  5
16A
100
AcDbEntity
  8
0
  6
CONTINUOUS
 62
             7
100
AcDbLine
 10
-986.39434750716202
 20
-259.87643615435172
 11
-987.01149193964159
 21
-263.37643615435172
  0
LINE
  5
169
100
AcDbEntity
  8
0
  6
CONTINUOUS
 62
             7
100
AcDbLine
 10
-985.60087609397385
 20
-255.37643615435169
 11
-985.19651040845656
 21
-255.0371330567734
  0
LINE
  5
168
100
AcDbEntity
  8
1
  6
CONTINUOUS
 62
             7
100
AcDbLine
 10
-952.51376083412197
 20
-261.62643615435172
 11
-955.51376083412197
 21
-261.62643615435172
  0
LINE
  5
167
100
AcDbEntity
  8
1
  6
CONTINUOUS
 62
             7
100
AcDbLine
 10
-952.01376083412197
 20
-263.62643615435172
 11
-952.01376083412197
 21
-262.12643615435172
  0
LINE
  5
166
100
AcDbEntity
  8
1
  6
CONTINUOUS
 62
             7
100
AcDbLine
 10
-955.51376083412197
 20
-264.12643615435172
 11
-952.51376083412197
 21
-264.12643615435172
  0
LINE
  5
165
100
AcDbEntity
  8
1
  6
CONTINUOUS
 62
             7
100
AcDbLine
 10
-956.01376083412197
 20
-262.12643615435172
 11
-956.01376083412197
 21
-263.62643615435172
  0
LINE
  5
164
100
AcDbEntity
  8
1
  6
CONTINUOUS
 62
             7
100
AcDbLine
 10
-956.01376083412197
 20
-290.12643615435172
 11
-956.01376083412197
 21
-291.62643615435172
  0
LINE
  5
163
100
AcDbEntity
  8
1
  6
CONTINUOUS
 62
             7
100
AcDbLine
 10
-955.51376083412197
 20
-292.12643615435172
 11
-952.51376083412197
 21
-292.12643615435172
  0
LINE
  5
162
100
AcDbEntity
  8
1
  6
CONTINUOUS
 62
             7
100
AcDbLine
 10
-952.01376083412197
 20
-291.62643615435172
 11
-952.01376083412197
 21
-290.12643615435172
  0
LINE
  5
161
100
AcDbEntity
  8
1
  6
CONTINUOUS
 62
             7
100
AcDbLine
 10
-952.51376083412197
 20
-289.62643615435172
 11
-955.51376083412197
 21
-289.62643615435172
  0
LINE
  5
160
100
AcDbEntity
  8
1
  6
CONTINUOUS
 62
             7
100
AcDbLine
 10
-952.51376083412197
 20
-297.62643615435172
 11
-955.51376083412197
 21
-297.62643615435172
  0
LINE
  5
15F
100
AcDbEntity
  8
1
  6
CONTINUOUS
 62
             7
100
AcDbLine
 10
-952.01376083412197
 20
-299.62643615435172
 11
-952.01376083412197
 21
-298.12643615435172
  0
LINE
  5
15E
100
AcDbEntity
  8
1
  6
CONTINUOUS
 62
             7
100
AcDbLine
 10
-955.51376083412197
 20
-300.12643615435172
 11
-952.51376083412197
 21
-300.12643615435172
  0
LINE
  5
15D
100
AcDbEntity
  8
1
  6
CONTINUOUS
 62
             7
100
AcDbLine
 10
-956.01376083412197
 20
-298.12643615435172
 11
-956.01376083412197
 21
-299.62643615435172
  0
LINE
  5
15C
100
AcDbEntity
  8
1
  6
CONTINUOUS
 62
             7
100
AcDbLine
 10
-1008.513760834122
 20
-305.87643615435172
 11
-1008.513760834122
 21
-292.37643615435172
  0
LINE
  5
15B
100
AcDbEntity
  8
1
  6
CONTINUOUS
 62
             7
100
AcDbLine
 10
-955.51376083412197
 20
-267.37643615435172
 11
-947.01376083412185
 21
-267.37643615435172
  0
LINE
  5
15A
100
AcDbEntity
  8
1
  6
CONTINUOUS
 62
             7
100
AcDbLine
 10
-947.01376083412185
 20
-268.37643615435172
 11
-955.51376083412197
 21
-268.37643615435172
  0
LINE
  5
159
100
AcDbEntity
  8
1
  6
CONTINUOUS
 62
             7
100
AcDbLine
 10
-952.01376083412197
 20
-283.62643615435172
 11
-952.01376083412197
 21
-282.12643615435172
  0
LINE
  5
158
100
AcDbEntity
  8
1
  6
CONTINUOUS
 62
             7
100
AcDbLine
 10
-955.51376083412197
 20
-284.12643615435172
 11
-952.51376083412197
 21
-284.12643615435172
  0
LINE
  5
157
100
AcDbEntity
  8
1
  6
CONTINUOUS
 62
             7
100
AcDbLine
 10
-956.01376083412197
 20
-282.12643615435172
 11
-956.01376083412197
 21
-283.62643615435172
  0
LINE
  5
156
100
AcDbEntity
  8
1
  6
CONTINUOUS
 62
             7
100
AcDbLine
 10
-952.51376083412197
 20
-281.62643615435172
 11
-955.51376083412197
 21
-281.62643615435172
  0
LINE
  5
155
100
AcDbEntity
  8
1
  6
CONTINUOUS
 62
             7
100
AcDbLine
 10
-998.01376083412185
 20
-303.37643615435172
 11
-998.01376083412185
 21
-293.37643615435172
  0
LINE
  5
154
100
AcDbEntity
  8
1
  6
CONTINUOUS
 62
             7
100
AcDbLine
 10
-1022.613760834122
 20
-297.57643615435171
 11
-1019.013760834122
 21
-297.57643615435171
  0
LINE
  5
153
100
AcDbEntity
  8
1
  6
CONTINUOUS
 62
             7
100
AcDbLine
 10
-1021.813760834122
 20
-303.82643615435182
 11
-1019.813760834122
 21
-303.82643615435182
  0
LINE
  5
152
100
AcDbEntity
  8
1
  6
CONTINUOUS
 62
             7
100
AcDbLine
 10
-1022.313760834122
 20
-298.32643615435182
 11
-1022.313760834122
 21
-303.32643615435182
  0
LINE
  5
151
100
AcDbEntity
  8
1
  6
CONTINUOUS
 62
             7
100
AcDbLine
 10
-1019.313760834122
 20
-303.32643615435182
 11
-1019.313760834122
 21
-298.32643615435182
  0
LINE
  5
150
100
AcDbEntity
  8
1
  6
CONTINUOUS
 62
             7
100
AcDbLine
 10
-1019.813760834122
 20
-297.82643615435182
 11
-1021.813760834122
 21
-297.82643615435182
  0
LINE
  5
14F
100
AcDbEntity
  8
1
  6
CONTINUOUS
 62
             7
100
AcDbLine
 10
-1019.313760834122
 20
-253.07643615435171
 11
-1023.4137608341219
 21
-253.07643615435171
  0
LINE
  5
14E
100
AcDbEntity
  8
1
  6
CONTINUOUS
 62
             7
100
AcDbLine
 10
-1019.313760834122
 20
-296.57643615435171
 11
-1019.313760834122
 21
-253.07643615435171
  0
LINE
  5
14D
100
AcDbEntity
  8
1
  6
CONTINUOUS
 62
             7
100
AcDbLine
 10
-1023.4137608341219
 20
-296.57643615435171
 11
-1019.313760834122
 21
-296.57643615435171
  0
LINE
  5
14C
100
AcDbEntity
  8
1
  6
CONTINUOUS
 62
             7
100
AcDbLine
 10
-829.51376083412185
 20
-240.87643615435169
 11
-817.41376083412183
 21
-240.87643615435169
  0
LINE
  5
14B
100
AcDbEntity
  8
1
  6
CONTINUOUS
 62
             7
100
AcDbLine
 10
-841.01376083412185
 20
-238.97643615435169
 11
-817.41376083412183
 21
-238.97643615435169
  0
LINE
  5
14A
100
AcDbEntity
  8
1
  6
CONTINUOUS
 62
             7
100
AcDbLine
 10
-810.11376083412188
 20
-245.37643615435169
 11
-810.61376083412188
 21
-245.37643615435169
  0
LINE
  5
149
100
AcDbEntity
  8
1
  6
CONTINUOUS
 62
             7
100
AcDbLine
 10
-809.51376083412185
 20
-244.77643615435181
 11
-809.51376083412185
 21
-244.62643615435169
  0
LINE
  5
148
100
AcDbEntity
  8
1
  6
CONTINUOUS
 62
             7
100
AcDbLine
 10
-809.51376083412185
 20
-238.37643615435169
 11
-810.11376083412188
 21
-238.37643615435169
  0
LINE
  5
147
100
AcDbEntity
  8
1
  6
CONTINUOUS
 62
             7
100
AcDbLine
 10
-810.11376083412188
 20
-238.37643615435169
 11
-810.11376083412188
 21
-240.37643615435169
  0
LINE
  5
146
100
AcDbEntity
  8
1
  6
CONTINUOUS
 62
             7
100
AcDbLine
 10
-810.11376083412188
 20
-244.77643615435181
 11
-810.61376083412188
 21
-244.77643615435181
  0
LINE
  5
145
100
AcDbEntity
  8
1
  6
CONTINUOUS
 62
             7
100
AcDbLine
 10
-810.61376083412188
 20
-245.37643615435169
 11
-810.61376083412188
 21
-244.77643615435181
  0
LINE
  5
144
100
AcDbEntity
  8
1
  6
CONTINUOUS
 62
             7
100
AcDbLine
 10
-810.61376083412188
 20
-244.77643615435181
 11
-810.61376083412188
 21
-243.37643615435169
  0
LINE
  5
143
100
AcDbEntity
  8
1
  6
CONTINUOUS
 62
             7
100
AcDbLine
 10
-810.61376083412188
 20
-242.37643615435169
 11
-815.01376083412185
 21
-242.37643615435169
  0
LINE
  5
142
100
AcDbEntity
  8
1
  6
CONTINUOUS
 62
             7
100
AcDbLine
 10
-901.51376083412185
 20
-242.37643615435169
 11
-901.51376083412185
 21
-245.37643615435169
  0
LINE
  5
141
100
AcDbEntity
  8
1
  6
CONTINUOUS
 62
             7
100
AcDbLine
 10
-842.2137608341219
 20
-242.37643615435169
 11
-842.2137608341219
 21
-238.97643615435169
  0
LINE
  5
140
100
AcDbEntity
  8
1
  6
CONTINUOUS
 62
             7
100
AcDbLine
 10
-841.01376083412185
 20
-242.37643615435169
 11
-901.51376083412185
 21
-242.37643615435169
  0
LINE
  5
13F
100
AcDbEntity
  8
1
  6
CONTINUOUS
 62
             7
100
AcDbLine
 10
-841.01376083412185
 20
-237.7764361543517
 11
-817.41376083412183
 21
-237.7764361543517
  0
LINE
  5
13E
100
AcDbEntity
  8
1
  6
CONTINUOUS
 62
             7
100
AcDbLine
 10
-816.2137608341219
 20
-238.97643615435169
 11
-816.2137608341219
 21
-240.37643615435169
  0
LINE
  5
13D
100
AcDbEntity
  8
1
  6
CONTINUOUS
 62
             7
100
AcDbLine
 10
-815.01376083412185
 20
-242.37643615435169
 11
-816.2137608341219
 21
-242.37643615435169
  0
LINE
  5
13C
100
AcDbEntity
  8
1
  6
CONTINUOUS
 62
             7
100
AcDbLine
 10
-841.01376083412185
 20
-242.37643615435169
 11
-841.01376083412185
 21
-238.97643615435169
  0
LINE
  5
13B
100
AcDbEntity
  8
1
  6
CONTINUOUS
 62
             7
100
AcDbLine
 10
-839.81376083412192
 20
-242.37643615435169
 11
-841.01376083412185
 21
-242.37643615435169
  0
LINE
  5
13A
100
AcDbEntity
  8
1
  6
CONTINUOUS
 62
             7
100
AcDbLine
 10
-816.2137608341219
 20
-238.97643615435169
 11
-816.2137608341219
 21
-240.37643615435169
  0
LINE
  5
139
100
AcDbEntity
  8
1
  6
CONTINUOUS
 62
             7
100
AcDbLine
 10
-816.2137608341219
 20
-242.37643615435169
 11
-817.41376083412183
 21
-242.37643615435169
  0
LINE
  5
138
100
AcDbEntity
  8
1
  6
CONTINUOUS
 62
             7
100
AcDbLine
 10
-817.41376083412183
 20
-238.97643615435169
 11
-817.41376083412183
 21
-240.37643615435169
  0
LINE
  5
137
100
AcDbEntity
  8
1
  6
CONTINUOUS
 62
             7
100
AcDbLine
 10
-817.41376083412183
 20
-242.37643615435169
 11
-829.51376083412185
 21
-242.37643615435169
  0
LINE
  5
136
100
AcDbEntity
  8
1
  6
CONTINUOUS
 62
             7
100
AcDbLine
 10
-809.51376083412185
 20
-244.62643615435169
 11
-808.51376083412185
 21
-244.62643615435169
  0
LINE
  5
135
100
AcDbEntity
  8
1
  6
CONTINUOUS
 62
             7
100
AcDbLine
 10
-809.51376083412185
 20
-244.62643615435169
 11
-809.51376083412185
 21
-239.12643615435169
  0
LINE
  5
134
100
AcDbEntity
  8
1
  6
CONTINUOUS
 62
             7
100
AcDbLine
 10
-807.51376083412185
 20
-243.62643615435169
 11
-807.51376083412185
 21
-240.12643615435169
  0
LINE
  5
133
100
AcDbEntity
  8
1
  6
CONTINUOUS
 62
             7
100
AcDbLine
 10
-808.51376083412185
 20
-239.12643615435169
 11
-809.51376083412185
 21
-239.12643615435169
  0
LINE
  5
132
100
AcDbEntity
  8
1
  6
CONTINUOUS
 62
             7
100
AcDbLine
 10
-809.51376083412185
 20
-239.12643615435169
 11
-809.51376083412185
 21
-238.37643615435169
  0
LINE
  5
131
100
AcDbEntity
  8
1
  6
CONTINUOUS
 62
             7
100
AcDbLine
 10
-810.11376083412188
 20
-240.37643615435169
 11
-816.2137608341219
 21
-240.37643615435169
  0
LINE
  5
130
100
AcDbEntity
  8
1
  6
CONTINUOUS
 62
             7
100
AcDbLine
 10
-810.11376083412188
 20
-240.37643615435169
 11
-810.11376083412188
 21
-240.87643615435169
  0
LINE
  5
12F
100
AcDbEntity
  8
1
  6
CONTINUOUS
 62
             7
100
AcDbLine
 10
-816.2137608341219
 20
-240.37643615435169
 11
-816.2137608341219
 21
-240.87643615435169
  0
LINE
  5
12E
100
AcDbEntity
  8
1
  6
CONTINUOUS
 62
             7
100
AcDbLine
 10
-816.2137608341219
 20
-240.37643615435169
 11
-816.2137608341219
 21
-240.87643615435169
  0
LINE
  5
12D
100
AcDbEntity
  8
1
  6
CONTINUOUS
 62
             7
100
AcDbLine
 10
-817.41376083412183
 20
-240.37643615435169
 11
-829.51376083412185
 21
-240.37643615435169
  0
LINE
  5
12C
100
AcDbEntity
  8
1
  6
CONTINUOUS
 62
             7
100
AcDbLine
 10
-817.41376083412183
 20
-240.37643615435169
 11
-817.41376083412183
 21
-240.87643615435169
  0
LINE
  5
12B
100
AcDbEntity
  8
1
  6
CONTINUOUS
 62
             7
100
AcDbLine
 10
-829.51376083412185
 20
-240.37643615435169
 11
-829.51376083412185
 21
-240.87643615435169
  0
LINE
  5
12A
100
AcDbEntity
  8
1
  6
CONTINUOUS
 62
             7
100
AcDbLine
 10
-829.51376083412185
 20
-242.37643615435169
 11
-839.81376083412192
 21
-242.37643615435169
  0
LINE
  5
129
100
AcDbEntity
  8
1
  6
CONTINUOUS
 62
             7
100
AcDbLine
 10
-810.11376083412188
 20
-243.37643615435169
 11
-810.61376083412188
 21
-243.37643615435169
  0
LINE
  5
128
100
AcDbEntity
  8
1
  6
CONTINUOUS
 62
             7
100
AcDbLine
 10
-810.11376083412188
 20
-243.37643615435169
 11
-810.11376083412188
 21
-244.77643615435181
  0
LINE
  5
127
100
AcDbEntity
  8
1
  6
CONTINUOUS
 62
             7
100
AcDbLine
 10
-810.61376083412188
 20
-243.37643615435169
 11
-810.61376083412188
 21
-242.87643615435169
  0
LINE
  5
126
100
AcDbEntity
  8
1
  6
CONTINUOUS
 62
             7
100
AcDbLine
 10
-829.51376083412185
 20
-240.87643615435169
 11
-829.51376083412185
 21
-242.37643615435169
  0
LINE
  5
125
100
AcDbEntity
  8
1
  6
CONTINUOUS
 62
             7
100
AcDbLine
 10
-817.41376083412183
 20
-240.87643615435169
 11
-817.41376083412183
 21
-242.37643615435169
  0
LINE
  5
124
100
AcDbEntity
  8
1
  6
CONTINUOUS
 62
             7
100
AcDbLine
 10
-816.2137608341219
 20
-240.87643615435169
 11
-810.11376083412188
 21
-240.87643615435169
  0
LINE
  5
123
100
AcDbEntity
  8
1
  6
CONTINUOUS
 62
             7
100
AcDbLine
 10
-816.2137608341219
 20
-240.87643615435169
 11
-816.2137608341219
 21
-242.37643615435169
  0
LINE
  5
122
100
AcDbEntity
  8
1
  6
CONTINUOUS
 62
             7
100
AcDbLine
 10
-816.2137608341219
 20
-240.87643615435169
 11
-816.2137608341219
 21
-242.37643615435169
  0
LINE
  5
121
100
AcDbEntity
  8
1
  6
CONTINUOUS
 62
             7
100
AcDbLine
 10
-810.11376083412188
 20
-240.87643615435169
 11
-810.11376083412188
 21
-242.87643615435169
  0
LINE
  5
120
100
AcDbEntity
  8
1
  6
CONTINUOUS
 62
             7
100
AcDbLine
 10
-810.61376083412188
 20
-242.87643615435169
 11
-810.11376083412188
 21
-242.87643615435169
  0
LINE
  5
11F
100
AcDbEntity
  8
1
  6
CONTINUOUS
 62
             7
100
AcDbLine
 10
-810.61376083412188
 20
-242.87643615435169
 11
-810.61376083412188
 21
-242.37643615435169
  0
LINE
  5
11E
100
AcDbEntity
  8
1
  6
CONTINUOUS
 62
             7
100
AcDbLine
 10
-810.11376083412188
 20
-242.87643615435169
 11
-810.11376083412188
 21
-243.37643615435169
  0
LINE
  5
11D
100
AcDbEntity
  8
1
  6
CONTINUOUS
 62
             7
100
AcDbLine
 10
-809.51376083412185
 20
-337.12643615435172
 11
-809.51376083412185
 21
-336.97643615435169
  0
LINE
  5
11C
100
AcDbEntity
  8
1
  6
CONTINUOUS
 62
             7
100
AcDbLine
 10
-810.11376083412188
 20
-343.37643615435172
 11
-809.51376083412185
 21
-343.37643615435172
  0
LINE
  5
11B
100
AcDbEntity
  8
1
  6
CONTINUOUS
 62
             7
100
AcDbLine
 10
-810.11376083412188
 20
-341.37643615435172
 11
-810.11376083412188
 21
-343.37643615435172
  0
LINE
  5
11A
100
AcDbEntity
  8
1
  6
CONTINUOUS
 62
             7
100
AcDbLine
 10
-810.61376083412188
 20
-336.97643615435169
 11
-810.11376083412188
 21
-336.97643615435169
  0
LINE
  5
119
100
AcDbEntity
  8
1
  6
CONTINUOUS
 62
             7
100
AcDbLine
 10
-810.61376083412188
 20
-338.37643615435172
 11
-810.61376083412188
 21
-336.97643615435169
  0
LINE
  5
118
100
AcDbEntity
  8
1
  6
CONTINUOUS
 62
             7
100
AcDbLine
 10
-815.01376083412185
 20
-339.37643615435172
 11
-810.61376083412188
 21
-339.37643615435172
  0
LINE
  5
117
100
AcDbEntity
  8
1
  6
CONTINUOUS
 62
             7
100
AcDbLine
 10
-842.2137608341219
 20
-342.7764361543517
 11
-842.2137608341219
 21
-339.37643615435172
  0
LINE
  5
116
100
AcDbEntity
  8
1
  6
CONTINUOUS
 62
             7
100
AcDbLine
 10
-901.51376083412185
 20
-339.37643615435172
 11
-841.01376083412185
 21
-339.37643615435172
  0
LINE
  5
115
100
AcDbEntity
  8
1
  6
CONTINUOUS
 62
             7
100
AcDbLine
 10
-817.41376083412183
 20
-343.97643615435169
 11
-841.01376083412185
 21
-343.97643615435169
  0
LINE
  5
114
100
AcDbEntity
  8
1
  6
CONTINUOUS
 62
             7
100
AcDbLine
 10
-816.2137608341219
 20
-341.37643615435172
 11
-816.2137608341219
 21
-342.7764361543517
  0
LINE
  5
113
100
AcDbEntity
  8
1
  6
CONTINUOUS
 62
             7
100
AcDbLine
 10
-816.2137608341219
 20
-339.37643615435172
 11
-815.01376083412185
 21
-339.37643615435172
  0
LINE
  5
112
100
AcDbEntity
  8
1
  6
CONTINUOUS
 62
             7
100
AcDbLine
 10
-841.01376083412185
 20
-342.7764361543517
 11
-841.01376083412185
 21
-339.37643615435172
  0
LINE
  5
111
100
AcDbEntity
  8
1
  6
CONTINUOUS
 62
             7
100
AcDbLine
 10
-841.01376083412185
 20
-339.37643615435172
 11
-839.81376083412192
 21
-339.37643615435172
  0
LINE
  5
110
100
AcDbEntity
  8
1
  6
CONTINUOUS
 62
             7
100
AcDbLine
 10
-817.41376083412183
 20
-342.7764361543517
 11
-841.01376083412185
 21
-342.7764361543517
  0
LINE
  5
10F
100
AcDbEntity
  8
1
  6
CONTINUOUS
 62
             7
100
AcDbLine
 10
-816.2137608341219
 20
-341.37643615435172
 11
-816.2137608341219
 21
-342.7764361543517
  0
LINE
  5
10E
100
AcDbEntity
  8
1
  6
CONTINUOUS
 62
             7
100
AcDbLine
 10
-817.41376083412183
 20
-339.37643615435172
 11
-816.2137608341219
 21
-339.37643615435172
  0
LINE
  5
10D
100
AcDbEntity
  8
1
  6
CONTINUOUS
 62
             7
100
AcDbLine
 10
-817.41376083412183
 20
-341.37643615435172
 11
-817.41376083412183
 21
-342.7764361543517
  0
LINE
  5
10C
100
AcDbEntity
  8
1
  6
CONTINUOUS
 62
             7
100
AcDbLine
 10
-829.51376083412185
 20
-339.37643615435172
 11
-817.41376083412183
 21
-339.37643615435172
  0
LINE
  5
10B
100
AcDbEntity
  8
1
  6
CONTINUOUS
 62
             7
100
AcDbLine
 10
-808.51376083412185
 20
-337.12643615435172
 11
-809.51376083412185
 21
-337.12643615435172
  0
LINE
  5
10A
100
AcDbEntity
  8
1
  6
CONTINUOUS
 62
             7
100
AcDbLine
 10
-809.51376083412185
 20
-342.62643615435172
 11
-809.51376083412185
 21
-337.12643615435172
  0
LINE
  5
109
100
AcDbEntity
  8
1
  6
CONTINUOUS
 62
             7
100
AcDbLine
 10
-807.51376083412185
 20
-341.62643615435172
 11
-807.51376083412185
 21
-338.12643615435172
  0
LINE
  5
108
100
AcDbEntity
  8
1
  6
CONTINUOUS
 62
             7
100
AcDbLine
 10
-809.51376083412185
 20
-342.62643615435172
 11
-808.51376083412185
 21
-342.62643615435172
  0
LINE
  5
107
100
AcDbEntity
  8
1
  6
CONTINUOUS
 62
             7
100
AcDbLine
 10
-809.51376083412185
 20
-343.37643615435172
 11
-809.51376083412185
 21
-342.62643615435172
  0
LINE
  5
106
100
AcDbEntity
  8
1
  6
CONTINUOUS
 62
             7
100
AcDbLine
 10
-816.2137608341219
 20
-341.37643615435172
 11
-810.11376083412188
 21
-341.37643615435172
  0
LINE
  5
105
100
AcDbEntity
  8
1
  6
CONTINUOUS
 62
             7
100
AcDbLine
 10
-810.11376083412188
 20
-340.87643615435172
 11
-810.11376083412188
 21
-341.37643615435172
  0
LINE
  5
104
100
AcDbEntity
  8
1
  6
CONTINUOUS
 62
             7
100
AcDbLine
 10
-816.2137608341219
 20
-340.87643615435172
 11
-816.2137608341219
 21
-341.37643615435172
  0
LINE
  5
103
100
AcDbEntity
  8
1
  6
CONTINUOUS
 62
             7
100
AcDbLine
 10
-816.2137608341219
 20
-340.87643615435172
 11
-816.2137608341219
 21
-341.37643615435172
  0
LINE
  5
102
100
AcDbEntity
  8
1
  6
CONTINUOUS
 62
             7
100
AcDbLine
 10
-829.51376083412185
 20
-341.37643615435172
 11
-817.41376083412183
 21
-341.37643615435172
  0
LINE
  5
101
100
AcDbEntity
  8
1
  6
CONTINUOUS
 62
             7
100
AcDbLine
 10
-817.41376083412183
 20
-340.87643615435172
 11
-817.41376083412183
 21
-341.37643615435172
  0
LINE
  5
100
100
AcDbEntity
  8
1
  6
CONTINUOUS
 62
             7
100
AcDbLine
 10
-829.51376083412185
 20
-340.87643615435172
 11
-829.51376083412185
 21
-341.37643615435172
  0
LINE
  5
FF
100
AcDbEntity
  8
1
  6
CONTINUOUS
 62
             7
100
AcDbLine
 10
-839.81376083412192
 20
-339.37643615435172
 11
-829.51376083412185
 21
-339.37643615435172
  0
LINE
  5
FE
100
AcDbEntity
  8
1
  6
CONTINUOUS
 62
             7
100
AcDbLine
 10
-810.61376083412188
 20
-338.37643615435172
 11
-810.11376083412188
 21
-338.37643615435172
  0
LINE
  5
FD
100
AcDbEntity
  8
1
  6
CONTINUOUS
 62
             7
100
AcDbLine
 10
-810.11376083412188
 20
-336.97643615435169
 11
-810.11376083412188
 21
-338.37643615435172
  0
LINE
  5
FC
100
AcDbEntity
  8
1
  6
CONTINUOUS
 62
             7
100
AcDbLine
 10
-810.61376083412188
 20
-338.87643615435172
 11
-810.61376083412188
 21
-338.37643615435172
  0
LINE
  5
FB
100
AcDbEntity
  8
1
  6
CONTINUOUS
 62
             7
100
AcDbLine
 10
-817.41376083412183
 20
-340.87643615435172
 11
-829.51376083412185
 21
-340.87643615435172
  0
LINE
  5
FA
100
AcDbEntity
  8
1
  6
CONTINUOUS
 62
             7
100
AcDbLine
 10
-829.51376083412185
 20
-339.37643615435172
 11
-829.51376083412185
 21
-340.87643615435172
  0
LINE
  5
F9
100
AcDbEntity
  8
1
  6
CONTINUOUS
 62
             7
100
AcDbLine
 10
-817.41376083412183
 20
-339.37643615435172
 11
-817.41376083412183
 21
-340.87643615435172
  0
LINE
  5
F8
100
AcDbEntity
  8
1
  6
CONTINUOUS
 62
             7
100
AcDbLine
 10
-810.11376083412188
 20
-340.87643615435172
 11
-816.2137608341219
 21
-340.87643615435172
  0
LINE
  5
F7
100
AcDbEntity
  8
1
  6
CONTINUOUS
 62
             7
100
AcDbLine
 10
-816.2137608341219
 20
-339.37643615435172
 11
-816.2137608341219
 21
-340.87643615435172
  0
LINE
  5
F6
100
AcDbEntity
  8
1
  6
CONTINUOUS
 62
             7
100
AcDbLine
 10
-816.2137608341219
 20
-339.37643615435172
 11
-816.2137608341219
 21
-340.87643615435172
  0
LINE
  5
F5
100
AcDbEntity
  8
1
  6
CONTINUOUS
 62
             7
100
AcDbLine
 10
-810.11376083412188
 20
-338.87643615435172
 11
-810.11376083412188
 21
-340.87643615435172
  0
LINE
  5
F4
100
AcDbEntity
  8
1
  6
CONTINUOUS
 62
             7
100
AcDbLine
 10
-810.11376083412188
 20
-338.87643615435172
 11
-810.61376083412188
 21
-338.87643615435172
  0
LINE
  5
F3
100
AcDbEntity
  8
1
  6
CONTINUOUS
 62
             7
100
AcDbLine
 10
-810.61376083412188
 20
-339.37643615435172
 11
-810.61376083412188
 21
-338.87643615435172
  0
LINE
  5
F2
100
AcDbEntity
  8
1
  6
CONTINUOUS
 62
             7
100
AcDbLine
 10
-810.11376083412188
 20
-338.37643615435172
 11
-810.11376083412188
 21
-338.87643615435172
  0
LINE
  5
F1
100
AcDbEntity
  8
1
  6
CONTINUOUS
 62
             7
100
AcDbLine
 10
-810.61376083412188
 20
-336.97643615435169
 11
-810.61376083412188
 21
-336.37643615435172
  0
LINE
  5
F0
100
AcDbEntity
  8
1
  6
CONTINUOUS
 62
             7
100
AcDbLine
 10
-901.51376083412185
 20
-336.37643615435172
 11
-901.51376083412185
 21
-339.37643615435172
  0
LINE
  5
EF
100
AcDbEntity
  8
0
  6
CONTINUOUS
 62
             7
100
AcDbLine
 10
-809.49170632559026
 20
-332.07643615435182
 11
-809.49170632559026
 21
-329.56503624798472
  0
LINE
  5
EE
100
AcDbEntity
  8
0
  6
CONTINUOUS
 62
             7
100
AcDbLine
 10
-810.49170632559026
 20
-330.42643615435179
 11
-810.49170632559026
 21
-329.56503624798472
  0
LINE
  5
ED
100
AcDbEntity
  8
0
  6
CONTINUOUS
 62
             7
100
AcDbLine
 10
-810.49170632559026
 20
-327.78783606071892
 11
-810.49170632559026
 21
-326.92643615435179
  0
LINE
  5
EC
100
AcDbEntity
  8
0
  6
CONTINUOUS
 62
             7
100
AcDbLine
 10
-809.49170632559026
 20
-332.07643615435182
 11
-809.89170632559023
 21
-332.07643615435182
  0
LINE
  5
EB
100
AcDbEntity
  8
0
  6
CONTINUOUS
 62
             7
100
AcDbLine
 10
-809.49170632559026
 20
-325.27643615435181
 11
-809.89170632559023
 21
-325.27643615435181
  0
LINE
  5
EA
100
AcDbEntity
  8
0
  6
CONTINUOUS
 62
             7
100
AcDbLine
 10
-810.49170632559026
 20
-330.42643615435179
 11
-810.89170632559023
 21
-332.07643615435182
  0
LINE
  5
E9
100
AcDbEntity
  8
0
  6
CONTINUOUS
 62
             7
100
AcDbLine
 10
-809.49170632559026
 20
-330.42643615435179
 11
-809.89170632559023
 21
-332.07643615435182
  0
LINE
  5
E8
100
AcDbEntity
  8
0
  6
CONTINUOUS
 62
             7
100
AcDbLine
 10
-809.49170632559026
 20
-325.27643615435181
 11
-809.49170632559026
 21
-327.78783606071892
  0
LINE
  5
E7
100
AcDbEntity
  8
0
  6
CONTINUOUS
 62
             7
100
AcDbLine
 10
-810.89170632559023
 20
-329.27643615435181
 11
-810.6214816372725
 21
-329.37777041247091
  0
LINE
  5
E6
100
AcDbEntity
  8
0
  6
CONTINUOUS
 62
             7
100
AcDbLine
 10
-810.89170632559023
 20
-328.07643615435182
 11
-810.6214816372725
 21
-327.97510189623262
  0
LINE
  5
E5
100
AcDbEntity
  8
0
  6
CONTINUOUS
 62
             7
100
AcDbLine
 10
-809.89170632559023
 20
-329.27643615435181
 11
-809.6214816372725
 21
-329.37777041247091
  0
LINE
  5
E4
100
AcDbEntity
  8
0
  6
CONTINUOUS
 62
             7
100
AcDbLine
 10
-809.89170632559023
 20
-328.07643615435182
 11
-809.89170632559023
 21
-329.27643615435181
  0
LINE
  5
E3
100
AcDbEntity
  8
0
  6
CONTINUOUS
 62
             7
100
AcDbLine
 10
-809.89170632559023
 20
-328.07643615435182
 11
-809.6214816372725
 21
-327.97510189623262
  0
LINE
  5
E2
100
AcDbEntity
  8
0
  6
CONTINUOUS
 62
             7
100
AcDbLine
 10
-810.89170632559023
 20
-325.27643615435181
 11
-810.49170632559026
 21
-326.92643615435179
  0
LINE
  5
E1
100
AcDbEntity
  8
0
  6
CONTINUOUS
 62
             7
100
AcDbLine
 10
-809.89170632559023
 20
-325.27643615435181
 11
-809.49170632559026
 21
-326.92643615435179
  0
LINE
  5
E0
100
AcDbEntity
  8
0
  6
CONTINUOUS
 62
             7
100
AcDbLine
 10
-809.89170632559023
 20
-332.07643615435182
 11
-810.89170632559023
 21
-332.07643615435182
  0
LINE
  5
DF
100
AcDbEntity
  8
0
  6
CONTINUOUS
 62
             7
100
AcDbLine
 10
-809.89170632559023
 20
-325.27643615435181
 11
-810.89170632559023
 21
-325.27643615435181
  0
LINE
  5
DE
100
AcDbEntity
  8
0
  6
CONTINUOUS
 62
             7
100
AcDbLine
 10
-808.75258618396583
 20
-331.42643615435179
 11
-809.49170632559026
 21
-331.42643615435179
  0
LINE
  5
DD
100
AcDbEntity
  8
0
  6
CONTINUOUS
 62
             7
100
AcDbLine
 10
-809.49170632559026
 20
-325.92643615435179
 11
-808.75258618396583
 21
-325.92643615435179
  0
LINE
  5
DC
100
AcDbEntity
  8
0
  6
CONTINUOUS
 62
             7
100
AcDbLine
 10
-809.49170632559026
 20
-327.78783606071892
 11
-809.49170632559026
 21
-329.56503624798472
  0
LINE
  5
DB
100
AcDbEntity
  8
0
  6
CONTINUOUS
 62
             7
100
AcDbLine
 10
-809.49170632559026
 20
-323.6764361543519
 11
-809.49170632559026
 21
-321.16503624798469
  0
LINE
  5
DA
100
AcDbEntity
  8
0
  6
CONTINUOUS
 62
             7
100
AcDbLine
 10
-810.49170632559026
 20
-322.02643615435181
 11
-810.49170632559026
 21
-321.16503624798469
  0
LINE
  5
D9
100
AcDbEntity
  8
0
  6
CONTINUOUS
 62
             7
100
AcDbLine
 10
-810.49170632559026
 20
-319.38783606071883
 11
-810.49170632559026
 21
-318.52643615435181
  0
LINE
  5
D8
100
AcDbEntity
  8
0
  6
CONTINUOUS
 62
             7
100
AcDbLine
 10
-809.49170632559026
 20
-323.6764361543519
 11
-809.89170632559023
 21
-323.6764361543519
  0
LINE
  5
D7
100
AcDbEntity
  8
0
  6
CONTINUOUS
 62
             7
100
AcDbLine
 10
-809.49170632559026
 20
-316.87643615435178
 11
-809.89170632559023
 21
-316.87643615435178
  0
LINE
  5
D6
100
AcDbEntity
  8
0
  6
CONTINUOUS
 62
             7
100
AcDbLine
 10
-810.49170632559026
 20
-322.02643615435181
 11
-810.89170632559023
 21
-323.6764361543519
  0
LINE
  5
D5
100
AcDbEntity
  8
0
  6
CONTINUOUS
 62
             7
100
AcDbLine
 10
-809.49170632559026
 20
-322.02643615435181
 11
-809.89170632559023
 21
-323.6764361543519
  0
LINE
  5
D4
100
AcDbEntity
  8
0
  6
CONTINUOUS
 62
             7
100
AcDbLine
 10
-809.49170632559026
 20
-316.87643615435178
 11
-809.49170632559026
 21
-319.38783606071883
  0
LINE
  5
D3
100
AcDbEntity
  8
0
  6
CONTINUOUS
 62
             7
100
AcDbLine
 10
-810.89170632559023
 20
-320.87643615435178
 11
-810.6214816372725
 21
-320.97777041247087
  0
LINE
  5
D2
100
AcDbEntity
  8
0
  6
CONTINUOUS
 62
             7
100
AcDbLine
 10
-810.89170632559023
 20
-319.6764361543519
 11
-810.6214816372725
 21
-319.5751018962327
  0
LINE
  5
D1
100
AcDbEntity
  8
0
  6
CONTINUOUS
 62
             7
100
AcDbLine
 10
-809.89170632559023
 20
-320.87643615435178
 11
-809.6214816372725
 21
-320.97777041247087
  0
LINE
  5
D0
100
AcDbEntity
  8
0
  6
CONTINUOUS
 62
             7
100
AcDbLine
 10
-809.89170632559023
 20
-319.6764361543519
 11
-809.89170632559023
 21
-320.87643615435178
  0
LINE
  5
CF
100
AcDbEntity
  8
0
  6
CONTINUOUS
 62
             7
100
AcDbLine
 10
-809.89170632559023
 20
-319.6764361543519
 11
-809.6214816372725
 21
-319.5751018962327
  0
LINE
  5
CE
100
AcDbEntity
  8
0
  6
CONTINUOUS
 62
             7
100
AcDbLine
 10
-810.89170632559023
 20
-316.87643615435178
 11
-810.49170632559026
 21
-318.52643615435181
  0
LINE
  5
CD
100
AcDbEntity
  8
0
  6
CONTINUOUS
 62
             7
100
AcDbLine
 10
-809.89170632559023
 20
-316.87643615435178
 11
-809.49170632559026
 21
-318.52643615435181
  0
LINE
  5
CC
100
AcDbEntity
  8
0
  6
CONTINUOUS
 62
             7
100
AcDbLine
 10
-809.89170632559023
 20
-323.6764361543519
 11
-810.89170632559023
 21
-323.6764361543519
  0
LINE
  5
CB
100
AcDbEntity
  8
0
  6
CONTINUOUS
 62
             7
100
AcDbLine
 10
-809.89170632559023
 20
-316.87643615435178
 11
-810.89170632559023
 21
-316.87643615435178
  0
LINE
  5
CA
100
AcDbEntity
  8
0
  6
CONTINUOUS
 62
             7
100
AcDbLine
 10
-808.75258618396583
 20
-323.02643615435181
 11
-809.49170632559026
 21
-323.02643615435181
  0
LINE
  5
C9
100
AcDbEntity
  8
0
  6
CONTINUOUS
 62
             7
100
AcDbLine
 10
-809.49170632559026
 20
-317.52643615435181
 11
-808.75258618396583
 21
-317.52643615435181
  0
LINE
  5
C8
100
AcDbEntity
  8
0
  6
CONTINUOUS
 62
             7
100
AcDbLine
 10
-809.49170632559026
 20
-319.38783606071883
 11
-809.49170632559026
 21
-321.16503624798469
  0
LINE
  5
C7
100
AcDbEntity
  8
0
  6
CONTINUOUS
 62
             7
100
AcDbLine
 10
-809.49170632559026
 20
-315.27643615435193
 11
-809.49170632559026
 21
-312.76503624798482
  0
LINE
  5
C6
100
AcDbEntity
  8
0
  6
CONTINUOUS
 62
             7
100
AcDbLine
 10
-810.49170632559026
 20
-313.62643615435178
 11
-810.49170632559026
 21
-312.76503624798482
  0
LINE
  5
C5
100
AcDbEntity
  8
0
  6
CONTINUOUS
 62
             7
100
AcDbLine
 10
-810.49170632559026
 20
-310.98783606071891
 11
-810.49170632559026
 21
-310.12643615435178
  0
LINE
  5
C4
100
AcDbEntity
  8
0
  6
CONTINUOUS
 62
             7
100
AcDbLine
 10
-809.49170632559026
 20
-315.27643615435193
 11
-809.89170632559023
 21
-315.27643615435193
  0
LINE
  5
C3
100
AcDbEntity
  8
0
  6
CONTINUOUS
 62
             7
100
AcDbLine
 10
-809.49170632559026
 20
-308.47643615435192
 11
-809.89170632559023
 21
-308.47643615435192
  0
LINE
  5
C2
100
AcDbEntity
  8
0
  6
CONTINUOUS
 62
             7
100
AcDbLine
 10
-810.49170632559026
 20
-313.62643615435178
 11
-810.89170632559023
 21
-315.27643615435193
  0
LINE
  5
C1
100
AcDbEntity
  8
0
  6
CONTINUOUS
 62
             7
100
AcDbLine
 10
-809.49170632559026
 20
-313.62643615435178
 11
-809.89170632559023
 21
-315.27643615435193
  0
LINE
  5
C0
100
AcDbEntity
  8
0
  6
CONTINUOUS
 62
             7
100
AcDbLine
 10
-809.49170632559026
 20
-308.47643615435192
 11
-809.49170632559026
 21
-310.98783606071891
  0
LINE
  5
BF
100
AcDbEntity
  8
0
  6
CONTINUOUS
 62
             7
100
AcDbLine
 10
-810.89170632559023
 20
-312.47643615435192
 11
-810.6214816372725
 21
-312.57777041247101
  0
LINE
  5
BE
100
AcDbEntity
  8
0
  6
CONTINUOUS
 62
             7
100
AcDbLine
 10
-810.89170632559023
 20
-311.27643615435193
 11
-810.6214816372725
 21
-311.17510189623272
  0
LINE
  5
BD
100
AcDbEntity
  8
0
  6
CONTINUOUS
 62
             7
100
AcDbLine
 10
-809.89170632559023
 20
-312.47643615435192
 11
-809.6214816372725
 21
-312.57777041247101
  0
LINE
  5
BC
100
AcDbEntity
  8
0
  6
CONTINUOUS
 62
             7
100
AcDbLine
 10
-809.89170632559023
 20
-311.27643615435193
 11
-809.89170632559023
 21
-312.47643615435192
  0
LINE
  5
BB
100
AcDbEntity
  8
0
  6
CONTINUOUS
 62
             7
100
AcDbLine
 10
-809.89170632559023
 20
-311.27643615435193
 11
-809.6214816372725
 21
-311.17510189623272
  0
LINE
  5
BA
100
AcDbEntity
  8
0
  6
CONTINUOUS
 62
             7
100
AcDbLine
 10
-810.89170632559023
 20
-308.47643615435192
 11
-810.49170632559026
 21
-310.12643615435178
  0
LINE
  5
B9
100
AcDbEntity
  8
0
  6
CONTINUOUS
 62
             7
100
AcDbLine
 10
-809.89170632559023
 20
-308.47643615435192
 11
-809.49170632559026
 21
-310.12643615435178
  0
LINE
  5
B8
100
AcDbEntity
  8
0
  6
CONTINUOUS
 62
             7
100
AcDbLine
 10
-809.89170632559023
 20
-315.27643615435193
 11
-810.89170632559023
 21
-315.27643615435193
  0
LINE
  5
B7
100
AcDbEntity
  8
0
  6
CONTINUOUS
 62
             7
100
AcDbLine
 10
-809.89170632559023
 20
-308.47643615435192
 11
-810.89170632559023
 21
-308.47643615435192
  0
LINE
  5
B6
100
AcDbEntity
  8
0
  6
CONTINUOUS
 62
             7
100
AcDbLine
 10
-808.75258618396583
 20
-314.62643615435178
 11
-809.49170632559026
 21
-314.62643615435178
  0
LINE
  5
B5
100
AcDbEntity
  8
0
  6
CONTINUOUS
 62
             7
100
AcDbLine
 10
-809.49170632559026
 20
-309.12643615435178
 11
-808.75258618396583
 21
-309.12643615435178
  0
LINE
  5
B4
100
AcDbEntity
  8
0
  6
CONTINUOUS
 62
             7
100
AcDbLine
 10
-809.49170632559026
 20
-310.98783606071891
 11
-809.49170632559026
 21
-312.76503624798482
  0
LINE
  5
B3
100
AcDbEntity
  8
0
  6
CONTINUOUS
 62
             7
100
AcDbLine
 10
-809.49170632559026
 20
-306.87643615435178
 11
-809.49170632559026
 21
-304.36503624798479
  0
LINE
  5
B2
100
AcDbEntity
  8
0
  6
CONTINUOUS
 62
             7
100
AcDbLine
 10
-810.49170632559026
 20
-305.22643615435192
 11
-810.49170632559026
 21
-304.36503624798479
  0
LINE
  5
B1
100
AcDbEntity
  8
0
  6
CONTINUOUS
 62
             7
100
AcDbLine
 10
-810.49170632559026
 20
-302.58783606071893
 11
-810.49170632559026
 21
-301.72643615435192
  0
LINE
  5
B0
100
AcDbEntity
  8
0
  6
CONTINUOUS
 62
             7
100
AcDbLine
 10
-809.49170632559026
 20
-306.87643615435178
 11
-809.89170632559023
 21
-306.87643615435178
  0
LINE
  5
AF
100
AcDbEntity
  8
0
  6
CONTINUOUS
 62
             7
100
AcDbLine
 10
-809.49170632559026
 20
-300.07643615435182
 11
-809.89170632559023
 21
-300.07643615435182
  0
LINE
  5
AE
100
AcDbEntity
  8
0
  6
CONTINUOUS
 62
             7
100
AcDbLine
 10
-810.49170632559026
 20
-305.22643615435192
 11
-810.89170632559023
 21
-306.87643615435178
  0
LINE
  5
AD
100
AcDbEntity
  8
0
  6
CONTINUOUS
 62
             7
100
AcDbLine
 10
-809.49170632559026
 20
-305.22643615435192
 11
-809.89170632559023
 21
-306.87643615435178
  0
LINE
  5
AC
100
AcDbEntity
  8
0
  6
CONTINUOUS
 62
             7
100
AcDbLine
 10
-809.49170632559026
 20
-300.07643615435182
 11
-809.49170632559026
 21
-302.58783606071893
  0
LINE
  5
AB
100
AcDbEntity
  8
0
  6
CONTINUOUS
 62
             7
100
AcDbLine
 10
-810.89170632559023
 20
-304.07643615435182
 11
-810.6214816372725
 21
-304.17777041247098
  0
LINE
  5
AA
100
AcDbEntity
  8
0
  6
CONTINUOUS
 62
             7
100
AcDbLine
 10
-810.89170632559023
 20
-302.87643615435178
 11
-810.6214816372725
 21
-302.77510189623268
  0
LINE
  5
A9
100
AcDbEntity
  8
0
  6
CONTINUOUS
 62
             7
100
AcDbLine
 10
-809.89170632559023
 20
-304.07643615435182
 11
-809.6214816372725
 21
-304.17777041247098
  0
LINE
  5
A8
100
AcDbEntity
  8
0
  6
CONTINUOUS
 62
             7
100
AcDbLine
 10
-809.89170632559023
 20
-302.87643615435178
 11
-809.89170632559023
 21
-304.07643615435182
  0
LINE
  5
A7
100
AcDbEntity
  8
0
  6
CONTINUOUS
 62
             7
100
AcDbLine
 10
-809.89170632559023
 20
-302.87643615435178
 11
-809.6214816372725
 21
-302.77510189623268
  0
LINE
  5
A6
100
AcDbEntity
  8
0
  6
CONTINUOUS
 62
             7
100
AcDbLine
 10
-810.89170632559023
 20
-300.07643615435182
 11
-810.49170632559026
 21
-301.72643615435192
  0
LINE
  5
A5
100
AcDbEntity
  8
0
  6
CONTINUOUS
 62
             7
100
AcDbLine
 10
-809.89170632559023
 20
-300.07643615435182
 11
-809.49170632559026
 21
-301.72643615435192
  0
LINE
  5
A4
100
AcDbEntity
  8
0
  6
CONTINUOUS
 62
             7
100
AcDbLine
 10
-809.89170632559023
 20
-306.87643615435178
 11
-810.89170632559023
 21
-306.87643615435178
  0
LINE
  5
A3
100
AcDbEntity
  8
0
  6
CONTINUOUS
 62
             7
100
AcDbLine
 10
-809.89170632559023
 20
-300.07643615435182
 11
-810.89170632559023
 21
-300.07643615435182
  0
LINE
  5
A2
100
AcDbEntity
  8
0
  6
CONTINUOUS
 62
             7
100
AcDbLine
 10
-808.75258618396583
 20
-306.22643615435192
 11
-809.49170632559026
 21
-306.22643615435192
  0
LINE
  5
A1
100
AcDbEntity
  8
0
  6
CONTINUOUS
 62
             7
100
AcDbLine
 10
-809.49170632559026
 20
-300.72643615435192
 11
-808.75258618396583
 21
-300.72643615435192
  0
LINE
  5
A0
100
AcDbEntity
  8
0
  6
CONTINUOUS
 62
             7
100
AcDbLine
 10
-809.49170632559026
 20
-302.58783606071893
 11
-809.49170632559026
 21
-304.36503624798479
  0
LINE
  5
9F
100
AcDbEntity
  8
0
  6
CONTINUOUS
 62
             7
100
AcDbLine
 10
-809.49170632559026
 20
-298.47643615435192
 11
-809.49170632559026
 21
-295.96503624798481
  0
LINE
  5
9E
100
AcDbEntity
  8
0
  6
CONTINUOUS
 62
             7
100
AcDbLine
 10
-810.49170632559026
 20
-296.82643615435188
 11
-810.49170632559026
 21
-295.96503624798481
  0
LINE
  5
9D
100
AcDbEntity
  8
0
  6
CONTINUOUS
 62
             7
100
AcDbLine
 10
-810.49170632559026
 20
-294.18783606071901
 11
-810.49170632559026
 21
-293.32643615435188
  0
LINE
  5
9C
100
AcDbEntity
  8
0
  6
CONTINUOUS
 62
             7
100
AcDbLine
 10
-809.49170632559026
 20
-298.47643615435192
 11
-809.89170632559023
 21
-298.47643615435192
  0
LINE
  5
9B
100
AcDbEntity
  8
0
  6
CONTINUOUS
 62
             7
100
AcDbLine
 10
-809.49170632559026
 20
-291.6764361543519
 11
-809.89170632559023
 21
-291.6764361543519
  0
LINE
  5
9A
100
AcDbEntity
  8
0
  6
CONTINUOUS
 62
             7
100
AcDbLine
 10
-810.49170632559026
 20
-296.82643615435188
 11
-810.89170632559023
 21
-298.47643615435192
  0
LINE
  5
99
100
AcDbEntity
  8
0
  6
CONTINUOUS
 62
             7
100
AcDbLine
 10
-809.49170632559026
 20
-296.82643615435188
 11
-809.89170632559023
 21
-298.47643615435192
  0
LINE
  5
98
100
AcDbEntity
  8
0
  6
CONTINUOUS
 62
             7
100
AcDbLine
 10
-809.49170632559026
 20
-291.6764361543519
 11
-809.49170632559026
 21
-294.18783606071901
  0
LINE
  5
97
100
AcDbEntity
  8
0
  6
CONTINUOUS
 62
             7
100
AcDbLine
 10
-810.89170632559023
 20
-295.6764361543519
 11
-810.6214816372725
 21
-295.777770412471
  0
LINE
  5
96
100
AcDbEntity
  8
0
  6
CONTINUOUS
 62
             7
100
AcDbLine
 10
-810.89170632559023
 20
-294.47643615435192
 11
-810.6214816372725
 21
-294.37510189623271
  0
LINE
  5
95
100
AcDbEntity
  8
0
  6
CONTINUOUS
 62
             7
100
AcDbLine
 10
-809.89170632559023
 20
-295.6764361543519
 11
-809.6214816372725
 21
-295.777770412471
  0
LINE
  5
94
100
AcDbEntity
  8
0
  6
CONTINUOUS
 62
             7
100
AcDbLine
 10
-809.89170632559023
 20
-294.47643615435192
 11
-809.89170632559023
 21
-295.6764361543519
  0
LINE
  5
93
100
AcDbEntity
  8
0
  6
CONTINUOUS
 62
             7
100
AcDbLine
 10
-809.89170632559023
 20
-294.47643615435192
 11
-809.6214816372725
 21
-294.37510189623271
  0
LINE
  5
92
100
AcDbEntity
  8
0
  6
CONTINUOUS
 62
             7
100
AcDbLine
 10
-810.89170632559023
 20
-291.6764361543519
 11
-810.49170632559026
 21
-293.32643615435188
  0
LINE
  5
91
100
AcDbEntity
  8
0
  6
CONTINUOUS
 62
             7
100
AcDbLine
 10
-809.89170632559023
 20
-291.6764361543519
 11
-809.49170632559026
 21
-293.32643615435188
  0
LINE
  5
90
100
AcDbEntity
  8
0
  6
CONTINUOUS
 62
             7
100
AcDbLine
 10
-809.89170632559023
 20
-298.47643615435192
 11
-810.89170632559023
 21
-298.47643615435192
  0
LINE
  5
8F
100
AcDbEntity
  8
0
  6
CONTINUOUS
 62
             7
100
AcDbLine
 10
-809.89170632559023
 20
-291.6764361543519
 11
-810.89170632559023
 21
-291.6764361543519
  0
LINE
  5
8E
100
AcDbEntity
  8
0
  6
CONTINUOUS
 62
             7
100
AcDbLine
 10
-808.75258618396583
 20
-297.82643615435188
 11
-809.49170632559026
 21
-297.82643615435188
  0
LINE
  5
8D
100
AcDbEntity
  8
0
  6
CONTINUOUS
 62
             7
100
AcDbLine
 10
-809.49170632559026
 20
-292.32643615435188
 11
-808.75258618396583
 21
-292.32643615435188
  0
LINE
  5
8C
100
AcDbEntity
  8
0
  6
CONTINUOUS
 62
             7
100
AcDbLine
 10
-809.49170632559026
 20
-294.18783606071901
 11
-809.49170632559026
 21
-295.96503624798481
  0
LINE
  5
8B
100
AcDbEntity
  8
0
  6
CONTINUOUS
 62
             7
100
AcDbLine
 10
-809.49170632559026
 20
-290.07643615435188
 11
-809.49170632559026
 21
-287.56503624798478
  0
LINE
  5
8A
100
AcDbEntity
  8
0
  6
CONTINUOUS
 62
             7
100
AcDbLine
 10
-810.49170632559026
 20
-288.4264361543519
 11
-810.49170632559026
 21
-287.56503624798478
  0
LINE
  5
89
100
AcDbEntity
  8
0
  6
CONTINUOUS
 62
             7
100
AcDbLine
 10
-810.49170632559026
 20
-285.78783606071897
 11
-810.49170632559026
 21
-284.9264361543519
  0
LINE
  5
88
100
AcDbEntity
  8
0
  6
CONTINUOUS
 62
             7
100
AcDbLine
 10
-809.49170632559026
 20
-290.07643615435188
 11
-809.89170632559023
 21
-290.07643615435188
  0
LINE
  5
87
100
AcDbEntity
  8
0
  6
CONTINUOUS
 62
             7
100
AcDbLine
 10
-809.49170632559026
 20
-283.27643615435193
 11
-809.89170632559023
 21
-283.27643615435193
  0
LINE
  5
86
100
AcDbEntity
  8
0
  6
CONTINUOUS
 62
             7
100
AcDbLine
 10
-810.49170632559026
 20
-288.4264361543519
 11
-810.89170632559023
 21
-290.07643615435188
  0
LINE
  5
85
100
AcDbEntity
  8
0
  6
CONTINUOUS
 62
             7
100
AcDbLine
 10
-809.49170632559026
 20
-288.4264361543519
 11
-809.89170632559023
 21
-290.07643615435188
  0
LINE
  5
84
100
AcDbEntity
  8
0
  6
CONTINUOUS
 62
             7
100
AcDbLine
 10
-809.49170632559026
 20
-283.27643615435193
 11
-809.49170632559026
 21
-285.78783606071897
  0
LINE
  5
83
100
AcDbEntity
  8
0
  6
CONTINUOUS
 62
             7
100
AcDbLine
 10
-810.89170632559023
 20
-287.27643615435193
 11
-810.6214816372725
 21
-287.37777041247102
  0
LINE
  5
82
100
AcDbEntity
  8
0
  6
CONTINUOUS
 62
             7
100
AcDbLine
 10
-810.89170632559023
 20
-286.07643615435188
 11
-810.6214816372725
 21
-285.97510189623267
  0
LINE
  5
81
100
AcDbEntity
  8
0
  6
CONTINUOUS
 62
             7
100
AcDbLine
 10
-809.89170632559023
 20
-287.27643615435193
 11
-809.6214816372725
 21
-287.37777041247102
  0
LINE
  5
80
100
AcDbEntity
  8
0
  6
CONTINUOUS
 62
             7
100
AcDbLine
 10
-809.89170632559023
 20
-286.07643615435188
 11
-809.89170632559023
 21
-287.27643615435193
  0
LINE
  5
7F
100
AcDbEntity
  8
0
  6
CONTINUOUS
 62
             7
100
AcDbLine
 10
-809.89170632559023
 20
-286.07643615435188
 11
-809.6214816372725
 21
-285.97510189623267
  0
LINE
  5
7E
100
AcDbEntity
  8
0
  6
CONTINUOUS
 62
             7
100
AcDbLine
 10
-810.89170632559023
 20
-283.27643615435193
 11
-810.49170632559026
 21
-284.9264361543519
  0
LINE
  5
7D
100
AcDbEntity
  8
0
  6
CONTINUOUS
 62
             7
100
AcDbLine
 10
-809.89170632559023
 20
-283.27643615435193
 11
-809.49170632559026
 21
-284.9264361543519
  0
LINE
  5
7C
100
AcDbEntity
  8
0
  6
CONTINUOUS
 62
             7
100
AcDbLine
 10
-809.89170632559023
 20
-290.07643615435188
 11
-810.89170632559023
 21
-290.07643615435188
  0
LINE
  5
7B
100
AcDbEntity
  8
0
  6
CONTINUOUS
 62
             7
100
AcDbLine
 10
-809.89170632559023
 20
-283.27643615435193
 11
-810.89170632559023
 21
-283.27643615435193
  0
LINE
  5
7A
100
AcDbEntity
  8
0
  6
CONTINUOUS
 62
             7
100
AcDbLine
 10
-808.75258618396583
 20
-289.4264361543519
 11
-809.49170632559026
 21
-289.4264361543519
  0
LINE
  5
79
100
AcDbEntity
  8
0
  6
CONTINUOUS
 62
             7
100
AcDbLine
 10
-809.49170632559026
 20
-283.9264361543519
 11
-808.75258618396583
 21
-283.9264361543519
  0
LINE
  5
78
100
AcDbEntity
  8
0
  6
CONTINUOUS
 62
             7
100
AcDbLine
 10
-809.49170632559026
 20
-285.78783606071897
 11
-809.49170632559026
 21
-287.56503624798478
  0
LINE
  5
77
100
AcDbEntity
  8
0
  6
CONTINUOUS
 62
             7
100
AcDbLine
 10
-809.49170632559026
 20
-281.6764361543519
 11
-809.49170632559026
 21
-279.16503624798492
  0
LINE
  5
76
100
AcDbEntity
  8
0
  6
CONTINUOUS
 62
             7
100
AcDbLine
 10
-810.49170632559026
 20
-280.02643615435193
 11
-810.49170632559026
 21
-279.16503624798492
  0
LINE
  5
75
100
AcDbEntity
  8
0
  6
CONTINUOUS
 62
             7
100
AcDbLine
 10
-810.49170632559026
 20
-277.387836060719
 11
-810.49170632559026
 21
-276.52643615435193
  0
LINE
  5
74
100
AcDbEntity
  8
0
  6
CONTINUOUS
 62
             7
100
AcDbLine
 10
-809.49170632559026
 20
-281.6764361543519
 11
-809.89170632559023
 21
-281.6764361543519
  0
LINE
  5
73
100
AcDbEntity
  8
0
  6
CONTINUOUS
 62
             7
100
AcDbLine
 10
-809.49170632559026
 20
-274.87643615435189
 11
-809.89170632559023
 21
-274.87643615435189
  0
LINE
  5
72
100
AcDbEntity
  8
0
  6
CONTINUOUS
 62
             7
100
AcDbLine
 10
-810.49170632559026
 20
-280.02643615435193
 11
-810.89170632559023
 21
-281.6764361543519
  0
LINE
  5
71
100
AcDbEntity
  8
0
  6
CONTINUOUS
 62
             7
100
AcDbLine
 10
-809.49170632559026
 20
-280.02643615435193
 11
-809.89170632559023
 21
-281.6764361543519
  0
LINE
  5
70
100
AcDbEntity
  8
0
  6
CONTINUOUS
 62
             7
100
AcDbLine
 10
-809.49170632559026
 20
-274.87643615435189
 11
-809.49170632559026
 21
-277.387836060719
  0
LINE
  5
6F
100
AcDbEntity
  8
0
  6
CONTINUOUS
 62
             7
100
AcDbLine
 10
-810.89170632559023
 20
-278.87643615435189
 11
-810.6214816372725
 21
-278.9777704124711
  0
LINE
  5
6E
100
AcDbEntity
  8
0
  6
CONTINUOUS
 62
             7
100
AcDbLine
 10
-810.89170632559023
 20
-277.6764361543519
 11
-810.6214816372725
 21
-277.57510189623281
  0
LINE
  5
6D
100
AcDbEntity
  8
0
  6
CONTINUOUS
 62
             7
100
AcDbLine
 10
-809.89170632559023
 20
-278.87643615435189
 11
-809.6214816372725
 21
-278.9777704124711
  0
LINE
  5
6C
100
AcDbEntity
  8
0
  6
CONTINUOUS
 62
             7
100
AcDbLine
 10
-809.89170632559023
 20
-277.6764361543519
 11
-809.89170632559023
 21
-278.87643615435189
  0
LINE
  5
6B
100
AcDbEntity
  8
0
  6
CONTINUOUS
 62
             7
100
AcDbLine
 10
-809.89170632559023
 20
-277.6764361543519
 11
-809.6214816372725
 21
-277.57510189623281
  0
LINE
  5
6A
100
AcDbEntity
  8
0
  6
CONTINUOUS
 62
             7
100
AcDbLine
 10
-810.89170632559023
 20
-274.87643615435189
 11
-810.49170632559026
 21
-276.52643615435193
  0
LINE
  5
69
100
AcDbEntity
  8
0
  6
CONTINUOUS
 62
             7
100
AcDbLine
 10
-809.89170632559023
 20
-274.87643615435189
 11
-809.49170632559026
 21
-276.52643615435193
  0
LINE
  5
68
100
AcDbEntity
  8
0
  6
CONTINUOUS
 62
             7
100
AcDbLine
 10
-809.89170632559023
 20
-281.6764361543519
 11
-810.89170632559023
 21
-281.6764361543519
  0
LINE
  5
67
100
AcDbEntity
  8
0
  6
CONTINUOUS
 62
             7
100
AcDbLine
 10
-809.89170632559023
 20
-274.87643615435189
 11
-810.89170632559023
 21
-274.87643615435189
  0
LINE
  5
66
100
AcDbEntity
  8
0
  6
CONTINUOUS
 62
             7
100
AcDbLine
 10
-808.75258618396583
 20
-281.02643615435193
 11
-809.49170632559026
 21
-281.02643615435193
  0
LINE
  5
65
100
AcDbEntity
  8
0
  6
CONTINUOUS
 62
             7
100
AcDbLine
 10
-809.49170632559026
 20
-275.52643615435193
 11
-808.75258618396583
 21
-275.52643615435193
  0
LINE
  5
64
100
AcDbEntity
  8
0
  6
CONTINUOUS
 62
             7
100
AcDbLine
 10
-809.49170632559026
 20
-277.387836060719
 11
-809.49170632559026
 21
-279.16503624798492
  0
LINE
  5
63
100
AcDbEntity
  8
0
  6
CONTINUOUS
 62
             7
100
AcDbLine
 10
-809.49170632559026
 20
-273.27643615435193
 11
-809.49170632559026
 21
-270.76503624798482
  0
LINE
  5
62
100
AcDbEntity
  8
0
  6
CONTINUOUS
 62
             7
100
AcDbLine
 10
-810.49170632559026
 20
-271.62643615435201
 11
-810.49170632559026
 21
-270.76503624798482
  0
LINE
  5
61
100
AcDbEntity
  8
0
  6
CONTINUOUS
 62
             7
100
AcDbLine
 10
-810.49170632559026
 20
-268.98783606071902
 11
-810.49170632559026
 21
-268.12643615435201
  0
LINE
  5
60
100
AcDbEntity
  8
0
  6
CONTINUOUS
 62
             7
100
AcDbLine
 10
-809.49170632559026
 20
-273.27643615435193
 11
-809.89170632559023
 21
-273.27643615435193
  0
LINE
  5
5F
100
AcDbEntity
  8
0
  6
CONTINUOUS
 62
             7
100
AcDbLine
 10
-809.49170632559026
 20
-266.47643615435192
 11
-809.89170632559023
 21
-266.47643615435192
  0
LINE
  5
5E
100
AcDbEntity
  8
0
  6
CONTINUOUS
 62
             7
100
AcDbLine
 10
-810.49170632559026
 20
-271.62643615435201
 11
-810.89170632559023
 21
-273.27643615435193
  0
LINE
  5
5D
100
AcDbEntity
  8
0
  6
CONTINUOUS
 62
             7
100
AcDbLine
 10
-809.49170632559026
 20
-271.62643615435201
 11
-809.89170632559023
 21
-273.27643615435193
  0
LINE
  5
5C
100
AcDbEntity
  8
0
  6
CONTINUOUS
 62
             7
100
AcDbLine
 10
-809.49170632559026
 20
-266.47643615435192
 11
-809.49170632559026
 21
-268.98783606071902
  0
LINE
  5
5B
100
AcDbEntity
  8
0
  6
CONTINUOUS
 62
             7
100
AcDbLine
 10
-810.89170632559023
 20
-270.47643615435192
 11
-810.6214816372725
 21
-270.57777041247112
  0
LINE
  5
5A
100
AcDbEntity
  8
0
  6
CONTINUOUS
 62
             7
100
AcDbLine
 10
-810.89170632559023
 20
-269.27643615435193
 11
-810.6214816372725
 21
-269.17510189623277
  0
LINE
  5
59
100
AcDbEntity
  8
0
  6
CONTINUOUS
 62
             7
100
AcDbLine
 10
-809.89170632559023
 20
-270.47643615435192
 11
-809.6214816372725
 21
-270.57777041247112
  0
LINE
  5
58
100
AcDbEntity
  8
0
  6
CONTINUOUS
 62
             7
100
AcDbLine
 10
-809.89170632559023
 20
-269.27643615435193
 11
-809.89170632559023
 21
-270.47643615435192
  0
LINE
  5
57
100
AcDbEntity
  8
0
  6
CONTINUOUS
 62
             7
100
AcDbLine
 10
-809.89170632559023
 20
-269.27643615435193
 11
-809.6214816372725
 21
-269.17510189623277
  0
LINE
  5
56
100
AcDbEntity
  8
0
  6
CONTINUOUS
 62
             7
100
AcDbLine
 10
-810.89170632559023
 20
-266.47643615435192
 11
-810.49170632559026
 21
-268.12643615435201
  0
LINE
  5
55
100
AcDbEntity
  8
0
  6
CONTINUOUS
 62
             7
100
AcDbLine
 10
-809.89170632559023
 20
-266.47643615435192
 11
-809.49170632559026
 21
-268.12643615435201
  0
LINE
  5
54
100
AcDbEntity
  8
0
  6
CONTINUOUS
 62
             7
100
AcDbLine
 10
-809.89170632559023
 20
-273.27643615435193
 11
-810.89170632559023
 21
-273.27643615435193
  0
LINE
  5
53
100
AcDbEntity
  8
0
  6
CONTINUOUS
 62
             7
100
AcDbLine
 10
-809.89170632559023
 20
-266.47643615435192
 11
-810.89170632559023
 21
-266.47643615435192
  0
LINE
  5
52
100
AcDbEntity
  8
0
  6
CONTINUOUS
 62
             7
100
AcDbLine
 10
-808.75258618396583
 20
-272.62643615435201
 11
-809.49170632559026
 21
-272.62643615435201
  0
LINE
  5
51
100
AcDbEntity
  8
0
  6
CONTINUOUS
 62
             7
100
AcDbLine
 10
-809.49170632559026
 20
-267.12643615435201
 11
-808.75258618396583
 21
-267.12643615435201
  0
LINE
  5
50
100
AcDbEntity
  8
0
  6
CONTINUOUS
 62
             7
100
AcDbLine
 10
-809.49170632559026
 20
-268.98783606071902
 11
-809.49170632559026
 21
-270.76503624798482
  0
LINE
  5
4F
100
AcDbEntity
  8
0
  6
CONTINUOUS
 62
             7
100
AcDbLine
 10
-809.49170632559026
 20
-264.87643615435201
 11
-809.49170632559026
 21
-262.3650362479849
  0
LINE
  5
4E
100
AcDbEntity
  8
0
  6
CONTINUOUS
 62
             7
100
AcDbLine
 10
-810.49170632559026
 20
-263.22643615435192
 11
-810.49170632559026
 21
-262.3650362479849
  0
LINE
  5
4D
100
AcDbEntity
  8
0
  6
CONTINUOUS
 62
             7
100
AcDbLine
 10
-810.49170632559026
 20
-260.58783606071898
 11
-810.49170632559026
 21
-259.72643615435192
  0
LINE
  5
4C
100
AcDbEntity
  8
0
  6
CONTINUOUS
 62
             7
100
AcDbLine
 10
-809.49170632559026
 20
-264.87643615435201
 11
-809.89170632559023
 21
-264.87643615435201
  0
LINE
  5
4B
100
AcDbEntity
  8
0
  6
CONTINUOUS
 62
             7
100
AcDbLine
 10
-809.49170632559026
 20
-258.07643615435188
 11
-809.89170632559023
 21
-258.07643615435188
  0
LINE
  5
4A
100
AcDbEntity
  8
0
  6
CONTINUOUS
 62
             7
100
AcDbLine
 10
-810.49170632559026
 20
-263.22643615435192
 11
-810.89170632559023
 21
-264.87643615435201
  0
LINE
  5
49
100
AcDbEntity
  8
0
  6
CONTINUOUS
 62
             7
100
AcDbLine
 10
-809.49170632559026
 20
-263.22643615435192
 11
-809.89170632559023
 21
-264.87643615435201
  0
LINE
  5
48
100
AcDbEntity
  8
0
  6
CONTINUOUS
 62
             7
100
AcDbLine
 10
-809.49170632559026
 20
-258.07643615435188
 11
-809.49170632559026
 21
-260.58783606071898
  0
LINE
  5
47
100
AcDbEntity
  8
0
  6
CONTINUOUS
 62
             7
100
AcDbLine
 10
-810.89170632559023
 20
-262.07643615435188
 11
-810.6214816372725
 21
-262.17777041247098
  0
LINE
  5
46
100
AcDbEntity
  8
0
  6
CONTINUOUS
 62
             7
100
AcDbLine
 10
-810.89170632559023
 20
-260.87643615435201
 11
-810.6214816372725
 21
-260.7751018962328
  0
LINE
  5
45
100
AcDbEntity
  8
0
  6
CONTINUOUS
 62
             7
100
AcDbLine
 10
-809.89170632559023
 20
-262.07643615435188
 11
-809.6214816372725
 21
-262.17777041247098
  0
LINE
  5
44
100
AcDbEntity
  8
0
  6
CONTINUOUS
 62
             7
100
AcDbLine
 10
-809.89170632559023
 20
-260.87643615435201
 11
-809.89170632559023
 21
-262.07643615435188
  0
LINE
  5
43
100
AcDbEntity
  8
0
  6
CONTINUOUS
 62
             7
100
AcDbLine
 10
-809.89170632559023
 20
-260.87643615435201
 11
-809.6214816372725
 21
-260.7751018962328
  0
LINE
  5
42
100
AcDbEntity
  8
0
  6
CONTINUOUS
 62
             7
100
AcDbLine
 10
-810.89170632559023
 20
-258.07643615435188
 11
-810.49170632559026
 21
-259.72643615435192
  0
LINE
  5
41
100
AcDbEntity
  8
0
  6
CONTINUOUS
 62
             7
100
AcDbLine
 10
-809.89170632559023
 20
-258.07643615435188
 11
-809.49170632559026
 21
-259.72643615435192
  0
LINE
  5
40
100
AcDbEntity
  8
0
  6
CONTINUOUS
 62
             7
100
AcDbLine
 10
-809.89170632559023
 20
-264.87643615435201
 11
-810.89170632559023
 21
-264.87643615435201
  0
LINE
  5
3F
100
AcDbEntity
  8
0
  6
CONTINUOUS
 62
             7
100
AcDbLine
 10
-809.89170632559023
 20
-258.07643615435188
 11
-810.89170632559023
 21
-258.07643615435188
  0
LINE
  5
3E
100
AcDbEntity
  8
0
  6
CONTINUOUS
 62
             7
100
AcDbLine
 10
-808.75258618396583
 20
-264.22643615435192
 11
-809.49170632559026
 21
-264.22643615435192
  0
LINE
  5
3D
100
AcDbEntity
  8
0
  6
CONTINUOUS
 62
             7
100
AcDbLine
 10
-809.49170632559026
 20
-258.72643615435192
 11
-808.75258618396583
 21
-258.72643615435192
  0
LINE
  5
3C
100
AcDbEntity
  8
0
  6
CONTINUOUS
 62
             7
100
AcDbLine
 10
-809.49170632559026
 20
-260.58783606071898
 11
-809.49170632559026
 21
-262.3650362479849
  0
LINE
  5
3B
100
AcDbEntity
  8
0
  6
CONTINUOUS
 62
             7
100
AcDbLine
 10
-809.49170632559026
 20
-256.47643615435197
 11
-809.49170632559026
 21
-253.9650362479849
  0
LINE
  5
3A
100
AcDbEntity
  8
0
  6
CONTINUOUS
 62
             7
100
AcDbLine
 10
-810.49170632559026
 20
-254.826436154352
 11
-810.49170632559026
 21
-253.9650362479849
  0
LINE
  5
39
100
AcDbEntity
  8
0
  6
CONTINUOUS
 62
             7
100
AcDbLine
 10
-810.49170632559026
 20
-252.18783606071909
 11
-810.49170632559026
 21
-251.326436154352
  0
LINE
  5
38
100
AcDbEntity
  8
0
  6
CONTINUOUS
 62
             7
100
AcDbLine
 10
-809.49170632559026
 20
-256.47643615435197
 11
-809.89170632559023
 21
-256.47643615435197
  0
LINE
  5
37
100
AcDbEntity
  8
0
  6
CONTINUOUS
 62
             7
100
AcDbLine
 10
-809.49170632559026
 20
-249.67643615435199
 11
-809.89170632559023
 21
-249.67643615435199
  0
LINE
  5
36
100
AcDbEntity
  8
0
  6
CONTINUOUS
 62
             7
100
AcDbLine
 10
-810.49170632559026
 20
-254.826436154352
 11
-810.89170632559023
 21
-256.47643615435197
  0
LINE
  5
35
100
AcDbEntity
  8
0
  6
CONTINUOUS
 62
             7
100
AcDbLine
 10
-809.49170632559026
 20
-254.826436154352
 11
-809.89170632559023
 21
-256.47643615435197
  0
LINE
  5
34
100
AcDbEntity
  8
0
  6
CONTINUOUS
 62
             7
100
AcDbLine
 10
-809.49170632559026
 20
-249.67643615435199
 11
-809.49170632559026
 21
-252.18783606071909
  0
LINE
  5
33
100
AcDbEntity
  8
0
  6
CONTINUOUS
 62
             7
100
AcDbLine
 10
-810.89170632559023
 20
-253.67643615435199
 11
-810.6214816372725
 21
-253.77777041247111
  0
LINE
  5
32
100
AcDbEntity
  8
0
  6
CONTINUOUS
 62
             7
100
AcDbLine
 10
-810.89170632559023
 20
-252.476436154352
 11
-810.6214816372725
 21
-252.37510189623279
  0
LINE
  5
31
100
AcDbEntity
  8
0
  6
CONTINUOUS
 62
             7
100
AcDbLine
 10
-809.89170632559023
 20
-253.67643615435199
 11
-809.6214816372725
 21
-253.77777041247111
  0
LINE
  5
30
100
AcDbEntity
  8
0
  6
CONTINUOUS
 62
             7
100
AcDbLine
 10
-809.89170632559023
 20
-252.476436154352
 11
-809.89170632559023
 21
-253.67643615435199
  0
LINE
  5
2F
100
AcDbEntity
  8
0
  6
CONTINUOUS
 62
             7
100
AcDbLine
 10
-809.89170632559023
 20
-252.476436154352
 11
-809.6214816372725
 21
-252.37510189623279
  0
LINE
  5
2E
100
AcDbEntity
  8
0
  6
CONTINUOUS
 62
             7
100
AcDbLine
 10
-810.89170632559023
 20
-249.67643615435199
 11
-810.49170632559026
 21
-251.326436154352
  0
LINE
  5
2D
100
AcDbEntity
  8
0
  6
CONTINUOUS
 62
             7
100
AcDbLine
 10
-809.89170632559023
 20
-249.67643615435199
 11
-809.49170632559026
 21
-251.326436154352
  0
LINE
  5
2C
100
AcDbEntity
  8
0
  6
CONTINUOUS
 62
             7
100
AcDbLine
 10
-809.89170632559023
 20
-256.47643615435197
 11
-810.89170632559023
 21
-256.47643615435197
  0
LINE
  5
2B
100
AcDbEntity
  8
0
  6
CONTINUOUS
 62
             7
100
AcDbLine
 10
-809.89170632559023
 20
-249.67643615435199
 11
-810.89170632559023
 21
-249.67643615435199
  0
LINE
  5
2A
100
AcDbEntity
  8
0
  6
CONTINUOUS
 62
             7
100
AcDbLine
 10
-808.75258618396583
 20
-255.826436154352
 11
-809.49170632559026
 21
-255.826436154352
  0
LINE
  5
29
100
AcDbEntity
  8
0
  6
CONTINUOUS
 62
             7
100
AcDbLine
 10
-809.49170632559026
 20
-250.326436154352
 11
-808.75258618396583
 21
-250.326436154352
  0
LINE
  5
28
100
AcDbEntity
  8
0
  6
CONTINUOUS
 62
             7
100
AcDbLine
 10
-809.49170632559026
 20
-252.18783606071909
 11
-809.49170632559026
 21
-253.9650362479849
  0
ENDSEC
  0
SECTION
  2
OBJECTS
  0
DICTIONARY
  5
19
100
AcDbDictionary
  3
ACAD_GROUP
350
1A
  3
ACAD_MLINESTYLE
350
1B
  0
DICTIONARY
  5
1A
102
{ACAD_REACTORS
330
19
102
}
100
AcDbDictionary
  0
DICTIONARY
  5
1B
102
{ACAD_REACTORS
330
19
102
}
100
AcDbDictionary
  3
STANDARD
350
1C
  0
MLINESTYLE
  5
1C
102
{ACAD_REACTORS
330
1B
102
}
100
AcDbMlineStyle
  2
STANDARD
 70
             0
  3

 62
             0
 51
90.0
 52
90.0
 71
             2
 49
0.5
 62
           256
  6
BYLAYER
 49
-0.5
 62
           256
  6
BYLAYER
  0
ENDSEC
  0
EOF
