  0
SECTION
  2
HEADER
  9
$ACADVER
  1
AC1014
  9
$ACADMAINTVER
 70
             0
  9
$DWGCODEPAGE
  3
ANSI_1252
  9
$INSBASE
 10
0.0
 20
0.0
 30
0.0
  9
$EXTMIN
 10
1.00000000000000E+20
 20
1.00000000000000E+20
 30
1.00000000000000E+20
  9
$EXTMAX
 10
-1.00000000000000E+20
 20
-1.00000000000000E+20
 30
-1.00000000000000E+20
  9
$LIMMIN
 10
0.0
 20
0.0
  9
$LIMMAX
 10
0.0
 20
0.0
  9
$ORTHOMODE
 70
             0
  9
$REGENMODE
 70
             1
  9
$FILLMODE
 70
             1
  9
$QTEXTMODE
 70
             0
  9
$MIRRTEXT
 70
             1
  9
$DRAGMODE
 70
             2
  9
$LTSCALE
 40
1.0
  9
$OSMODE
 70
             0
  9
$ATTMODE
 70
             1
  9
$TEXTSIZE
 40
0.2
  9
$TRACEWID
 40
0.05
  9
$TEXTSTYLE
  7
STANDARD
  9
$CLAYER
  8
0
  9
$CELTYPE
  6
CONTINUOUS
  9
$CECOLOR
 62
           256
  9
$CELTSCALE
 40
1.0
  9
$DELOBJ
 70
             1
  9
$DISPSILH
 70
             0
  9
$DIMSCALE
 40
1.0
  9
$DIMASZ
 40
0.18
  9
$DIMEXO
 40
0.0625
  9
$DIMDLI
 40
0.38
  9
$DIMRND
 40
0.0
  9
$DIMDLE
 40
0.0
  9
$DIMEXE
 40
0.18
  9
$DIMTP
 40
0.0
  9
$DIMTM
 40
0.0
  9
$DIMTXT
 40
0.18
  9
$DIMCEN
 40
0.09
  9
$DIMTSZ
 40
0.0
  9
$DIMTOL
 70
             0
  9
$DIMLIM
 70
             0
  9
$DIMTIH
 70
             1
  9
$DIMTOH
 70
             1
  9
$DIMSE1
 70
             0
  9
$DIMSE2
 70
             0
  9
$DIMTAD
 70
             0
  9
$DIMZIN
 70
             0
  9
$DIMBLK
  1

  9
$DIMASO
 70
             1
  9
$DIMSHO
 70
             1
  9
$DIMPOST
  1

  9
$DIMAPOST
  1

  9
$DIMALT
 70
             0
  9
$DIMALTD
 70
             2
  9
$DIMALTF
 40
25.4
  9
$DIMLFAC
 40
1.0
  9
$DIMTOFL
 70
             0
  9
$DIMTVP
 40
0.0
  9
$DIMTIX
 70
             0
  9
$DIMSOXD
 70
             0
  9
$DIMSAH
 70
             0
  9
$DIMBLK1
  1

  9
$DIMBLK2
  1

  9
$DIMSTYLE
  2
STANDARD
  9
$DIMCLRD
 70
             0
  9
$DIMCLRE
 70
             0
  9
$DIMCLRT
 70
             0
  9
$DIMTFAC
 40
1.0
  9
$DIMGAP
 40
0.09
  9
$DIMJUST
 70
             0
  9
$DIMSD1
 70
             0
  9
$DIMSD2
 70
             0
  9
$DIMTOLJ
 70
             1
  9
$DIMTZIN
 70
             0
  9
$DIMALTZ
 70
             0
  9
$DIMALTTZ
 70
             0
  9
$DIMFIT
 70
             3
  9
$DIMUPT
 70
             0
  9
$DIMUNIT
 70
             2
  9
$DIMDEC
 70
             4
  9
$DIMTDEC
 70
             4
  9
$DIMALTU
 70
             2
  9
$DIMALTTD
 70
             2
  9
$DIMTXSTY
  7
STANDARD
  9
$DIMAUNIT
 70
             0
  9
$LUNITS
 70
             2
  9
$LUPREC
 70
             4
  9
$SKETCHINC
 40
0.1
  9
$FILLETRAD
 40
0.0
  9
$AUNITS
 70
             0
  9
$AUPREC
 70
             0
  9
$MENU
  1
acad
  9
$ELEVATION
 40
0.0
  9
$PELEVATION
 40
0.0
  9
$THICKNESS
 40
0.0
  9
$LIMCHECK
 70
             0
  9
$BLIPMODE
 70
             1
  9
$CHAMFERA
 40
0.0
  9
$CHAMFERB
 40
0.0
  9
$CHAMFERC
 40
0.0
  9
$CHAMFERD
 40
0.0
  9
$SKPOLY
 70
             0
  9
$TDCREATE
 40
0.000000000
  9
$TDUPDATE
 40
0.000000000
  9
$TDINDWG
 40
0.0000000000
  9
$TDUSRTIMER
 40
0.0000000000
  9
$USRTIMER
 70
             1
  9
$ANGBASE
 50
0.0
  9
$ANGDIR
 70
             0
  9
$PDMODE
 70
             0
  9
$PDSIZE
 40
0.0
  9
$PLINEWID
 40
0.0
  9
$COORDS
 70
             0
  9
$SPLFRAME
 70
             0
  9
$SPLINETYPE
 70
             6
  9
$SPLINESEGS
 70
             8
  9
$ATTDIA
 70
             0
  9
$ATTREQ
 70
             1
  9
$HANDLING
 70
             1
  9
$HANDSEED
  5
470
  9
$SURFTAB1
 70
             6
  9
$SURFTAB2
 70
             6
  9
$SURFTYPE
 70
             6
  9
$SURFU
 70
             6
  9
$SURFV
 70
             6
  9
$UCSNAME
  2

  9
$UCSORG
 10
0.0
 20
0.0
 30
0.0
  9
$UCSXDIR
 10
1.0
 20
0.0
 30
0.0
  9
$UCSYDIR
 10
0.0
 20
1.0
 30
0.0
  9
$PUCSNAME
  2

  9
$PUCSORG
 10
0.0
 20
0.0
 30
0.0
  9
$PUCSXDIR
 10
1.0
 20
0.0
 30
0.0
  9
$PUCSYDIR
 10
0.0
 20
1.0
 30
0.0
  9
$USERI1
 70
             0
  9
$USERI2
 70
             0
  9
$USERI3
 70
             0
  9
$USERI4
 70
             0
  9
$USERI5
 70
             0
  9
$USERR1
 40
11.6
  9
$USERR2
 40
0.0
  9
$USERR3
 40
0.0
  9
$USERR4
 40
0.0
  9
$USERR5
 40
0.0
  9
$WORLDVIEW
 70
             1
  9
$SHADEDGE
 70
             3
  9
$SHADEDIF
 70
            70
  9
$TILEMODE
 70
             1
  9
$MAXACTVP
 70
            16
  9
$PINSBASE
 10
0.0
 20
0.0
 30
0.0
  9
$PLIMCHECK
 70
             0
  9
$PEXTMIN
 10
1.00000000000000E+20
 20
1.00000000000000E+20
 30
1.00000000000000E+20
  9
$PEXTMAX
 10
-1.00000000000000E+20
 20
-1.00000000000000E+20
 30
-1.00000000000000E+20
  9
$PLIMMIN
 10
0.0
 20
0.0
  9
$PLIMMAX
 10
12.0
 20
9.0
  9
$UNITMODE
 70
             0
  9
$VISRETAIN
 70
             0
  9
$PLINEGEN
 70
             1
  9
$PSLTSCALE
 70
             0
  9
$TREEDEPTH
 70
          3020
  9
$PICKSTYLE
 70
             1
  9
$CMLSTYLE
  2
STANDARD
  9
$CMLJUST
 70
             0
  9
$CMLSCALE
 40
1.0
  9
$PROXYGRAPHICS
 70
             0
  9
$MEASUREMENT
 70
             1
  0
ENDSEC
  0
SECTION
  2
CLASSES
  0
CLASS
  1
LWPOLYLINE
  2
AcDbPolyline
  3
"AutoCAD"
 90
        0
280
             0
281
             1
  0
CLASS
  1
IMAGE
  2
AcDbRasterImage
  3
ISM
 90
      127
280
             0
281
             1
  0
CLASS
  1
OLE2FRAME
  2
AcDbOle2Frame
  3
""
 90
        0
280
             0
281
             1
  0
CLASS
  1
HATCH
  2
AcDbHatch
  3
"ACAD_SEDONA"
 90
        0
280
             0
281
             1
  0
CLASS
  1
DICTIONARYVAR
  2
AcDbDictionaryVar
  3
"AutoCAD"
 90
        0
280
             0
281
             0
  0
CLASS
  1
RASTERVARIABLES
  2
AcDbRasterVariables
  3
ISM
 90
        0
280
             0
281
             0
  0
CLASS
  1
IMAGEDEF
  2
AcDbRasterImageDef
  3
ISM
 90
        0
280
             0
281
             0
  0
CLASS
  1
IMAGEDEF_REACTOR
  2
AcDbRasterImageDefReactor
  3
ISM
 90
        1
280
             0
281
             0
  0
CLASS
  1
IDBUFFER
  2
AcDbIdBuffer
  3
"Acad"
 90
        0
280
             0
281
             0
  0
CLASS
  1
SPATIAL_FILTER
  2
AcDbSpatialFilter
  3
"Acad"
 90
        0
280
             0
281
             0
  0
CLASS
  1
XRECORD
  2
AcDbXrecord
  3
"<Built In>"
 90
        0
280
             0
281
             0
  0
CLASS
  1
SORTENTSTABLE
  2
AcDbSortentsTable
  3
"AutoCAD"
 90
        0
280
             0
281
             0
  0
CLASS
  1
LAYER_INDEX
  2
AcDbLayerIndex
  3
"Acad"
 90
        0
280
             0
281
             0
  0
CLASS
  1
SPATIAL_INDEX
  2
AcDbSpatialIndex
  3
"Acad"
 90
        0
280
             0
281
             0
  0
CLASS
  1
OBJECT_PTR
  2
CAseDLPNTableRecord
  3
"ASE-LPNTableRecord"
 90
        1
280
             0
281
             0
  0
CLASS
  1
LAYOUT
  2
AcDbLayout
  3
"AutoCAD 2000"
 90
        1
280
             0
281
             0
  0
CLASS
  1
PLOTSETTINGS
  2
AcDbPlotSettings
  3
"AutoCAD 2000"
 90
        1
280
             0
281
             0
  0
CLASS
  1
ACDBDICTIONARYWDFLT
  2
AcDbDictionaryWithDefault
  3
"AutoCAD 2000"
 90
        1
280
             0
281
             0
  0
CLASS
  1
ACDBPLACEHOLDER
  2
AcDbPlaceHolder
  3
"AutoCAD 2000"
 90
        1
280
             0
281
             0
  0
ENDSEC
  0
SECTION
  2
TABLES
  0
TABLE
  2
VPORT
  5
7
100
AcDbSymbolTable
 70
             1
  0
VPORT
  5
15
100
AcDbSymbolTableRecord
100
AcDbViewportTableRecord
  2
*ACTIVE
 70
             0
 10
0.0
 20
0.0
 11
1.0
 21
1.0
 12
67.5
 22
-8.99999999999999
 13
0.0
 23
0.0
 14
1.0
 24
1.0
 15
0.0
 25
0.0
 16
0.0
 26
0.0
 36
1.0
 17
0.0
 27
0.0
 37
0.0
 40
151.68356545961009
 41
1.60267857142857
 42
50.0
 43
0.0
 44
0.0
 50
0.0
 51
0.0
 71
             0
 72
           100
 73
             1
 74
             1
 75
             0
 76
             0
 77
             0
 78
             0
  0
ENDTAB
  0
TABLE
  2
LTYPE
  5
4
100
AcDbSymbolTable
 70
            10
  0
LTYPE
  5
11
100
AcDbSymbolTableRecord
100
AcDbLinetypeTableRecord
  2
BYBLOCK
 70
            64
  3

 72
            65
 73
             0
 40
0.0
  0
LTYPE
  5
12
100
AcDbSymbolTableRecord
100
AcDbLinetypeTableRecord
  2
BYLAYER
 70
            64
  3

 72
            65
 73
             0
 40
0.0
  0
LTYPE
  5
13
100
AcDbSymbolTableRecord
100
AcDbLinetypeTableRecord
  2
CONTINUOUS
 70
            64
  3
Solid line
 72
            65
 73
             0
 40
0.0
  0
LTYPE
  5
1D
100
AcDbSymbolTableRecord
100
AcDbLinetypeTableRecord
  2
DASHED
 70
            64
  3
Dashed
 72
            65
 73
             2
 40
15.0
 49
12.0
 74
             0
 49
-3.0
 74
             0
  0
LTYPE
  5
1E
100
AcDbSymbolTableRecord
100
AcDbLinetypeTableRecord
  2
DOTTED
 70
            64
  3
Dotted
 72
            65
 73
             2
 40
3.5
 49
0.5
 74
             0
 49
-3.0
 74
             0
  0
LTYPE
  5
1F
100
AcDbSymbolTableRecord
100
AcDbLinetypeTableRecord
  2
DOT_CENTER
 70
            64
  3
Dot_Center
 72
            65
 73
             4
 40
2.0
 49
1.25
 74
             0
 49
-0.25
 74
             0
 49
0.25
 74
             0
 49
-0.25
 74
             0
  0
LTYPE
  5
20
100
AcDbSymbolTableRecord
100
AcDbLinetypeTableRecord
  2
LONG_DASHED
 70
            64
  3
Long_Dashed
 72
            65
 73
             2
 40
2.0
 49
1.5
 74
             0
 49
-0.5
 74
             0
  0
LTYPE
  5
21
100
AcDbSymbolTableRecord
100
AcDbLinetypeTableRecord
  2
DASH_CENTER
 70
            64
  3
Dash_Center
 72
            65
 73
             4
 40
36.0
 49
24.0
 74
             0
 49
-3.0
 74
             0
 49
6.0
 74
             0
 49
-3.0
 74
             0
  0
LTYPE
  5
22
100
AcDbSymbolTableRecord
100
AcDbLinetypeTableRecord
  2
PHANTOM
 70
            64
  3
Phantom
 72
            65
 73
             6
 40
2.5
 49
1.25
 74
             0
 49
-0.25
 74
             0
 49
0.25
 74
             0
 49
-0.25
 74
             0
 49
0.25
 74
             0
 49
-0.25
 74
             0
  0
LTYPE
  5
23
100
AcDbSymbolTableRecord
100
AcDbLinetypeTableRecord
  2
CENTER_DASH_DASH
 70
            64
  3
Center_Dash_Dash
 72
            65
 73
             6
 40
22.0
 49
12.0
 74
             0
 49
-3.0
 74
             0
 49
0.5
 74
             0
 49
-3.0
 74
             0
 49
0.5
 74
             0
 49
-3.0
 74
             0
  0
ENDTAB
  0
TABLE
  2
LAYER
  5
2
100
AcDbSymbolTable
 70
             2
  0
LAYER
  5
14
100
AcDbSymbolTableRecord
100
AcDbLayerTableRecord
  2
0
 70
             0
 62
             7
  6
CONTINUOUS
  0
LAYER
  5
24
100
AcDbSymbolTableRecord
100
AcDbLayerTableRecord
  2
1
 70
             0
 62
             7
  6
CONTINUOUS
  0
ENDTAB
  0
TABLE
  2
STYLE
  5
3
100
AcDbSymbolTable
 70
             1
  0
STYLE
  5
17
100
AcDbSymbolTableRecord
100
AcDbTextStyleTableRecord
  2
STANDARD
 70
             0
 40
0.0
 41
1.0
 50
0.0
 71
             0
 42
0.0
  3
txt
  4

  0
ENDTAB
  0
TABLE
  2
VIEW
  5
5
100
AcDbSymbolTable
 70
             0
  0
ENDTAB
  0
TABLE
  2
UCS
  5
6
100
AcDbSymbolTable
 70
             0
  0
ENDTAB
  0
TABLE
  2
APPID
  5
8
100
AcDbSymbolTable
 70
             1
  0
APPID
  5
16
100
AcDbSymbolTableRecord
100
AcDbRegAppTableRecord
  2
ACAD
 70
             0
  0
ENDTAB
  0
TABLE
  2
DIMSTYLE
  5
9
100
AcDbSymbolTable
 70
             1
  0
DIMSTYLE
105
18
100
AcDbSymbolTableRecord
100
AcDbDimStyleTableRecord
  2
STANDARD
 70
             0
  3

  4

  5

  6

  7

 40
1.0
 41
0.18
 42
0.0625
 43
0.38
 44
0.18
 45
0.0
 46
0.0
 47
0.0
 48
0.0
 71
             0
 72
             0
 73
             1
 74
             1
 75
             0
 76
             0
 77
             0
 78
             0
140
0.18
141
0.09
142
0.0
143
25.4
144
1.0
145
0.0
146
1.0
147
0.09
170
             0
171
             2
172
             0
173
             0
174
             0
175
             0
176
             0
177
             0
178
             0
270
             2
271
             4
272
             4
273
             2
274
             2
275
             0
280
             0
281
             0
282
             0
283
             1
284
             0
285
             0
286
             0
287
             0
288
             0
340
17
  0
ENDTAB
  0
TABLE
  2
BLOCK_RECORD
  5
1
100
AcDbSymbolTable
 70
             1
  0
BLOCK_RECORD
  5
A
100
AcDbSymbolTableRecord
100
AcDbBlockTableRecord
  2
*MODEL_SPACE
  0
BLOCK_RECORD
  5
B
100
AcDbSymbolTableRecord
100
AcDbBlockTableRecord
  2
*PAPER_SPACE
  0
BLOCK_RECORD
  5
25
100
AcDbSymbolTableRecord
100
AcDbBlockTableRecord
  2
TOP__1
  0
ENDTAB
  0
ENDSEC
  0
SECTION
  2
BLOCKS
  0
BLOCK
  5
D
100
AcDbEntity
  8
0
100
AcDbBlockBegin
  2
*MODEL_SPACE
 70
             0
 10
0.0
 20
0.0
 30
0.0
  3
*MODEL_SPACE
  1

  0
ENDBLK
  5
E
100
AcDbEntity
  8
0
100
AcDbBlockEnd
  0
BLOCK
  5
F
100
AcDbEntity
 67
             1
  8
0
100
AcDbBlockBegin
  2
*PAPER_SPACE
 70
             0
 10
0.0
 20
0.0
 30
0.0
  3
*PAPER_SPACE
  1

  0
ENDBLK
  5
10
100
AcDbEntity
 67
             1
  8
0
100
AcDbBlockEnd
  0
BLOCK
  5
26
100
AcDbEntity
  8
0
100
AcDbBlockBegin
  2
TOP__1
 70
             0
 10
-19.9422054261271
 20
-16.58503071301669
 30
0.0
  3
TOP__1
  1

  0
XLINE
  5
2A
100
AcDbEntity
  8
1
  6
DOTTED
 62
             1
100
AcDbXline
 10
78.0
 20
-9.0
 30
0.0
 11
0.0
 21
1.0
 31
0.0
  0
ENDBLK
  5
2B
100
AcDbEntity
  8
0
100
AcDbBlockEnd
  0
ENDSEC
  0
SECTION
  2
ENTITIES
  0
ARC
  5
46E
100
AcDbEntity
  8
1
  6
CONTINUOUS
 62
             7
100
AcDbCircle
 10
172.0
 20
-56.25
 40
1.0
100
AcDbArc
 50
0.0
 51
90.0
  0
ARC
  5
46D
100
AcDbEntity
  8
1
  6
CONTINUOUS
 62
             7
100
AcDbCircle
 10
172.0
 20
-59.75
 40
1.0
100
AcDbArc
 50
-90.0
 51
0.0
  0
ARC
  5
46C
100
AcDbEntity
  8
1
  6
CONTINUOUS
 62
             7
100
AcDbCircle
 10
164.59999999999999
 20
-60.89999999999999
 40
1.2
100
AcDbArc
 50
-90.0
 51
0.0
  0
ARC
  5
46B
100
AcDbEntity
  8
1
  6
CONTINUOUS
 62
             7
100
AcDbCircle
 10
141.0
 20
-60.89999999999999
 40
1.19999999999999
100
AcDbArc
 50
180.0
 51
-90.0
  0
ARC
  5
46A
100
AcDbEntity
  8
1
  6
CONTINUOUS
 62
             7
100
AcDbCircle
 10
172.0
 20
38.25
 40
1.0
100
AcDbArc
 50
-90.0
 51
0.0
  0
ARC
  5
469
100
AcDbEntity
  8
1
  6
CONTINUOUS
 62
             7
100
AcDbCircle
 10
172.0
 20
41.75
 40
1.0
100
AcDbArc
 50
0.0
 51
90.0
  0
ARC
  5
468
100
AcDbEntity
  8
1
  6
CONTINUOUS
 62
             7
100
AcDbCircle
 10
164.59999999999999
 20
42.9
 40
1.20000000000002
100
AcDbArc
 50
0.0
 51
90.0
  0
ARC
  5
467
100
AcDbEntity
  8
1
  6
CONTINUOUS
 62
             7
100
AcDbCircle
 10
141.0
 20
42.9
 40
1.2
100
AcDbArc
 50
90.0
 51
180.0
  0
ARC
  5
466
100
AcDbEntity
  8
1
  6
CONTINUOUS
 62
             7
100
AcDbCircle
 10
-41.99999999999999
 20
-56.0
 40
1.0
100
AcDbArc
 50
180.0
 51
-90.0
  0
ARC
  5
465
100
AcDbEntity
  8
1
  6
CONTINUOUS
 62
             7
100
AcDbCircle
 10
-41.99999999999999
 20
38.0
 40
1.0
100
AcDbArc
 50
90.0
 51
180.0
  0
ARC
  5
464
100
AcDbEntity
  8
1
  6
CONTINUOUS
 62
             7
100
AcDbCircle
 10
52.00000000000001
 20
38.0
 40
1.0
100
AcDbArc
 50
0.0
 51
90.0
  0
ARC
  5
463
100
AcDbEntity
  8
1
  6
CONTINUOUS
 62
             7
100
AcDbCircle
 10
52.00000000000001
 20
-56.0
 40
1.0
100
AcDbArc
 50
-90.0
 51
0.0
  0
ARC
  5
462
100
AcDbEntity
  8
1
  6
CONTINUOUS
 62
             7
100
AcDbCircle
 10
69.50000000000001
 20
-55.04181287524542
 40
1.5
100
AcDbArc
 50
180.0
 51
-94.00000000000031
  0
ARC
  5
461
100
AcDbEntity
  8
1
  6
CONTINUOUS
 62
             7
100
AcDbCircle
 10
69.50000000000001
 20
37.04181287524542
 40
1.5
100
AcDbArc
 50
94.00000000000031
 51
179.99999999999918
  0
ARC
  5
460
100
AcDbEntity
  8
1
  6
CONTINUOUS
 62
             7
100
AcDbCircle
 10
-14.0
 20
-4.0
 40
0.5
100
AcDbArc
 50
-90.0
 51
0.0
  0
ARC
  5
45F
100
AcDbEntity
  8
1
  6
CONTINUOUS
 62
             7
100
AcDbCircle
 10
-17.0
 20
-4.0
 40
0.5
100
AcDbArc
 50
179.99999999999974
 51
-90.0
  0
ARC
  5
45E
100
AcDbEntity
  8
1
  6
CONTINUOUS
 62
             7
100
AcDbCircle
 10
-14.0
 20
8.5
 40
0.5
100
AcDbArc
 50
0.0
 51
90.0
  0
ARC
  5
45D
100
AcDbEntity
  8
1
  6
CONTINUOUS
 62
             7
100
AcDbCircle
 10
-17.0
 20
8.5
 40
0.5
100
AcDbArc
 50
90.0
 51
180.0
  0
ARC
  5
45C
100
AcDbEntity
  8
1
  6
CONTINUOUS
 62
             7
100
AcDbCircle
 10
-7.0
 20
7.0
 40
0.5
100
AcDbArc
 50
90.0
 51
180.0
  0
ARC
  5
45B
100
AcDbEntity
  8
1
  6
CONTINUOUS
 62
             7
100
AcDbCircle
 10
-7.0
 20
-4.0
 40
0.5
100
AcDbArc
 50
180.0
 51
-90.0
  0
ARC
  5
45A
100
AcDbEntity
  8
1
  6
CONTINUOUS
 62
             7
100
AcDbCircle
 10
33.0
 20
-4.0
 40
0.5
100
AcDbArc
 50
-90.0
 51
0.0
  0
ARC
  5
459
100
AcDbEntity
  8
1
  6
CONTINUOUS
 62
             7
100
AcDbCircle
 10
33.0
 20
7.0
 40
0.5
100
AcDbArc
 50
0.0
 51
90.0
  0
ARC
  5
458
100
AcDbEntity
  8
1
  6
CONTINUOUS
 62
             7
100
AcDbCircle
 10
33.0
 20
13.5
 40
0.5
100
AcDbArc
 50
-90.0
 51
0.0
  0
ARC
  5
457
100
AcDbEntity
  8
1
  6
CONTINUOUS
 62
             7
100
AcDbCircle
 10
-17.0
 20
13.5
 40
0.5
100
AcDbArc
 50
180.0
 51
-90.0
  0
ARC
  5
456
100
AcDbEntity
  8
1
  6
CONTINUOUS
 62
             7
100
AcDbCircle
 10
-17.0
 20
29.5
 40
0.5
100
AcDbArc
 50
90.0
 51
180.0
  0
ARC
  5
455
100
AcDbEntity
  8
1
  6
CONTINUOUS
 62
             7
100
AcDbCircle
 10
33.0
 20
29.5
 40
0.5
100
AcDbArc
 50
0.0
 51
90.0
  0
ARC
  5
454
100
AcDbEntity
  8
1
  6
CONTINUOUS
 62
             7
100
AcDbCircle
 10
41.5
 20
29.25
 40
0.5
100
AcDbArc
 50
0.0
 51
90.0
  0
ARC
  5
453
100
AcDbEntity
  8
1
  6
CONTINUOUS
 62
             7
100
AcDbCircle
 10
41.5
 20
-3.75
 40
0.5
100
AcDbArc
 50
-90.0
 51
0.0
  0
ARC
  5
452
100
AcDbEntity
  8
1
  6
CONTINUOUS
 62
             7
100
AcDbCircle
 10
38.5
 20
-3.75
 40
0.5
100
AcDbArc
 50
180.0
 51
-90.0
  0
ARC
  5
451
100
AcDbEntity
  8
1
  6
CONTINUOUS
 62
             7
100
AcDbCircle
 10
38.5
 20
29.25
 40
0.5
100
AcDbArc
 50
89.99999999999919
 51
180.0
  0
ARC
  5
450
100
AcDbEntity
  8
1
  6
CONTINUOUS
 62
             7
100
AcDbCircle
 10
-33.00000000000001
 20
-18.25
 40
0.50000000000002
100
AcDbArc
 50
90.00000000002443
 51
180.0
  0
ARC
  5
44F
100
AcDbEntity
  8
1
  6
CONTINUOUS
 62
             7
100
AcDbCircle
 10
-33.00000000000001
 20
-18.75
 40
0.49999999999977
100
AcDbArc
 50
180.0
 51
-90.00000000002524
  0
ARC
  5
44E
100
AcDbEntity
  8
1
  6
CONTINUOUS
 62
             7
100
AcDbCircle
 10
43.0
 20
-18.75
 40
0.5
100
AcDbArc
 50
-89.99999999999919
 51
0.0
  0
ARC
  5
44D
100
AcDbEntity
  8
1
  6
CONTINUOUS
 62
             7
100
AcDbCircle
 10
43.0
 20
-18.25
 40
0.5
100
AcDbArc
 50
0.0
 51
89.99999999999675
  0
ARC
  5
44C
100
AcDbEntity
  8
1
  6
CONTINUOUS
 62
             7
100
AcDbCircle
 10
-33.00000000000001
 20
-12.75
 40
0.49999999999977
100
AcDbArc
 50
180.0
 51
-90.00000000002524
  0
ARC
  5
44B
100
AcDbEntity
  8
1
  6
CONTINUOUS
 62
             7
100
AcDbCircle
 10
-33.00000000000001
 20
-12.25
 40
0.49999999999999
100
AcDbArc
 50
90.00000000002524
 51
180.0
  0
ARC
  5
44A
100
AcDbEntity
  8
1
  6
CONTINUOUS
 62
             7
100
AcDbCircle
 10
43.0
 20
-12.75
 40
0.5
100
AcDbArc
 50
-89.99999999999919
 51
0.0
  0
ARC
  5
449
100
AcDbEntity
  8
1
  6
CONTINUOUS
 62
             7
100
AcDbCircle
 10
43.0
 20
-12.25
 40
0.5
100
AcDbArc
 50
0.0
 51
89.99999999999919
  0
ARC
  5
448
100
AcDbEntity
  8
1
  6
CONTINUOUS
 62
             7
100
AcDbCircle
 10
-13.0
 20
-38.5
 40
0.5
100
AcDbArc
 50
89.99999999999878
 51
180.0
  0
ARC
  5
447
100
AcDbEntity
  8
1
  6
CONTINUOUS
 62
             7
100
AcDbCircle
 10
-13.0
 20
-45.5
 40
0.5
100
AcDbArc
 50
180.0
 51
-90.0
  0
ARC
  5
446
100
AcDbEntity
  8
1
  6
CONTINUOUS
 62
             7
100
AcDbCircle
 10
3.0
 20
-45.5
 40
0.5
100
AcDbArc
 50
-90.0
 51
0.0
  0
ARC
  5
445
100
AcDbEntity
  8
1
  6
CONTINUOUS
 62
             7
100
AcDbCircle
 10
3.0
 20
-38.5
 40
0.5
100
AcDbArc
 50
0.0
 51
90.0
  0
ARC
  5
444
100
AcDbEntity
  8
1
  6
CONTINUOUS
 62
             7
100
AcDbCircle
 10
27.0
 20
-38.5
 40
0.5
100
AcDbArc
 50
90.0
 51
180.0
  0
ARC
  5
443
100
AcDbEntity
  8
1
  6
CONTINUOUS
 62
             7
100
AcDbCircle
 10
27.0
 20
-45.5
 40
0.5
100
AcDbArc
 50
180.0
 51
-90.0
  0
ARC
  5
442
100
AcDbEntity
  8
1
  6
CONTINUOUS
 62
             7
100
AcDbCircle
 10
43.0
 20
-45.5
 40
0.5
100
AcDbArc
 50
-90.0
 51
0.0
  0
ARC
  5
441
100
AcDbEntity
  8
1
  6
CONTINUOUS
 62
             7
100
AcDbCircle
 10
43.0
 20
-38.5
 40
0.5
100
AcDbArc
 50
0.0
 51
90.0
  0
ARC
  5
440
100
AcDbEntity
  8
1
  6
CONTINUOUS
 62
             7
100
AcDbCircle
 10
22.99999999999999
 20
-27.5
 40
0.5
100
AcDbArc
 50
0.0
 51
90.0
  0
ARC
  5
43F
100
AcDbEntity
  8
1
  6
CONTINUOUS
 62
             7
100
AcDbCircle
 10
22.99999999999999
 20
-34.5
 40
0.5
100
AcDbArc
 50
-90.0
 51
0.0
  0
ARC
  5
43E
100
AcDbEntity
  8
1
  6
CONTINUOUS
 62
             7
100
AcDbCircle
 10
-13.0
 20
-34.5
 40
0.5
100
AcDbArc
 50
180.0
 51
-90.0
  0
ARC
  5
43D
100
AcDbEntity
  8
1
  6
CONTINUOUS
 62
             7
100
AcDbCircle
 10
-13.0
 20
-27.5
 40
0.5
100
AcDbArc
 50
90.0
 51
180.0
  0
ARC
  5
43C
100
AcDbEntity
  8
1
  6
CONTINUOUS
 62
             7
100
AcDbCircle
 10
-33.0
 20
-34.5
 40
0.5
100
AcDbArc
 50
180.0
 51
-90.0
  0
ARC
  5
43B
100
AcDbEntity
  8
1
  6
CONTINUOUS
 62
             7
100
AcDbCircle
 10
-33.0
 20
-27.5
 40
0.5
100
AcDbArc
 50
90.0
 51
180.0
  0
ARC
  5
43A
100
AcDbEntity
  8
1
  6
CONTINUOUS
 62
             7
100
AcDbCircle
 10
3.0
 20
-27.5
 40
0.5
100
AcDbArc
 50
0.0
 51
90.0
  0
ARC
  5
439
100
AcDbEntity
  8
1
  6
CONTINUOUS
 62
             7
100
AcDbCircle
 10
3.0
 20
-34.5
 40
0.5
100
AcDbArc
 50
-90.0
 51
0.0
  0
ARC
  5
438
100
AcDbEntity
  8
1
  6
CONTINUOUS
 62
             7
100
AcDbCircle
 10
-17.0
 20
-34.5
 40
0.5
100
AcDbArc
 50
-90.00000000000122
 51
0.0
  0
ARC
  5
437
100
AcDbEntity
  8
1
  6
CONTINUOUS
 62
             7
100
AcDbCircle
 10
-17.0
 20
-27.5
 40
0.49999999999999
100
AcDbArc
 50
0.0
 51
90.00000000000122
  0
ARC
  5
436
100
AcDbEntity
  8
1
  6
CONTINUOUS
 62
             7
100
AcDbCircle
 10
7.39038820320221
 20
-34.5
 40
0.50000000000004
100
AcDbArc
 50
-165.96375653207431
 51
-90.0
  0
ARC
  5
435
100
AcDbEntity
  8
1
  6
CONTINUOUS
 62
             7
100
AcDbCircle
 10
7.39038820320221
 20
-27.5
 40
0.5
100
AcDbArc
 50
90.0
 51
165.96375653207431
  0
ARC
  5
434
100
AcDbEntity
  8
1
  6
CONTINUOUS
 62
             7
100
AcDbCircle
 10
43.0
 20
-40.54722581363508
 40
0.50000000000002
100
AcDbArc
 50
-85.00000000000364
 51
0.0
  0
ARC
  5
433
100
AcDbEntity
  8
1
  6
CONTINUOUS
 62
             7
100
AcDbCircle
 10
43.0
 20
-42.0529555699501
 40
0.5
100
AcDbArc
 50
0.0
 51
94.99999999999665
  0
ARC
  5
432
100
AcDbEntity
  8
1
  6
CONTINUOUS
 62
             7
100
AcDbCircle
 10
-30.0
 20
20.5
 40
0.5
100
AcDbArc
 50
180.0
 51
-90.0
  0
ARC
  5
431
100
AcDbEntity
  8
1
  6
CONTINUOUS
 62
             7
100
AcDbCircle
 10
-30.0
 20
29.5
 40
0.5
100
AcDbArc
 50
90.0
 51
180.0
  0
ARC
  5
430
100
AcDbEntity
  8
1
  6
CONTINUOUS
 62
             7
100
AcDbCircle
 10
-24.0
 20
29.5
 40
0.5
100
AcDbArc
 50
0.0
 51
90.0
  0
ARC
  5
42F
100
AcDbEntity
  8
1
  6
CONTINUOUS
 62
             7
100
AcDbCircle
 10
-24.0
 20
20.5
 40
0.5
100
AcDbArc
 50
-90.0
 51
0.0
  0
ARC
  5
42E
100
AcDbEntity
  8
1
  6
CONTINUOUS
 62
             7
100
AcDbCircle
 10
22.99999999999999
 20
-42.0529555699501
 40
0.5
100
AcDbArc
 50
0.0
 51
94.99999999999665
  0
ARC
  5
42D
100
AcDbEntity
  8
1
  6
CONTINUOUS
 62
             7
100
AcDbCircle
 10
22.99999999999999
 20
-40.54722581363508
 40
0.50000000000002
100
AcDbArc
 50
-85.00000000000324
 51
0.0
  0
ARC
  5
42C
100
AcDbEntity
  8
1
  6
CONTINUOUS
 62
             7
100
AcDbCircle
 10
22.99999999999999
 20
-38.5
 40
0.5
100
AcDbArc
 50
0.0
 51
90.0
  0
ARC
  5
42B
100
AcDbEntity
  8
1
  6
CONTINUOUS
 62
             7
100
AcDbCircle
 10
22.99999999999999
 20
-45.5
 40
0.5
100
AcDbArc
 50
-90.0
 51
0.0
  0
ARC
  5
42A
100
AcDbEntity
  8
1
  6
CONTINUOUS
 62
             7
100
AcDbCircle
 10
6.99999999999999
 20
-45.5
 40
0.5
100
AcDbArc
 50
180.0
 51
-90.0
  0
ARC
  5
429
100
AcDbEntity
  8
1
  6
CONTINUOUS
 62
             7
100
AcDbCircle
 10
6.99999999999999
 20
-38.5
 40
0.5
100
AcDbArc
 50
90.0
 51
180.0
  0
ARC
  5
428
100
AcDbEntity
  8
0
  6
CONTINUOUS
 62
             7
100
AcDbCircle
 10
173.56463480680461
 20
-47.70605382921428
 40
0.19999999999999
100
AcDbArc
 50
0.0
 51
69.44395478040916
  0
ARC
  5
427
100
AcDbEntity
  8
0
  6
CONTINUOUS
 62
             7
100
AcDbCircle
 10
173.56463480680461
 20
-45.92885364194845
 40
0.19999999999998
100
AcDbArc
 50
-69.44395478040916
 51
0.0
  0
ARC
  5
426
100
AcDbEntity
  8
0
  6
CONTINUOUS
 62
             7
100
AcDbCircle
 10
172.56463480680461
 20
-47.70605382921428
 40
0.19999999999999
100
AcDbArc
 50
0.0
 51
69.44395478040916
  0
ARC
  5
425
100
AcDbEntity
  8
0
  6
CONTINUOUS
 62
             7
100
AcDbCircle
 10
172.56463480680461
 20
-45.92885364194845
 40
0.19999999999998
100
AcDbArc
 50
-69.44395478040916
 51
0.0
  0
ARC
  5
424
100
AcDbEntity
  8
0
  6
CONTINUOUS
 62
             7
100
AcDbCircle
 10
173.56463480680461
 20
-39.30605382921431
 40
0.19999999999999
100
AcDbArc
 50
0.0
 51
69.44395478041345
  0
ARC
  5
423
100
AcDbEntity
  8
0
  6
CONTINUOUS
 62
             7
100
AcDbCircle
 10
173.56463480680461
 20
-37.52885364194844
 40
0.20000000000002
100
AcDbArc
 50
-69.44395478041345
 51
0.0
  0
ARC
  5
422
100
AcDbEntity
  8
0
  6
CONTINUOUS
 62
             7
100
AcDbCircle
 10
172.56463480680461
 20
-39.30605382921431
 40
0.19999999999999
100
AcDbArc
 50
0.0
 51
69.44395478041345
  0
ARC
  5
421
100
AcDbEntity
  8
0
  6
CONTINUOUS
 62
             7
100
AcDbCircle
 10
172.56463480680461
 20
-37.52885364194844
 40
0.20000000000002
100
AcDbArc
 50
-69.44395478041345
 51
0.0
  0
ARC
  5
420
100
AcDbEntity
  8
0
  6
CONTINUOUS
 62
             7
100
AcDbCircle
 10
173.56463480680461
 20
-30.90605382921433
 40
0.19999999999999
100
AcDbArc
 50
0.0
 51
69.44395478041237
  0
ARC
  5
41F
100
AcDbEntity
  8
0
  6
CONTINUOUS
 62
             7
100
AcDbCircle
 10
173.56463480680461
 20
-29.12885364194847
 40
0.20000000000001
100
AcDbArc
 50
-69.44395478041237
 51
0.0
  0
ARC
  5
41E
100
AcDbEntity
  8
0
  6
CONTINUOUS
 62
             7
100
AcDbCircle
 10
172.56463480680461
 20
-30.90605382921433
 40
0.19999999999999
100
AcDbArc
 50
0.0
 51
69.44395478041237
  0
ARC
  5
41D
100
AcDbEntity
  8
0
  6
CONTINUOUS
 62
             7
100
AcDbCircle
 10
172.56463480680461
 20
-29.12885364194847
 40
0.20000000000001
100
AcDbArc
 50
-69.44395478041237
 51
0.0
  0
ARC
  5
41C
100
AcDbEntity
  8
0
  6
CONTINUOUS
 62
             7
100
AcDbCircle
 10
173.56463480680461
 20
-22.50605382921437
 40
0.19999999999999
100
AcDbArc
 50
0.0
 51
69.44395478041345
  0
ARC
  5
41B
100
AcDbEntity
  8
0
  6
CONTINUOUS
 62
             7
100
AcDbCircle
 10
173.56463480680461
 20
-20.7288536419485
 40
0.19999999999999
100
AcDbArc
 50
-69.44395478041022
 51
0.0
  0
ARC
  5
41A
100
AcDbEntity
  8
0
  6
CONTINUOUS
 62
             7
100
AcDbCircle
 10
172.56463480680461
 20
-22.50605382921437
 40
0.19999999999999
100
AcDbArc
 50
0.0
 51
69.44395478041345
  0
ARC
  5
419
100
AcDbEntity
  8
0
  6
CONTINUOUS
 62
             7
100
AcDbCircle
 10
172.56463480680461
 20
-20.7288536419485
 40
0.19999999999999
100
AcDbArc
 50
-69.44395478041022
 51
0.0
  0
ARC
  5
418
100
AcDbEntity
  8
0
  6
CONTINUOUS
 62
             7
100
AcDbCircle
 10
173.56463480680461
 20
-14.10605382921439
 40
0.19999999999999
100
AcDbArc
 50
0.0
 51
69.44395478041254
  0
ARC
  5
417
100
AcDbEntity
  8
0
  6
CONTINUOUS
 62
             7
100
AcDbCircle
 10
173.56463480680461
 20
-12.32885364194853
 40
0.19999999999998
100
AcDbArc
 50
-69.44395478040934
 51
0.0
  0
ARC
  5
416
100
AcDbEntity
  8
0
  6
CONTINUOUS
 62
             7
100
AcDbCircle
 10
172.56463480680461
 20
-14.10605382921439
 40
0.19999999999999
100
AcDbArc
 50
0.0
 51
69.44395478041254
  0
ARC
  5
415
100
AcDbEntity
  8
0
  6
CONTINUOUS
 62
             7
100
AcDbCircle
 10
172.56463480680461
 20
-12.32885364194853
 40
0.19999999999998
100
AcDbArc
 50
-69.44395478040934
 51
0.0
  0
ARC
  5
414
100
AcDbEntity
  8
0
  6
CONTINUOUS
 62
             7
100
AcDbCircle
 10
173.56463480680461
 20
-5.70605382921441
 40
0.19999999999999
100
AcDbArc
 50
0.0
 51
69.44395478041274
  0
ARC
  5
413
100
AcDbEntity
  8
0
  6
CONTINUOUS
 62
             7
100
AcDbCircle
 10
173.56463480680461
 20
-3.92885364194855
 40
0.19999999999998
100
AcDbArc
 50
-69.44395478040983
 51
0.0
  0
ARC
  5
412
100
AcDbEntity
  8
0
  6
CONTINUOUS
 62
             7
100
AcDbCircle
 10
172.56463480680461
 20
-5.70605382921441
 40
0.19999999999999
100
AcDbArc
 50
0.0
 51
69.44395478041274
  0
ARC
  5
411
100
AcDbEntity
  8
0
  6
CONTINUOUS
 62
             7
100
AcDbCircle
 10
172.56463480680461
 20
-3.92885364194855
 40
0.19999999999998
100
AcDbArc
 50
-69.44395478040983
 51
0.0
  0
ARC
  5
410
100
AcDbEntity
  8
0
  6
CONTINUOUS
 62
             7
100
AcDbCircle
 10
173.56463480680461
 20
2.69394617078557
 40
0.19999999999999
100
AcDbArc
 50
0.0
 51
69.44395478041263
  0
ARC
  5
40F
100
AcDbEntity
  8
0
  6
CONTINUOUS
 62
             7
100
AcDbCircle
 10
173.56463480680461
 20
4.47114635805143
 40
0.19999999999998
100
AcDbArc
 50
-69.44395478040987
 51
0.0
  0
ARC
  5
40E
100
AcDbEntity
  8
0
  6
CONTINUOUS
 62
             7
100
AcDbCircle
 10
172.56463480680461
 20
2.69394617078557
 40
0.19999999999999
100
AcDbArc
 50
0.0
 51
69.44395478041263
  0
ARC
  5
40D
100
AcDbEntity
  8
0
  6
CONTINUOUS
 62
             7
100
AcDbCircle
 10
172.56463480680461
 20
4.47114635805143
 40
0.19999999999998
100
AcDbArc
 50
-69.44395478040987
 51
0.0
  0
ARC
  5
40C
100
AcDbEntity
  8
0
  6
CONTINUOUS
 62
             7
100
AcDbCircle
 10
173.56463480680461
 20
11.09394617078556
 40
0.19999999999999
100
AcDbArc
 50
0.0
 51
69.44395478041129
  0
ARC
  5
40B
100
AcDbEntity
  8
0
  6
CONTINUOUS
 62
             7
100
AcDbCircle
 10
173.56463480680461
 20
12.8711463580514
 40
0.19999999999997
100
AcDbArc
 50
-69.44395478040843
 51
0.0
  0
ARC
  5
40A
100
AcDbEntity
  8
0
  6
CONTINUOUS
 62
             7
100
AcDbCircle
 10
172.56463480680461
 20
11.09394617078556
 40
0.19999999999999
100
AcDbArc
 50
0.0
 51
69.44395478041129
  0
ARC
  5
409
100
AcDbEntity
  8
0
  6
CONTINUOUS
 62
             7
100
AcDbCircle
 10
172.56463480680461
 20
12.8711463580514
 40
0.19999999999997
100
AcDbArc
 50
-69.44395478040843
 51
0.0
  0
ARC
  5
408
100
AcDbEntity
  8
0
  6
CONTINUOUS
 62
             7
100
AcDbCircle
 10
173.56463480680461
 20
19.49394617078553
 40
0.19999999999999
100
AcDbArc
 50
0.0
 51
69.44395478041345
  0
ARC
  5
407
100
AcDbEntity
  8
0
  6
CONTINUOUS
 62
             7
100
AcDbCircle
 10
173.56463480680461
 20
21.2711463580514
 40
0.19999999999999
100
AcDbArc
 50
-69.44395478041058
 51
0.0
  0
ARC
  5
406
100
AcDbEntity
  8
0
  6
CONTINUOUS
 62
             7
100
AcDbCircle
 10
172.56463480680461
 20
19.49394617078553
 40
0.19999999999999
100
AcDbArc
 50
0.0
 51
69.44395478041345
  0
ARC
  5
405
100
AcDbEntity
  8
0
  6
CONTINUOUS
 62
             7
100
AcDbCircle
 10
172.56463480680461
 20
21.2711463580514
 40
0.19999999999999
100
AcDbArc
 50
-69.44395478041058
 51
0.0
  0
ARC
  5
404
100
AcDbEntity
  8
0
  6
CONTINUOUS
 62
             7
100
AcDbCircle
 10
173.56463480680461
 20
27.89394617078551
 40
0.19999999999999
100
AcDbArc
 50
0.0
 51
69.44395478041237
  0
ARC
  5
403
100
AcDbEntity
  8
0
  6
CONTINUOUS
 62
             7
100
AcDbCircle
 10
173.56463480680461
 20
29.67114635805137
 40
0.19999999999998
100
AcDbArc
 50
-69.44395478040951
 51
0.0
  0
ARC
  5
402
100
AcDbEntity
  8
0
  6
CONTINUOUS
 62
             7
100
AcDbCircle
 10
172.56463480680461
 20
27.89394617078551
 40
0.19999999999999
100
AcDbArc
 50
0.0
 51
69.44395478041237
  0
ARC
  5
401
100
AcDbEntity
  8
0
  6
CONTINUOUS
 62
             7
100
AcDbCircle
 10
172.56463480680461
 20
29.67114635805137
 40
0.19999999999998
100
AcDbArc
 50
-69.44395478040951
 51
0.0
  0
CIRCLE
  5
400
100
AcDbEntity
  8
0
  6
CONTINUOUS
 62
             7
100
AcDbCircle
 10
19.15999999999998
 20
15.19
 40
0.8
  0
CIRCLE
  5
3FF
100
AcDbEntity
  8
0
  6
CONTINUOUS
 62
             7
100
AcDbCircle
 10
31.85999999999999
 20
15.19
 40
0.80000000000001
  0
CIRCLE
  5
3FE
100
AcDbEntity
  8
0
  6
CONTINUOUS
 62
             7
100
AcDbCircle
 10
-6.24000000000001
 20
15.19
 40
0.80000000000001
  0
CIRCLE
  5
3FD
100
AcDbEntity
  8
0
  6
CONTINUOUS
 62
             7
100
AcDbCircle
 10
6.46000000000001
 20
15.19
 40
0.79999999999998
  0
CIRCLE
  5
3FC
100
AcDbEntity
  8
1
  6
CONTINUOUS
 62
             7
100
AcDbCircle
 10
32.22299999999998
 20
-2.68000000000001
 40
0.44999999999999
  0
CIRCLE
  5
3FB
100
AcDbEntity
  8
1
  6
CONTINUOUS
 62
             7
100
AcDbCircle
 10
22.03399999999999
 20
-2.68000000000001
 40
0.44999999999999
  0
CIRCLE
  5
3FA
100
AcDbEntity
  8
1
  6
CONTINUOUS
 62
             7
100
AcDbCircle
 10
11.845
 20
-2.68000000000001
 40
0.44999999999999
  0
CIRCLE
  5
3F9
100
AcDbEntity
  8
1
  6
CONTINUOUS
 62
             7
100
AcDbCircle
 10
1.65600000000001
 20
-2.68000000000001
 40
0.44999999999999
  0
CIRCLE
  5
3F8
100
AcDbEntity
  8
0
  6
CONTINUOUS
 62
             7
100
AcDbCircle
 10
-24.5
 20
21.40000000000001
 40
0.55000000000003
  0
ARC
  5
3F7
100
AcDbEntity
  8
1
  6
CONTINUOUS
 62
             7
100
AcDbCircle
 10
170.40000000000001
 20
-55.09999999999999
 40
0.59999999999999
100
AcDbArc
 50
0.00000000000068
 51
90.0
  0
ARC
  5
3F6
100
AcDbEntity
  8
1
  6
CONTINUOUS
 62
             7
100
AcDbCircle
 10
170.40000000000001
 20
37.09999999999999
 40
0.59999999999999
100
AcDbArc
 50
-90.0
 51
-0.00000000000068
  0
ARC
  5
3F5
100
AcDbEntity
  8
1
  6
CONTINUOUS
 62
             7
100
AcDbCircle
 10
27.75
 20
-42.63429281056294
 40
0.25
100
AcDbArc
 50
94.99999999999893
 51
-85.00000000000594
  0
ARC
  5
3F4
100
AcDbEntity
  8
1
  6
CONTINUOUS
 62
             7
100
AcDbCircle
 10
7.74999999999999
 20
-42.63429281056294
 40
0.25
100
AcDbArc
 50
94.99999999999893
 51
-85.00000000000594
  0
ARC
  5
3F3
100
AcDbEntity
  8
0
  6
CONTINUOUS
 62
             7
100
AcDbCircle
 10
174.5037549484291
 20
-48.56745373558135
 40
1.0
100
AcDbArc
 50
-90.0
 51
-16.95776330000335
  0
ARC
  5
3F2
100
AcDbEntity
  8
0
  6
CONTINUOUS
 62
             7
100
AcDbCircle
 10
168.76463480680459
 20
-46.81745373558135
 40
7.00000000000003
100
AcDbArc
 50
-16.957763300004
 51
16.95776330000383
  0
ARC
  5
3F1
100
AcDbEntity
  8
0
  6
CONTINUOUS
 62
             7
100
AcDbCircle
 10
174.5037549484291
 20
-45.06745373558135
 40
1.00000000000001
100
AcDbArc
 50
16.95776330000219
 51
90.0
  0
ARC
  5
3F0
100
AcDbEntity
  8
0
  6
CONTINUOUS
 62
             7
100
AcDbCircle
 10
174.5037549484291
 20
-40.16745373558138
 40
1.0
100
AcDbArc
 50
-90.0
 51
-16.95776330000452
  0
ARC
  5
3EF
100
AcDbEntity
  8
0
  6
CONTINUOUS
 62
             7
100
AcDbCircle
 10
168.76463480680459
 20
-38.41745373558138
 40
7.00000000000003
100
AcDbArc
 50
-16.95776330000417
 51
16.95776330000383
  0
ARC
  5
3EE
100
AcDbEntity
  8
0
  6
CONTINUOUS
 62
             7
100
AcDbCircle
 10
174.5037549484291
 20
-36.66745373558138
 40
1.00000000000001
100
AcDbArc
 50
16.95776330000219
 51
90.0
  0
ARC
  5
3ED
100
AcDbEntity
  8
0
  6
CONTINUOUS
 62
             7
100
AcDbCircle
 10
174.5037549484291
 20
-31.7674537355814
 40
1.0
100
AcDbArc
 50
-90.0
 51
-16.95776330000433
  0
ARC
  5
3EC
100
AcDbEntity
  8
0
  6
CONTINUOUS
 62
             7
100
AcDbCircle
 10
168.76463480680459
 20
-30.0174537355814
 40
7.00000000000003
100
AcDbArc
 50
-16.95776330000414
 51
16.95776330000389
  0
ARC
  5
3EB
100
AcDbEntity
  8
0
  6
CONTINUOUS
 62
             7
100
AcDbCircle
 10
174.5037549484291
 20
-28.26745373558141
 40
1.00000000000001
100
AcDbArc
 50
16.95776330000297
 51
90.0
  0
ARC
  5
3EA
100
AcDbEntity
  8
0
  6
CONTINUOUS
 62
             7
100
AcDbCircle
 10
174.5037549484291
 20
-23.36745373558144
 40
1.0
100
AcDbArc
 50
-90.0
 51
-16.95776330000297
  0
ARC
  5
3E9
100
AcDbEntity
  8
0
  6
CONTINUOUS
 62
             7
100
AcDbCircle
 10
168.76463480680459
 20
-21.61745373558144
 40
7.00000000000002
100
AcDbArc
 50
-16.95776330000394
 51
16.957763300004
  0
ARC
  5
3E8
100
AcDbEntity
  8
0
  6
CONTINUOUS
 62
             7
100
AcDbCircle
 10
174.5037549484291
 20
-19.86745373558144
 40
1.00000000000001
100
AcDbArc
 50
16.95776330000335
 51
90.0
  0
ARC
  5
3E7
100
AcDbEntity
  8
0
  6
CONTINUOUS
 62
             7
100
AcDbCircle
 10
174.5037549484291
 20
-14.96745373558146
 40
1.0
100
AcDbArc
 50
-90.0
 51
-16.95776330000355
  0
ARC
  5
3E6
100
AcDbEntity
  8
0
  6
CONTINUOUS
 62
             7
100
AcDbCircle
 10
168.76463480680459
 20
-13.21745373558146
 40
7.00000000000003
100
AcDbArc
 50
-16.95776330000403
 51
16.95776330000401
  0
ARC
  5
3E5
100
AcDbEntity
  8
0
  6
CONTINUOUS
 62
             7
100
AcDbCircle
 10
174.5037549484291
 20
-11.46745373558146
 40
1.00000000000001
100
AcDbArc
 50
16.95776330000345
 51
90.0
  0
ARC
  5
3E4
100
AcDbEntity
  8
0
  6
CONTINUOUS
 62
             7
100
AcDbCircle
 10
174.5037549484291
 20
-6.56745373558148
 40
1.0
100
AcDbArc
 50
-90.0
 51
-16.95776330000335
  0
ARC
  5
3E3
100
AcDbEntity
  8
0
  6
CONTINUOUS
 62
             7
100
AcDbCircle
 10
168.76463480680459
 20
-4.81745373558148
 40
7.00000000000003
100
AcDbArc
 50
-16.957763300004
 51
16.957763300004
  0
ARC
  5
3E2
100
AcDbEntity
  8
0
  6
CONTINUOUS
 62
             7
100
AcDbCircle
 10
174.5037549484291
 20
-3.06745373558148
 40
1.00000000000001
100
AcDbArc
 50
16.9577633000034
 51
90.0
  0
ARC
  5
3E1
100
AcDbEntity
  8
0
  6
CONTINUOUS
 62
             7
100
AcDbCircle
 10
174.5037549484291
 20
1.8325462644185
 40
1.0
100
AcDbArc
 50
-90.0
 51
-16.9577633000034
  0
ARC
  5
3E0
100
AcDbEntity
  8
0
  6
CONTINUOUS
 62
             7
100
AcDbCircle
 10
168.76463480680459
 20
3.5825462644185
 40
7.00000000000003
100
AcDbArc
 50
-16.95776330000401
 51
16.957763300004
  0
ARC
  5
3DF
100
AcDbEntity
  8
0
  6
CONTINUOUS
 62
             7
100
AcDbCircle
 10
174.5037549484291
 20
5.3325462644185
 40
1.00000000000001
100
AcDbArc
 50
16.95776330000335
 51
90.0
  0
ARC
  5
3DE
100
AcDbEntity
  8
0
  6
CONTINUOUS
 62
             7
100
AcDbCircle
 10
174.5037549484291
 20
10.23254626441847
 40
0.99999999999998
100
AcDbArc
 50
-90.0
 51
-16.95776330000238
  0
ARC
  5
3DD
100
AcDbEntity
  8
0
  6
CONTINUOUS
 62
             7
100
AcDbCircle
 10
168.76463480680459
 20
11.98254626441847
 40
7.00000000000002
100
AcDbArc
 50
-16.95776330000386
 51
16.95776330000419
  0
ARC
  5
3DC
100
AcDbEntity
  8
0
  6
CONTINUOUS
 62
             7
100
AcDbCircle
 10
174.5037549484291
 20
13.73254626441847
 40
1.00000000000002
100
AcDbArc
 50
16.95776330000462
 51
90.0
  0
ARC
  5
3DB
100
AcDbEntity
  8
0
  6
CONTINUOUS
 62
             7
100
AcDbCircle
 10
174.5037549484291
 20
18.63254626441847
 40
1.0
100
AcDbArc
 50
-90.0
 51
-16.95776330000335
  0
ARC
  5
3DA
100
AcDbEntity
  8
0
  6
CONTINUOUS
 62
             7
100
AcDbCircle
 10
168.76463480680459
 20
20.38254626441847
 40
7.00000000000003
100
AcDbArc
 50
-16.957763300004
 51
16.95776330000394
  0
ARC
  5
3D9
100
AcDbEntity
  8
0
  6
CONTINUOUS
 62
             7
100
AcDbCircle
 10
174.5037549484291
 20
22.13254626441847
 40
1.00000000000001
100
AcDbArc
 50
16.95776330000297
 51
90.0
  0
ARC
  5
3D8
100
AcDbEntity
  8
0
  6
CONTINUOUS
 62
             7
100
AcDbCircle
 10
174.5037549484291
 20
27.03254626441844
 40
1.0
100
AcDbArc
 50
-90.0
 51
-16.95776330000297
  0
ARC
  5
3D7
100
AcDbEntity
  8
0
  6
CONTINUOUS
 62
             7
100
AcDbCircle
 10
168.76463480680459
 20
28.78254626441844
 40
7.00000000000002
100
AcDbArc
 50
-16.95776330000394
 51
16.95776330000403
  0
ARC
  5
3D6
100
AcDbEntity
  8
0
  6
CONTINUOUS
 62
             7
100
AcDbCircle
 10
174.5037549484291
 20
30.53254626441844
 40
1.00000000000001
100
AcDbArc
 50
16.95776330000355
 51
90.0
  0
LINE
  5
3D5
100
AcDbEntity
  8
1
  6
CONTINUOUS
 62
             7
100
AcDbLine
 10
178.0
 20
32.35035897959371
 11
178.0
 21
34.48254626441846
  0
LINE
  5
3D4
100
AcDbEntity
  8
1
  6
CONTINUOUS
 62
             7
100
AcDbLine
 10
178.0
 20
25.23218728482475
 11
176.0
 21
25.24964102040626
  0
LINE
  5
3D3
100
AcDbEntity
  8
1
  6
CONTINUOUS
 62
             7
100
AcDbLine
 10
178.0
 20
23.93290524401216
 11
176.0
 21
23.91545150843065
  0
LINE
  5
3D2
100
AcDbEntity
  8
1
  6
CONTINUOUS
 62
             7
100
AcDbLine
 10
176.0
 20
25.24964102040626
 11
176.0
 21
23.91545150843065
  0
LINE
  5
3D1
100
AcDbEntity
  8
1
  6
CONTINUOUS
 62
             7
100
AcDbLine
 10
178.0
 20
16.83218728482474
 11
176.0
 21
16.84964102040625
  0
LINE
  5
3D0
100
AcDbEntity
  8
1
  6
CONTINUOUS
 62
             7
100
AcDbLine
 10
178.0
 20
15.53290524401216
 11
176.0
 21
15.51545150843064
  0
LINE
  5
3CF
100
AcDbEntity
  8
1
  6
CONTINUOUS
 62
             7
100
AcDbLine
 10
176.0
 20
16.84964102040625
 11
176.0
 21
15.51545150843064
  0
LINE
  5
3CE
100
AcDbEntity
  8
1
  6
CONTINUOUS
 62
             7
100
AcDbLine
 10
178.0
 20
8.43218728482476
 11
176.0
 21
8.44964102040625
  0
LINE
  5
3CD
100
AcDbEntity
  8
1
  6
CONTINUOUS
 62
             7
100
AcDbLine
 10
178.0
 20
7.13290524401215
 11
176.0
 21
7.11545150843067
  0
LINE
  5
3CC
100
AcDbEntity
  8
1
  6
CONTINUOUS
 62
             7
100
AcDbLine
 10
176.0
 20
8.44964102040625
 11
176.0
 21
7.11545150843067
  0
LINE
  5
3CB
100
AcDbEntity
  8
1
  6
CONTINUOUS
 62
             7
100
AcDbLine
 10
178.0
 20
0.03218728482476
 11
176.0
 21
0.04964102040624
  0
LINE
  5
3CA
100
AcDbEntity
  8
1
  6
CONTINUOUS
 62
             7
100
AcDbLine
 10
178.0
 20
-1.26709475598786
 11
176.0
 21
-1.28454849156934
  0
LINE
  5
3C9
100
AcDbEntity
  8
1
  6
CONTINUOUS
 62
             7
100
AcDbLine
 10
176.0
 20
0.04964102040624
 11
176.0
 21
-1.28454849156934
  0
LINE
  5
3C8
100
AcDbEntity
  8
1
  6
CONTINUOUS
 62
             7
100
AcDbLine
 10
178.0
 20
-16.76781271517525
 11
176.0
 21
-16.75035897959373
  0
LINE
  5
3C7
100
AcDbEntity
  8
1
  6
CONTINUOUS
 62
             7
100
AcDbLine
 10
178.0
 20
-18.06709475598783
 11
176.0
 21
-18.08454849156934
  0
LINE
  5
3C6
100
AcDbEntity
  8
1
  6
CONTINUOUS
 62
             7
100
AcDbLine
 10
176.0
 20
-16.75035897959373
 11
176.0
 21
-18.08454849156934
  0
LINE
  5
3C5
100
AcDbEntity
  8
1
  6
CONTINUOUS
 62
             7
100
AcDbLine
 10
178.0
 20
-25.16781271517525
 11
176.0
 21
-25.15035897959375
  0
LINE
  5
3C4
100
AcDbEntity
  8
1
  6
CONTINUOUS
 62
             7
100
AcDbLine
 10
178.0
 20
-26.46709475598784
 11
176.0
 21
-26.48454849156936
  0
LINE
  5
3C3
100
AcDbEntity
  8
1
  6
CONTINUOUS
 62
             7
100
AcDbLine
 10
176.0
 20
-25.15035897959375
 11
176.0
 21
-26.48454849156936
  0
LINE
  5
3C2
100
AcDbEntity
  8
1
  6
CONTINUOUS
 62
             7
100
AcDbLine
 10
178.0
 20
-41.96781271517523
 11
176.0
 21
-41.95035897959375
  0
LINE
  5
3C1
100
AcDbEntity
  8
1
  6
CONTINUOUS
 62
             7
100
AcDbLine
 10
178.0
 20
-43.26709475598786
 11
176.0
 21
-43.28454849156933
  0
LINE
  5
3C0
100
AcDbEntity
  8
1
  6
CONTINUOUS
 62
             7
100
AcDbLine
 10
176.0
 20
-41.95035897959375
 11
176.0
 21
-43.28454849156933
  0
LINE
  5
3BF
100
AcDbEntity
  8
1
  6
CONTINUOUS
 62
             7
100
AcDbLine
 10
178.0
 20
-50.36781271517524
 11
176.0
 21
-50.35035897959376
  0
LINE
  5
3BE
100
AcDbEntity
  8
1
  6
CONTINUOUS
 62
             7
100
AcDbLine
 10
178.0
 20
23.93290524401216
 11
178.0
 21
25.23218728482475
  0
LINE
  5
3BD
100
AcDbEntity
  8
1
  6
CONTINUOUS
 62
             7
100
AcDbLine
 10
178.0
 20
15.53290524401216
 11
178.0
 21
16.83218728482474
  0
LINE
  5
3BC
100
AcDbEntity
  8
1
  6
CONTINUOUS
 62
             7
100
AcDbLine
 10
178.0
 20
7.13290524401215
 11
178.0
 21
8.43218728482476
  0
LINE
  5
3BB
100
AcDbEntity
  8
1
  6
CONTINUOUS
 62
             7
100
AcDbLine
 10
178.0
 20
-1.26709475598786
 11
178.0
 21
0.03218728482476
  0
LINE
  5
3BA
100
AcDbEntity
  8
1
  6
CONTINUOUS
 62
             7
100
AcDbLine
 10
178.0
 20
-18.06709475598783
 11
178.0
 21
-16.76781271517525
  0
LINE
  5
3B9
100
AcDbEntity
  8
1
  6
CONTINUOUS
 62
             7
100
AcDbLine
 10
178.0
 20
-26.46709475598784
 11
178.0
 21
-25.16781271517525
  0
LINE
  5
3B8
100
AcDbEntity
  8
1
  6
CONTINUOUS
 62
             7
100
AcDbLine
 10
178.0
 20
-34.86709475598784
 11
178.0
 21
-33.56781271517524
  0
LINE
  5
3B7
100
AcDbEntity
  8
1
  6
CONTINUOUS
 62
             7
100
AcDbLine
 10
178.0
 20
-43.26709475598786
 11
178.0
 21
-41.96781271517523
  0
LINE
  5
3B6
100
AcDbEntity
  8
1
  6
CONTINUOUS
 62
             7
100
AcDbLine
 10
178.0
 20
-52.51745373558155
 11
178.0
 21
-50.36781271517524
  0
LINE
  5
3B5
100
AcDbEntity
  8
1
  6
CONTINUOUS
 62
             7
100
AcDbLine
 10
170.5
 20
-8.30236120674457
 11
176.0
 21
-8.35035897959373
  0
LINE
  5
3B4
100
AcDbEntity
  8
1
  6
CONTINUOUS
 62
             7
100
AcDbLine
 10
178.0
 20
-9.66709475598783
 11
178.0
 21
-8.36781271517524
  0
LINE
  5
3B3
100
AcDbEntity
  8
1
  6
CONTINUOUS
 62
             7
100
AcDbLine
 10
176.0
 20
-26.48454849156936
 11
170.5
 21
-26.53254626441854
  0
LINE
  5
3B2
100
AcDbEntity
  8
1
  6
CONTINUOUS
 62
             7
100
AcDbLine
 10
171.36463480680459
 20
-50.30990676039084
 11
176.0
 21
-50.35035897959376
  0
LINE
  5
3B1
100
AcDbEntity
  8
1
  6
CONTINUOUS
 62
             7
100
AcDbLine
 10
170.5
 20
-43.33254626441855
 11
170.5
 21
-50.31981494232608
  0
LINE
  5
3B0
100
AcDbEntity
  8
1
  6
CONTINUOUS
 62
             7
100
AcDbLine
 10
170.5
 20
-43.33254626441855
 11
176.0
 21
-43.28454849156933
  0
LINE
  5
3AF
100
AcDbEntity
  8
1
  6
CONTINUOUS
 62
             7
100
AcDbLine
 10
170.5
 20
-41.90236120674457
 11
176.0
 21
-41.95035897959375
  0
LINE
  5
3AE
100
AcDbEntity
  8
1
  6
CONTINUOUS
 62
             7
100
AcDbLine
 10
170.5
 20
-33.50236120674459
 11
178.0
 21
-33.56781271517524
  0
LINE
  5
3AD
100
AcDbEntity
  8
1
  6
CONTINUOUS
 62
             7
100
AcDbLine
 10
176.0
 20
-33.56781271517529
 11
176.0
 21
-34.90200222715089
  0
LINE
  5
3AC
100
AcDbEntity
  8
1
  6
CONTINUOUS
 62
             7
100
AcDbLine
 10
170.5
 20
-26.53254626441854
 11
170.5
 21
-33.50236120674459
  0
LINE
  5
3AB
100
AcDbEntity
  8
1
  6
CONTINUOUS
 62
             7
100
AcDbLine
 10
170.5
 20
-25.10236120674458
 11
176.0
 21
-25.15035897959375
  0
LINE
  5
3AA
100
AcDbEntity
  8
1
  6
CONTINUOUS
 62
             7
100
AcDbLine
 10
170.5
 20
-18.13254626441854
 11
170.5
 21
-25.10236120674458
  0
LINE
  5
3A9
100
AcDbEntity
  8
1
  6
CONTINUOUS
 62
             7
100
AcDbLine
 10
170.5
 20
-18.13254626441854
 11
176.0
 21
-18.08454849156934
  0
LINE
  5
3A8
100
AcDbEntity
  8
1
  6
CONTINUOUS
 62
             7
100
AcDbLine
 10
170.5
 20
-16.70236120674458
 11
176.0
 21
-16.75035897959373
  0
LINE
  5
3A7
100
AcDbEntity
  8
1
  6
CONTINUOUS
 62
             7
100
AcDbLine
 10
170.5
 20
-9.73254626441852
 11
170.5
 21
-16.70236120674458
  0
LINE
  5
3A6
100
AcDbEntity
  8
1
  6
CONTINUOUS
 62
             7
100
AcDbLine
 10
170.5
 20
-9.73254626441852
 11
176.0
 21
-9.68454849156935
  0
LINE
  5
3A5
100
AcDbEntity
  8
1
  6
CONTINUOUS
 62
             7
100
AcDbLine
 10
170.5
 20
0.09763879325541
 11
176.0
 21
0.04964102040624
  0
LINE
  5
3A4
100
AcDbEntity
  8
1
  6
CONTINUOUS
 62
             7
100
AcDbLine
 10
170.5
 20
7.06745373558145
 11
170.5
 21
0.09763879325541
  0
LINE
  5
3A3
100
AcDbEntity
  8
1
  6
CONTINUOUS
 62
             7
100
AcDbLine
 10
170.5
 20
7.06745373558145
 11
176.0
 21
7.11545150843067
  0
LINE
  5
3A2
100
AcDbEntity
  8
1
  6
CONTINUOUS
 62
             7
100
AcDbLine
 10
170.5
 20
-1.33254626441855
 11
170.5
 21
-8.30236120674457
  0
LINE
  5
3A1
100
AcDbEntity
  8
1
  6
CONTINUOUS
 62
             7
100
AcDbLine
 10
170.5
 20
-1.33254626441855
 11
176.0
 21
-1.28454849156934
  0
LINE
  5
3A0
100
AcDbEntity
  8
1
  6
CONTINUOUS
 62
             7
100
AcDbLine
 10
170.5
 20
15.46745373558146
 11
176.0
 21
15.51545150843064
  0
LINE
  5
39F
100
AcDbEntity
  8
1
  6
CONTINUOUS
 62
             7
100
AcDbLine
 10
170.5
 20
15.46745373558146
 11
170.5
 21
8.49763879325546
  0
LINE
  5
39E
100
AcDbEntity
  8
1
  6
CONTINUOUS
 62
             7
100
AcDbLine
 10
170.5
 20
16.89763879325547
 11
176.0
 21
16.84964102040625
  0
LINE
  5
39D
100
AcDbEntity
  8
1
  6
CONTINUOUS
 62
             7
100
AcDbLine
 10
170.5
 20
23.86745373558146
 11
170.5
 21
16.89763879325547
  0
LINE
  5
39C
100
AcDbEntity
  8
1
  6
CONTINUOUS
 62
             7
100
AcDbLine
 10
170.5
 20
23.86745373558146
 11
176.0
 21
23.91545150843065
  0
LINE
  5
39B
100
AcDbEntity
  8
1
  6
CONTINUOUS
 62
             7
100
AcDbLine
 10
170.5
 20
25.29763879325544
 11
176.0
 21
25.24964102040626
  0
LINE
  5
39A
100
AcDbEntity
  8
1
  6
CONTINUOUS
 62
             7
100
AcDbLine
 10
170.5
 20
32.26745373558144
 11
170.5
 21
25.29763879325544
  0
LINE
  5
399
100
AcDbEntity
  8
1
  6
CONTINUOUS
 62
             7
100
AcDbLine
 10
170.5
 20
32.26745373558144
 11
176.0
 21
32.31545150843066
  0
LINE
  5
398
100
AcDbEntity
  8
1
  6
CONTINUOUS
 62
             7
100
AcDbLine
 10
178.0
 20
-34.88454849156938
 11
176.0
 21
-34.90200222715089
  0
LINE
  5
397
100
AcDbEntity
  8
1
  6
CONTINUOUS
 62
             7
100
AcDbLine
 10
170.5
 20
-50.31981494232608
 11
171.36463480680459
 21
-50.30990676039084
  0
LINE
  5
396
100
AcDbEntity
  8
1
  6
CONTINUOUS
 62
             7
100
AcDbLine
 10
176.0
 20
32.31545150843066
 11
176.0
 21
34.98254626441846
  0
LINE
  5
395
100
AcDbEntity
  8
1
  6
CONTINUOUS
 62
             7
100
AcDbLine
 10
176.0
 20
32.31545150843066
 11
178.0
 21
32.33290524401217
  0
LINE
  5
394
100
AcDbEntity
  8
1
  6
CONTINUOUS
 62
             7
100
AcDbLine
 10
170.5
 20
-34.95000000000008
 11
170.5
 21
-41.90236120674457
  0
LINE
  5
393
100
AcDbEntity
  8
1
  6
CONTINUOUS
 62
             7
100
AcDbLine
 10
170.5
 20
-34.95000000000008
 11
176.0
 21
-34.90200222715089
  0
LINE
  5
392
100
AcDbEntity
  8
1
  6
CONTINUOUS
 62
             7
100
AcDbLine
 10
176.0
 20
-8.35035897959373
 11
176.0
 21
-9.68454849156935
  0
LINE
  5
391
100
AcDbEntity
  8
1
  6
CONTINUOUS
 62
             7
100
AcDbLine
 10
176.0
 20
-8.35035897959373
 11
178.0
 21
-8.36781271517524
  0
LINE
  5
390
100
AcDbEntity
  8
1
  6
CONTINUOUS
 62
             7
100
AcDbLine
 10
176.0
 20
-9.68454849156935
 11
178.0
 21
-9.66709475598783
  0
LINE
  5
38F
100
AcDbEntity
  8
1
  6
CONTINUOUS
 62
             7
100
AcDbLine
 10
170.5
 20
8.49763879325546
 11
176.0
 21
8.44964102040625
  0
LINE
  5
38E
100
AcDbEntity
  8
1
  6
CONTINUOUS
 62
             7
100
AcDbLine
 10
79.0
 20
-54.5
 11
79.0
 21
-57.5
  0
LINE
  5
38D
100
AcDbEntity
  8
1
  6
CONTINUOUS
 62
             7
100
AcDbLine
 10
169.90000000000001
 20
-55.09999999999998
 11
169.90000000000001
 21
-54.5
  0
LINE
  5
38C
100
AcDbEntity
  8
1
  6
CONTINUOUS
 62
             7
100
AcDbLine
 10
170.40000000000001
 20
-56.49999999999999
 11
170.40000000000001
 21
-56.99999999999999
  0
LINE
  5
38B
100
AcDbEntity
  8
1
  6
CONTINUOUS
 62
             7
100
AcDbLine
 10
169.90000000000001
 20
-57.5
 11
169.90000000000001
 21
-56.99999999999999
  0
LINE
  5
38A
100
AcDbEntity
  8
1
  6
CONTINUOUS
 62
             7
100
AcDbLine
 10
170.40000000000001
 20
-56.99999999999999
 11
169.90000000000001
 21
-56.99999999999999
  0
LINE
  5
389
100
AcDbEntity
  8
1
  6
CONTINUOUS
 62
             7
100
AcDbLine
 10
170.40000000000001
 20
-56.99999999999999
 11
170.40000000000001
 21
-58.99999999999999
  0
LINE
  5
388
100
AcDbEntity
  8
1
  6
CONTINUOUS
 62
             7
100
AcDbLine
 10
165.80000000000001
 20
-57.5
 11
165.80000000000001
 21
-58.99999999999999
  0
LINE
  5
387
100
AcDbEntity
  8
1
  6
CONTINUOUS
 62
             7
100
AcDbLine
 10
165.80000000000001
 20
-57.5
 11
165.80000000000001
 21
-58.99999999999999
  0
LINE
  5
386
100
AcDbEntity
  8
1
  6
CONTINUOUS
 62
             7
100
AcDbLine
 10
170.40000000000001
 20
-58.99999999999999
 11
165.80000000000001
 21
-58.99999999999999
  0
LINE
  5
385
100
AcDbEntity
  8
1
  6
CONTINUOUS
 62
             7
100
AcDbLine
 10
164.59999999999999
 20
-57.5
 11
164.59999999999999
 21
-58.99999999999999
  0
LINE
  5
384
100
AcDbEntity
  8
1
  6
CONTINUOUS
 62
             7
100
AcDbLine
 10
151.0
 20
-57.5
 11
151.0
 21
-59.0
  0
LINE
  5
383
100
AcDbEntity
  8
1
  6
CONTINUOUS
 62
             7
100
AcDbLine
 10
164.59999999999999
 20
-58.99999999999999
 11
151.0
 21
-59.0
  0
LINE
  5
382
100
AcDbEntity
  8
1
  6
CONTINUOUS
 62
             7
100
AcDbLine
 10
169.90000000000001
 20
-56.99999999999999
 11
169.90000000000001
 21
-56.49999999999999
  0
LINE
  5
381
100
AcDbEntity
  8
1
  6
CONTINUOUS
 62
             7
100
AcDbLine
 10
170.40000000000001
 20
-55.09999999999999
 11
170.40000000000001
 21
-56.49999999999999
  0
LINE
  5
380
100
AcDbEntity
  8
1
  6
CONTINUOUS
 62
             7
100
AcDbLine
 10
169.90000000000001
 20
-56.49999999999999
 11
170.40000000000001
 21
-56.49999999999999
  0
LINE
  5
37F
100
AcDbEntity
  8
1
  6
CONTINUOUS
 62
             7
100
AcDbLine
 10
142.19999999999999
 20
-57.5
 11
151.0
 21
-57.5
  0
LINE
  5
37E
100
AcDbEntity
  8
1
  6
CONTINUOUS
 62
             7
100
AcDbLine
 10
151.0
 20
-59.0
 11
151.0
 21
-59.5
  0
LINE
  5
37D
100
AcDbEntity
  8
1
  6
CONTINUOUS
 62
             7
100
AcDbLine
 10
164.59999999999999
 20
-58.99999999999999
 11
164.59999999999999
 21
-59.49999999999999
  0
LINE
  5
37C
100
AcDbEntity
  8
1
  6
CONTINUOUS
 62
             7
100
AcDbLine
 10
151.0
 20
-59.5
 11
164.59999999999999
 21
-59.49999999999999
  0
LINE
  5
37B
100
AcDbEntity
  8
1
  6
CONTINUOUS
 62
             7
100
AcDbLine
 10
165.80000000000001
 20
-58.99999999999999
 11
165.80000000000001
 21
-59.49999999999999
  0
LINE
  5
37A
100
AcDbEntity
  8
1
  6
CONTINUOUS
 62
             7
100
AcDbLine
 10
165.80000000000001
 20
-58.99999999999999
 11
165.80000000000001
 21
-59.49999999999999
  0
LINE
  5
379
100
AcDbEntity
  8
1
  6
CONTINUOUS
 62
             7
100
AcDbLine
 10
170.40000000000001
 20
-58.99999999999999
 11
170.40000000000001
 21
-59.49999999999999
  0
LINE
  5
378
100
AcDbEntity
  8
1
  6
CONTINUOUS
 62
             7
100
AcDbLine
 10
165.80000000000001
 20
-59.49999999999999
 11
170.40000000000001
 21
-59.49999999999999
  0
LINE
  5
377
100
AcDbEntity
  8
1
  6
CONTINUOUS
 62
             7
100
AcDbLine
 10
171.0
 20
-61.5
 11
171.0
 21
-60.74999999999999
  0
LINE
  5
376
100
AcDbEntity
  8
1
  6
CONTINUOUS
 62
             7
100
AcDbLine
 10
171.0
 20
-60.74999999999999
 11
172.0
 21
-60.75
  0
LINE
  5
375
100
AcDbEntity
  8
1
  6
CONTINUOUS
 62
             7
100
AcDbLine
 10
173.0
 20
-59.75
 11
173.0
 21
-56.25
  0
LINE
  5
374
100
AcDbEntity
  8
1
  6
CONTINUOUS
 62
             7
100
AcDbLine
 10
171.0
 20
-60.74999999999999
 11
171.0
 21
-55.25
  0
LINE
  5
373
100
AcDbEntity
  8
1
  6
CONTINUOUS
 62
             7
100
AcDbLine
 10
172.0
 20
-55.25
 11
171.0
 21
-55.25
  0
LINE
  5
372
100
AcDbEntity
  8
1
  6
CONTINUOUS
 62
             7
100
AcDbLine
 10
151.0
 20
-57.5
 11
164.59999999999999
 21
-57.5
  0
LINE
  5
371
100
AcDbEntity
  8
1
  6
CONTINUOUS
 62
             7
100
AcDbLine
 10
164.59999999999999
 20
-59.49999999999999
 11
164.59999999999999
 21
-60.89999999999999
  0
LINE
  5
370
100
AcDbEntity
  8
1
  6
CONTINUOUS
 62
             7
100
AcDbLine
 10
164.59999999999999
 20
-57.5
 11
165.80000000000001
 21
-57.5
  0
LINE
  5
36F
100
AcDbEntity
  8
1
  6
CONTINUOUS
 62
             7
100
AcDbLine
 10
165.80000000000001
 20
-59.49999999999999
 11
165.80000000000001
 21
-60.89999999999999
  0
LINE
  5
36E
100
AcDbEntity
  8
1
  6
CONTINUOUS
 62
             7
100
AcDbLine
 10
164.59999999999999
 20
-60.89999999999999
 11
141.0
 21
-60.89999999999999
  0
LINE
  5
36D
100
AcDbEntity
  8
1
  6
CONTINUOUS
 62
             7
100
AcDbLine
 10
141.0
 20
-57.5
 11
142.19999999999999
 21
-57.5
  0
LINE
  5
36C
100
AcDbEntity
  8
1
  6
CONTINUOUS
 62
             7
100
AcDbLine
 10
141.0
 20
-60.89999999999999
 11
141.0
 21
-57.5
  0
LINE
  5
36B
100
AcDbEntity
  8
1
  6
CONTINUOUS
 62
             7
100
AcDbLine
 10
165.80000000000001
 20
-57.5
 11
167.0
 21
-57.5
  0
LINE
  5
36A
100
AcDbEntity
  8
1
  6
CONTINUOUS
 62
             7
100
AcDbLine
 10
165.80000000000001
 20
-59.49999999999999
 11
165.80000000000001
 21
-60.89999999999999
  0
LINE
  5
369
100
AcDbEntity
  8
1
  6
CONTINUOUS
 62
             7
100
AcDbLine
 10
164.59999999999999
 20
-62.09999999999999
 11
141.0
 21
-62.09999999999999
  0
LINE
  5
368
100
AcDbEntity
  8
1
  6
CONTINUOUS
 62
             7
100
AcDbLine
 10
79.0
 20
-57.5
 11
141.0
 21
-57.5
  0
LINE
  5
367
100
AcDbEntity
  8
1
  6
CONTINUOUS
 62
             7
100
AcDbLine
 10
139.80000000000001
 20
-60.89999999999999
 11
139.80000000000001
 21
-57.5
  0
LINE
  5
366
100
AcDbEntity
  8
1
  6
CONTINUOUS
 62
             7
100
AcDbLine
 10
167.0
 20
-57.5
 11
169.90000000000001
 21
-57.5
  0
LINE
  5
365
100
AcDbEntity
  8
1
  6
CONTINUOUS
 62
             7
100
AcDbLine
 10
169.90000000000001
 20
-56.49999999999999
 11
169.90000000000001
 21
-55.09999999999998
  0
LINE
  5
364
100
AcDbEntity
  8
1
  6
CONTINUOUS
 62
             7
100
AcDbLine
 10
169.90000000000001
 20
-55.09999999999998
 11
170.40000000000001
 21
-55.09999999999999
  0
LINE
  5
363
100
AcDbEntity
  8
1
  6
CONTINUOUS
 62
             7
100
AcDbLine
 10
170.40000000000001
 20
-59.49999999999999
 11
170.40000000000001
 21
-61.5
  0
LINE
  5
362
100
AcDbEntity
  8
1
  6
CONTINUOUS
 62
             7
100
AcDbLine
 10
170.40000000000001
 20
-61.5
 11
171.0
 21
-61.5
  0
LINE
  5
361
100
AcDbEntity
  8
1
  6
CONTINUOUS
 62
             7
100
AcDbLine
 10
171.0
 20
-55.25
 11
171.0
 21
-55.09999999999998
  0
LINE
  5
360
100
AcDbEntity
  8
1
  6
CONTINUOUS
 62
             7
100
AcDbLine
 10
170.40000000000001
 20
38.99999999999999
 11
170.40000000000001
 21
38.49999999999999
  0
LINE
  5
35F
100
AcDbEntity
  8
1
  6
CONTINUOUS
 62
             7
100
AcDbLine
 10
169.90000000000001
 20
38.99999999999999
 11
169.90000000000001
 21
39.5
  0
LINE
  5
35E
100
AcDbEntity
  8
1
  6
CONTINUOUS
 62
             7
100
AcDbLine
 10
169.90000000000001
 20
38.99999999999999
 11
170.40000000000001
 21
38.99999999999999
  0
LINE
  5
35D
100
AcDbEntity
  8
1
  6
CONTINUOUS
 62
             7
100
AcDbLine
 10
170.40000000000001
 20
40.99999999999999
 11
170.40000000000001
 21
38.99999999999999
  0
LINE
  5
35C
100
AcDbEntity
  8
1
  6
CONTINUOUS
 62
             7
100
AcDbLine
 10
165.80000000000001
 20
40.99999999999999
 11
165.80000000000001
 21
39.5
  0
LINE
  5
35B
100
AcDbEntity
  8
1
  6
CONTINUOUS
 62
             7
100
AcDbLine
 10
165.80000000000001
 20
40.99999999999999
 11
165.80000000000001
 21
39.5
  0
LINE
  5
35A
100
AcDbEntity
  8
1
  6
CONTINUOUS
 62
             7
100
AcDbLine
 10
165.80000000000001
 20
40.99999999999999
 11
170.40000000000001
 21
40.99999999999999
  0
LINE
  5
359
100
AcDbEntity
  8
1
  6
CONTINUOUS
 62
             7
100
AcDbLine
 10
164.59999999999999
 20
40.99999999999999
 11
164.59999999999999
 21
39.5
  0
LINE
  5
358
100
AcDbEntity
  8
1
  6
CONTINUOUS
 62
             7
100
AcDbLine
 10
151.0
 20
41.0
 11
151.0
 21
39.5
  0
LINE
  5
357
100
AcDbEntity
  8
1
  6
CONTINUOUS
 62
             7
100
AcDbLine
 10
151.0
 20
41.0
 11
164.59999999999999
 21
40.99999999999999
  0
LINE
  5
356
100
AcDbEntity
  8
1
  6
CONTINUOUS
 62
             7
100
AcDbLine
 10
169.90000000000001
 20
38.49999999999999
 11
169.90000000000001
 21
38.99999999999999
  0
LINE
  5
355
100
AcDbEntity
  8
1
  6
CONTINUOUS
 62
             7
100
AcDbLine
 10
170.40000000000001
 20
38.49999999999999
 11
170.40000000000001
 21
37.09999999999999
  0
LINE
  5
354
100
AcDbEntity
  8
1
  6
CONTINUOUS
 62
             7
100
AcDbLine
 10
170.40000000000001
 20
38.49999999999999
 11
169.90000000000001
 21
38.49999999999999
  0
LINE
  5
353
100
AcDbEntity
  8
1
  6
CONTINUOUS
 62
             7
100
AcDbLine
 10
151.0
 20
39.5
 11
142.19999999999999
 21
39.5
  0
LINE
  5
352
100
AcDbEntity
  8
1
  6
CONTINUOUS
 62
             7
100
AcDbLine
 10
151.0
 20
41.5
 11
151.0
 21
41.0
  0
LINE
  5
351
100
AcDbEntity
  8
1
  6
CONTINUOUS
 62
             7
100
AcDbLine
 10
164.59999999999999
 20
41.49999999999999
 11
164.59999999999999
 21
40.99999999999999
  0
LINE
  5
350
100
AcDbEntity
  8
1
  6
CONTINUOUS
 62
             7
100
AcDbLine
 10
164.59999999999999
 20
41.49999999999999
 11
151.0
 21
41.5
  0
LINE
  5
34F
100
AcDbEntity
  8
1
  6
CONTINUOUS
 62
             7
100
AcDbLine
 10
165.80000000000001
 20
41.49999999999999
 11
165.80000000000001
 21
40.99999999999999
  0
LINE
  5
34E
100
AcDbEntity
  8
1
  6
CONTINUOUS
 62
             7
100
AcDbLine
 10
165.80000000000001
 20
41.49999999999999
 11
165.80000000000001
 21
40.99999999999999
  0
LINE
  5
34D
100
AcDbEntity
  8
1
  6
CONTINUOUS
 62
             7
100
AcDbLine
 10
170.40000000000001
 20
41.49999999999999
 11
170.40000000000001
 21
40.99999999999999
  0
LINE
  5
34C
100
AcDbEntity
  8
1
  6
CONTINUOUS
 62
             7
100
AcDbLine
 10
170.40000000000001
 20
41.49999999999999
 11
165.80000000000001
 21
41.49999999999999
  0
LINE
  5
34B
100
AcDbEntity
  8
1
  6
CONTINUOUS
 62
             7
100
AcDbLine
 10
171.0
 20
42.74999999999999
 11
171.0
 21
43.5
  0
LINE
  5
34A
100
AcDbEntity
  8
1
  6
CONTINUOUS
 62
             7
100
AcDbLine
 10
172.0
 20
42.75
 11
171.0
 21
42.74999999999999
  0
LINE
  5
349
100
AcDbEntity
  8
1
  6
CONTINUOUS
 62
             7
100
AcDbLine
 10
173.0
 20
38.25
 11
173.0
 21
41.75
  0
LINE
  5
348
100
AcDbEntity
  8
1
  6
CONTINUOUS
 62
             7
100
AcDbLine
 10
171.0
 20
37.25
 11
171.0
 21
42.74999999999999
  0
LINE
  5
347
100
AcDbEntity
  8
1
  6
CONTINUOUS
 62
             7
100
AcDbLine
 10
171.0
 20
37.25
 11
172.0
 21
37.25
  0
LINE
  5
346
100
AcDbEntity
  8
1
  6
CONTINUOUS
 62
             7
100
AcDbLine
 10
168.0
 20
36.49999999999999
 11
91.00000000000001
 21
36.5
  0
LINE
  5
345
100
AcDbEntity
  8
1
  6
CONTINUOUS
 62
             7
100
AcDbLine
 10
164.59999999999999
 20
39.5
 11
151.0
 21
39.5
  0
LINE
  5
344
100
AcDbEntity
  8
1
  6
CONTINUOUS
 62
             7
100
AcDbLine
 10
164.59999999999999
 20
42.9
 11
164.59999999999999
 21
41.49999999999999
  0
LINE
  5
343
100
AcDbEntity
  8
1
  6
CONTINUOUS
 62
             7
100
AcDbLine
 10
165.80000000000001
 20
39.5
 11
164.59999999999999
 21
39.5
  0
LINE
  5
342
100
AcDbEntity
  8
1
  6
CONTINUOUS
 62
             7
100
AcDbLine
 10
165.80000000000001
 20
42.9
 11
165.80000000000001
 21
41.49999999999999
  0
LINE
  5
341
100
AcDbEntity
  8
1
  6
CONTINUOUS
 62
             7
100
AcDbLine
 10
141.0
 20
42.9
 11
164.59999999999999
 21
42.9
  0
LINE
  5
340
100
AcDbEntity
  8
1
  6
CONTINUOUS
 62
             7
100
AcDbLine
 10
142.19999999999999
 20
39.5
 11
141.0
 21
39.5
  0
LINE
  5
33F
100
AcDbEntity
  8
1
  6
CONTINUOUS
 62
             7
100
AcDbLine
 10
141.0
 20
39.5
 11
141.0
 21
42.9
  0
LINE
  5
33E
100
AcDbEntity
  8
1
  6
CONTINUOUS
 62
             7
100
AcDbLine
 10
167.0
 20
39.5
 11
165.80000000000001
 21
39.5
  0
LINE
  5
33D
100
AcDbEntity
  8
1
  6
CONTINUOUS
 62
             7
100
AcDbLine
 10
165.80000000000001
 20
42.9
 11
165.80000000000001
 21
41.49999999999999
  0
LINE
  5
33C
100
AcDbEntity
  8
1
  6
CONTINUOUS
 62
             7
100
AcDbLine
 10
141.0
 20
44.1
 11
164.59999999999999
 21
44.1
  0
LINE
  5
33B
100
AcDbEntity
  8
1
  6
CONTINUOUS
 62
             7
100
AcDbLine
 10
141.0
 20
39.5
 11
79.0
 21
39.5
  0
LINE
  5
33A
100
AcDbEntity
  8
1
  6
CONTINUOUS
 62
             7
100
AcDbLine
 10
139.80000000000001
 20
39.5
 11
139.80000000000001
 21
42.9
  0
LINE
  5
339
100
AcDbEntity
  8
1
  6
CONTINUOUS
 62
             7
100
AcDbLine
 10
79.0
 20
36.5
 11
91.00000000000001
 21
36.5
  0
LINE
  5
338
100
AcDbEntity
  8
1
  6
CONTINUOUS
 62
             7
100
AcDbLine
 10
79.0
 20
39.5
 11
79.0
 21
36.5
  0
LINE
  5
337
100
AcDbEntity
  8
1
  6
CONTINUOUS
 62
             7
100
AcDbLine
 10
169.90000000000001
 20
39.5
 11
167.0
 21
39.5
  0
LINE
  5
336
100
AcDbEntity
  8
1
  6
CONTINUOUS
 62
             7
100
AcDbLine
 10
169.90000000000001
 20
37.09999999999998
 11
169.90000000000001
 21
38.49999999999999
  0
LINE
  5
335
100
AcDbEntity
  8
1
  6
CONTINUOUS
 62
             7
100
AcDbLine
 10
169.90000000000001
 20
36.5
 11
168.0
 21
36.49999999999999
  0
LINE
  5
334
100
AcDbEntity
  8
1
  6
CONTINUOUS
 62
             7
100
AcDbLine
 10
169.90000000000001
 20
36.5
 11
169.90000000000001
 21
37.09999999999998
  0
LINE
  5
333
100
AcDbEntity
  8
1
  6
CONTINUOUS
 62
             7
100
AcDbLine
 10
170.40000000000001
 20
37.09999999999999
 11
169.90000000000001
 21
37.09999999999998
  0
LINE
  5
332
100
AcDbEntity
  8
1
  6
CONTINUOUS
 62
             7
100
AcDbLine
 10
170.40000000000001
 20
43.5
 11
170.40000000000001
 21
41.49999999999999
  0
LINE
  5
331
100
AcDbEntity
  8
1
  6
CONTINUOUS
 62
             7
100
AcDbLine
 10
171.0
 20
43.5
 11
170.40000000000001
 21
43.5
  0
LINE
  5
330
100
AcDbEntity
  8
1
  6
CONTINUOUS
 62
             7
100
AcDbLine
 10
171.0
 20
37.09999999999998
 11
171.0
 21
37.25
  0
LINE
  5
32F
100
AcDbEntity
  8
1
  6
CONTINUOUS
 62
             7
100
AcDbLine
 10
170.40000000000001
 20
36.5
 11
169.90000000000001
 21
36.5
  0
LINE
  5
32E
100
AcDbEntity
  8
1
  6
CONTINUOUS
 62
             7
100
AcDbLine
 10
-41.99999999999999
 20
-57.0
 11
52.00000000000001
 21
-57.0
  0
LINE
  5
32D
100
AcDbEntity
  8
1
  6
CONTINUOUS
 62
             7
100
AcDbLine
 10
53.00000000000001
 20
-56.0
 11
53.00000000000001
 21
38.0
  0
LINE
  5
32C
100
AcDbEntity
  8
1
  6
CONTINUOUS
 62
             7
100
AcDbLine
 10
52.00000000000001
 20
39.0
 11
-41.99999999999999
 21
39.0
  0
LINE
  5
32B
100
AcDbEntity
  8
1
  6
CONTINUOUS
 62
             7
100
AcDbLine
 10
-42.99999999999999
 20
38.0
 11
-42.99999999999999
 21
-56.0
  0
LINE
  5
32A
100
AcDbEntity
  8
1
  6
CONTINUOUS
 62
             7
100
AcDbLine
 10
76.00000000000001
 20
-57.0
 11
69.39536528938382
 21
-56.53815895063516
  0
LINE
  5
329
100
AcDbEntity
  8
1
  6
CONTINUOUS
 62
             7
100
AcDbLine
 10
68.00000000000001
 20
-55.04181287524542
 11
68.00000000000001
 21
37.04181287524544
  0
LINE
  5
328
100
AcDbEntity
  8
1
  6
CONTINUOUS
 62
             7
100
AcDbLine
 10
69.39536528938382
 20
38.53815895063516
 11
76.00000000000001
 21
39.0
  0
LINE
  5
327
100
AcDbEntity
  8
1
  6
CONTINUOUS
 62
             7
100
AcDbLine
 10
76.00000000000001
 20
-57.0
 11
76.00000000000001
 21
39.0
  0
LINE
  5
326
100
AcDbEntity
  8
1
  6
CONTINUOUS
 62
             7
100
AcDbLine
 10
169.5
 20
-53.0
 11
176.5
 21
-53.0
  0
LINE
  5
325
100
AcDbEntity
  8
1
  6
CONTINUOUS
 62
             7
100
AcDbLine
 10
176.5
 20
-53.0
 11
176.5
 21
-50.3547224134891
  0
LINE
  5
324
100
AcDbEntity
  8
1
  6
CONTINUOUS
 62
             7
100
AcDbLine
 10
169.5
 20
35.0
 11
177.5
 21
35.0
  0
LINE
  5
323
100
AcDbEntity
  8
1
  6
CONTINUOUS
 62
             7
100
AcDbLine
 10
168.0
 20
-54.5
 11
177.5
 21
-54.5
  0
LINE
  5
322
100
AcDbEntity
  8
1
  6
CONTINUOUS
 62
             7
100
AcDbLine
 10
176.5
 20
-53.0
 11
177.5
 21
-53.0
  0
LINE
  5
321
100
AcDbEntity
  8
1
  6
CONTINUOUS
 62
             7
100
AcDbLine
 10
177.5
 20
36.5
 11
170.40000000000001
 21
36.5
  0
LINE
  5
320
100
AcDbEntity
  8
1
  6
CONTINUOUS
 62
             7
100
AcDbLine
 10
78.0
 20
39.0
 11
78.0
 21
36.5
  0
LINE
  5
31F
100
AcDbEntity
  8
1
  6
CONTINUOUS
 62
             7
100
AcDbLine
 10
76.00000000000001
 20
39.0
 11
78.0
 21
39.0
  0
LINE
  5
31E
100
AcDbEntity
  8
1
  6
CONTINUOUS
 62
             7
100
AcDbLine
 10
78.0
 20
-57.0
 11
76.00000000000001
 21
-57.0
  0
LINE
  5
31D
100
AcDbEntity
  8
1
  6
CONTINUOUS
 62
             7
100
AcDbLine
 10
78.0
 20
-54.5
 11
78.0
 21
-57.0
  0
LINE
  5
31C
100
AcDbEntity
  8
1
  6
CONTINUOUS
 62
             7
100
AcDbLine
 10
164.39979182180599
 20
-54.5
 11
78.0
 21
-54.5
  0
LINE
  5
31B
100
AcDbEntity
  8
1
  6
CONTINUOUS
 62
             7
100
AcDbLine
 10
91.00000000000001
 20
36.0
 11
91.00000000000001
 21
36.5
  0
LINE
  5
31A
100
AcDbEntity
  8
1
  6
CONTINUOUS
 62
             7
100
AcDbLine
 10
78.0
 20
36.5
 11
79.0
 21
36.5
  0
LINE
  5
319
100
AcDbEntity
  8
1
  6
CONTINUOUS
 62
             7
100
AcDbLine
 10
78.0
 20
36.0
 11
91.00000000000001
 21
36.0
  0
LINE
  5
318
100
AcDbEntity
  8
1
  6
CONTINUOUS
 62
             7
100
AcDbLine
 10
178.0
 20
34.5
 11
178.0
 21
36.0
  0
LINE
  5
317
100
AcDbEntity
  8
1
  6
CONTINUOUS
 62
             7
100
AcDbLine
 10
78.0
 20
-54.5
 11
78.0
 21
36.5
  0
LINE
  5
316
100
AcDbEntity
  8
1
  6
CONTINUOUS
 62
             7
100
AcDbLine
 10
177.5
 20
-54.5
 11
178.0
 21
-54.0
  0
LINE
  5
315
100
AcDbEntity
  8
1
  6
CONTINUOUS
 62
             7
100
AcDbLine
 10
177.5
 20
36.5
 11
178.0
 21
36.0
  0
LINE
  5
314
100
AcDbEntity
  8
1
  6
CONTINUOUS
 62
             7
100
AcDbLine
 10
178.0
 20
34.5
 11
177.5
 21
35.0
  0
LINE
  5
313
100
AcDbEntity
  8
1
  6
CONTINUOUS
 62
             7
100
AcDbLine
 10
168.0
 20
36.49999999999999
 11
169.5
 21
35.0
  0
LINE
  5
312
100
AcDbEntity
  8
1
  6
CONTINUOUS
 62
             7
100
AcDbLine
 10
168.0
 20
-54.5
 11
169.5
 21
-53.0
  0
LINE
  5
311
100
AcDbEntity
  8
1
  6
CONTINUOUS
 62
             7
100
AcDbLine
 10
177.5
 20
-53.0
 11
178.0
 21
-52.5
  0
LINE
  5
310
100
AcDbEntity
  8
1
  6
CONTINUOUS
 62
             7
100
AcDbLine
 10
178.0
 20
-54.0
 11
178.0
 21
-52.5
  0
LINE
  5
30F
100
AcDbEntity
  8
1
  6
CONTINUOUS
 62
             7
100
AcDbLine
 10
168.0
 20
-54.5
 11
164.39979182180599
 21
-54.5
  0
LINE
  5
30E
100
AcDbEntity
  8
1
  6
CONTINUOUS
 62
             7
100
AcDbLine
 10
135.0
 20
-48.5
 11
135.0
 21
-50.5
  0
LINE
  5
30D
100
AcDbEntity
  8
1
  6
CONTINUOUS
 62
             7
100
AcDbLine
 10
150.0
 20
-48.5
 11
135.0
 21
-48.5
  0
LINE
  5
30C
100
AcDbEntity
  8
1
  6
CONTINUOUS
 62
             7
100
AcDbLine
 10
150.0
 20
-50.5
 11
150.0
 21
-48.5
  0
LINE
  5
30B
100
AcDbEntity
  8
1
  6
CONTINUOUS
 62
             7
100
AcDbLine
 10
135.0
 20
-50.5
 11
150.0
 21
-50.5
  0
LINE
  5
30A
100
AcDbEntity
  8
1
  6
CONTINUOUS
 62
             7
100
AcDbLine
 10
135.0
 20
-45.0
 11
135.0
 21
-47.0
  0
LINE
  5
309
100
AcDbEntity
  8
1
  6
CONTINUOUS
 62
             7
100
AcDbLine
 10
150.0
 20
-45.0
 11
135.0
 21
-45.0
  0
LINE
  5
308
100
AcDbEntity
  8
1
  6
CONTINUOUS
 62
             7
100
AcDbLine
 10
150.0
 20
-47.0
 11
150.0
 21
-45.0
  0
LINE
  5
307
100
AcDbEntity
  8
1
  6
CONTINUOUS
 62
             7
100
AcDbLine
 10
135.0
 20
-47.0
 11
150.0
 21
-47.0
  0
LINE
  5
306
100
AcDbEntity
  8
1
  6
CONTINUOUS
 62
             7
100
AcDbLine
 10
115.0
 20
-48.5
 11
115.0
 21
-50.5
  0
LINE
  5
305
100
AcDbEntity
  8
1
  6
CONTINUOUS
 62
             7
100
AcDbLine
 10
130.0
 20
-48.5
 11
115.0
 21
-48.5
  0
LINE
  5
304
100
AcDbEntity
  8
1
  6
CONTINUOUS
 62
             7
100
AcDbLine
 10
130.0
 20
-50.5
 11
130.0
 21
-48.5
  0
LINE
  5
303
100
AcDbEntity
  8
1
  6
CONTINUOUS
 62
             7
100
AcDbLine
 10
115.0
 20
-50.5
 11
130.0
 21
-50.5
  0
LINE
  5
302
100
AcDbEntity
  8
1
  6
CONTINUOUS
 62
             7
100
AcDbLine
 10
115.0
 20
-45.0
 11
115.0
 21
-47.0
  0
LINE
  5
301
100
AcDbEntity
  8
1
  6
CONTINUOUS
 62
             7
100
AcDbLine
 10
130.0
 20
-45.0
 11
115.0
 21
-45.0
  0
LINE
  5
300
100
AcDbEntity
  8
1
  6
CONTINUOUS
 62
             7
100
AcDbLine
 10
130.0
 20
-47.0
 11
130.0
 21
-45.0
  0
LINE
  5
2FF
100
AcDbEntity
  8
1
  6
CONTINUOUS
 62
             7
100
AcDbLine
 10
115.0
 20
-47.0
 11
130.0
 21
-47.0
  0
LINE
  5
2FE
100
AcDbEntity
  8
1
  6
CONTINUOUS
 62
             7
100
AcDbLine
 10
93.0
 20
-48.5
 11
93.0
 21
-50.5
  0
LINE
  5
2FD
100
AcDbEntity
  8
1
  6
CONTINUOUS
 62
             7
100
AcDbLine
 10
108.0
 20
-48.5
 11
93.0
 21
-48.5
  0
LINE
  5
2FC
100
AcDbEntity
  8
1
  6
CONTINUOUS
 62
             7
100
AcDbLine
 10
108.0
 20
-50.5
 11
108.0
 21
-48.5
  0
LINE
  5
2FB
100
AcDbEntity
  8
1
  6
CONTINUOUS
 62
             7
100
AcDbLine
 10
93.0
 20
-50.5
 11
108.0
 21
-50.5
  0
LINE
  5
2FA
100
AcDbEntity
  8
1
  6
CONTINUOUS
 62
             7
100
AcDbLine
 10
93.0
 20
-45.0
 11
93.0
 21
-47.0
  0
LINE
  5
2F9
100
AcDbEntity
  8
1
  6
CONTINUOUS
 62
             7
100
AcDbLine
 10
108.0
 20
-45.0
 11
93.0
 21
-45.0
  0
LINE
  5
2F8
100
AcDbEntity
  8
1
  6
CONTINUOUS
 62
             7
100
AcDbLine
 10
108.0
 20
-47.0
 11
108.0
 21
-45.0
  0
LINE
  5
2F7
100
AcDbEntity
  8
1
  6
CONTINUOUS
 62
             7
100
AcDbLine
 10
93.0
 20
-47.0
 11
108.0
 21
-47.0
  0
LINE
  5
2F6
100
AcDbEntity
  8
1
  6
CONTINUOUS
 62
             7
100
AcDbLine
 10
135.0
 20
29.0
 11
135.0
 21
27.0
  0
LINE
  5
2F5
100
AcDbEntity
  8
1
  6
CONTINUOUS
 62
             7
100
AcDbLine
 10
150.0
 20
29.0
 11
135.0
 21
29.0
  0
LINE
  5
2F4
100
AcDbEntity
  8
1
  6
CONTINUOUS
 62
             7
100
AcDbLine
 10
150.0
 20
27.0
 11
150.0
 21
29.0
  0
LINE
  5
2F3
100
AcDbEntity
  8
1
  6
CONTINUOUS
 62
             7
100
AcDbLine
 10
135.0
 20
27.0
 11
150.0
 21
27.0
  0
LINE
  5
2F2
100
AcDbEntity
  8
1
  6
CONTINUOUS
 62
             7
100
AcDbLine
 10
135.0
 20
32.5
 11
135.0
 21
30.5
  0
LINE
  5
2F1
100
AcDbEntity
  8
1
  6
CONTINUOUS
 62
             7
100
AcDbLine
 10
150.0
 20
32.5
 11
135.0
 21
32.5
  0
LINE
  5
2F0
100
AcDbEntity
  8
1
  6
CONTINUOUS
 62
             7
100
AcDbLine
 10
150.0
 20
30.5
 11
150.0
 21
32.5
  0
LINE
  5
2EF
100
AcDbEntity
  8
1
  6
CONTINUOUS
 62
             7
100
AcDbLine
 10
135.0
 20
30.5
 11
150.0
 21
30.5
  0
LINE
  5
2EE
100
AcDbEntity
  8
1
  6
CONTINUOUS
 62
             7
100
AcDbLine
 10
115.0
 20
29.0
 11
115.0
 21
27.0
  0
LINE
  5
2ED
100
AcDbEntity
  8
1
  6
CONTINUOUS
 62
             7
100
AcDbLine
 10
130.0
 20
29.0
 11
115.0
 21
29.0
  0
LINE
  5
2EC
100
AcDbEntity
  8
1
  6
CONTINUOUS
 62
             7
100
AcDbLine
 10
130.0
 20
27.0
 11
130.0
 21
29.0
  0
LINE
  5
2EB
100
AcDbEntity
  8
1
  6
CONTINUOUS
 62
             7
100
AcDbLine
 10
115.0
 20
27.0
 11
130.0
 21
27.0
  0
LINE
  5
2EA
100
AcDbEntity
  8
1
  6
CONTINUOUS
 62
             7
100
AcDbLine
 10
115.0
 20
32.5
 11
115.0
 21
30.5
  0
LINE
  5
2E9
100
AcDbEntity
  8
1
  6
CONTINUOUS
 62
             7
100
AcDbLine
 10
130.0
 20
32.5
 11
115.0
 21
32.5
  0
LINE
  5
2E8
100
AcDbEntity
  8
1
  6
CONTINUOUS
 62
             7
100
AcDbLine
 10
130.0
 20
30.5
 11
130.0
 21
32.5
  0
LINE
  5
2E7
100
AcDbEntity
  8
1
  6
CONTINUOUS
 62
             7
100
AcDbLine
 10
115.0
 20
30.5
 11
130.0
 21
30.5
  0
LINE
  5
2E6
100
AcDbEntity
  8
1
  6
CONTINUOUS
 62
             7
100
AcDbLine
 10
93.0
 20
29.0
 11
93.0
 21
27.0
  0
LINE
  5
2E5
100
AcDbEntity
  8
1
  6
CONTINUOUS
 62
             7
100
AcDbLine
 10
108.0
 20
29.0
 11
93.0
 21
29.0
  0
LINE
  5
2E4
100
AcDbEntity
  8
1
  6
CONTINUOUS
 62
             7
100
AcDbLine
 10
108.0
 20
27.0
 11
108.0
 21
29.0
  0
LINE
  5
2E3
100
AcDbEntity
  8
1
  6
CONTINUOUS
 62
             7
100
AcDbLine
 10
93.0
 20
27.0
 11
108.0
 21
27.0
  0
LINE
  5
2E2
100
AcDbEntity
  8
1
  6
CONTINUOUS
 62
             7
100
AcDbLine
 10
93.0
 20
32.5
 11
93.0
 21
30.5
  0
LINE
  5
2E1
100
AcDbEntity
  8
1
  6
CONTINUOUS
 62
             7
100
AcDbLine
 10
108.0
 20
32.5
 11
93.0
 21
32.5
  0
LINE
  5
2E0
100
AcDbEntity
  8
1
  6
CONTINUOUS
 62
             7
100
AcDbLine
 10
108.0
 20
30.5
 11
108.0
 21
32.5
  0
LINE
  5
2DF
100
AcDbEntity
  8
1
  6
CONTINUOUS
 62
             7
100
AcDbLine
 10
93.0
 20
30.5
 11
108.0
 21
30.5
  0
LINE
  5
2DE
100
AcDbEntity
  8
1
  6
CONTINUOUS
 62
             7
100
AcDbLine
 10
-17.5
 20
-3.5
 11
-13.5
 21
-3.5
  0
LINE
  5
2DD
100
AcDbEntity
  8
1
  6
CONTINUOUS
 62
             7
100
AcDbLine
 10
-17.5
 20
-2.0
 11
-13.5
 21
-2.0
  0
LINE
  5
2DC
100
AcDbEntity
  8
1
  6
CONTINUOUS
 62
             7
100
AcDbLine
 10
-17.5
 20
1.5
 11
-13.5
 21
1.5
  0
LINE
  5
2DB
100
AcDbEntity
  8
1
  6
CONTINUOUS
 62
             7
100
AcDbLine
 10
-17.5
 20
3.0
 11
-13.5
 21
3.0
  0
LINE
  5
2DA
100
AcDbEntity
  8
1
  6
CONTINUOUS
 62
             7
100
AcDbLine
 10
-13.5
 20
-4.0
 11
-13.5
 21
8.5
  0
LINE
  5
2D9
100
AcDbEntity
  8
1
  6
CONTINUOUS
 62
             7
100
AcDbLine
 10
-17.5
 20
8.5
 11
-17.5
 21
-4.0
  0
LINE
  5
2D8
100
AcDbEntity
  8
1
  6
CONTINUOUS
 62
             7
100
AcDbLine
 10
-17.0
 20
-4.5
 11
-14.0
 21
-4.5
  0
LINE
  5
2D7
100
AcDbEntity
  8
1
  6
CONTINUOUS
 62
             7
100
AcDbLine
 10
-17.5
 20
6.5
 11
-13.5
 21
6.5
  0
LINE
  5
2D6
100
AcDbEntity
  8
1
  6
CONTINUOUS
 62
             7
100
AcDbLine
 10
-14.0
 20
9.0
 11
-17.0
 21
9.0
  0
LINE
  5
2D5
100
AcDbEntity
  8
1
  6
CONTINUOUS
 62
             7
100
AcDbLine
 10
-17.5
 20
8.0
 11
-13.5
 21
8.0
  0
LINE
  5
2D4
100
AcDbEntity
  8
1
  6
CONTINUOUS
 62
             7
100
AcDbLine
 10
42.0
 20
-3.75
 11
42.0
 21
29.25
  0
LINE
  5
2D3
100
AcDbEntity
  8
1
  6
CONTINUOUS
 62
             7
100
AcDbLine
 10
38.0
 20
29.25
 11
38.0
 21
-3.75
  0
LINE
  5
2D2
100
AcDbEntity
  8
1
  6
CONTINUOUS
 62
             7
100
AcDbLine
 10
38.00000000000001
 20
-17.75
 11
38.00000000000001
 21
-19.25
  0
LINE
  5
2D1
100
AcDbEntity
  8
1
  6
CONTINUOUS
 62
             7
100
AcDbLine
 10
42.00000000000001
 20
-17.75
 11
42.00000000000001
 21
-19.25
  0
LINE
  5
2D0
100
AcDbEntity
  8
1
  6
CONTINUOUS
 62
             7
100
AcDbLine
 10
42.00000000000001
 20
-11.75
 11
42.00000000000001
 21
-13.25
  0
LINE
  5
2CF
100
AcDbEntity
  8
1
  6
CONTINUOUS
 62
             7
100
AcDbLine
 10
38.00000000000001
 20
-11.75
 11
38.00000000000001
 21
-13.25
  0
LINE
  5
2CE
100
AcDbEntity
  8
1
  6
CONTINUOUS
 62
             7
100
AcDbLine
 10
15.00000000000001
 20
-17.75
 11
15.00000000000001
 21
-19.25
  0
LINE
  5
2CD
100
AcDbEntity
  8
1
  6
CONTINUOUS
 62
             7
100
AcDbLine
 10
19.0
 20
-17.75
 11
19.0
 21
-19.25
  0
LINE
  5
2CC
100
AcDbEntity
  8
1
  6
CONTINUOUS
 62
             7
100
AcDbLine
 10
19.0
 20
-11.75
 11
19.0
 21
-13.25
  0
LINE
  5
2CB
100
AcDbEntity
  8
1
  6
CONTINUOUS
 62
             7
100
AcDbLine
 10
14.99999999999999
 20
-11.75
 11
15.00000000000001
 21
-13.25
  0
LINE
  5
2CA
100
AcDbEntity
  8
1
  6
CONTINUOUS
 62
             7
100
AcDbLine
 10
-33.00000000000023
 20
-19.25
 11
43.00000000000001
 21
-19.25
  0
LINE
  5
2C9
100
AcDbEntity
  8
1
  6
CONTINUOUS
 62
             7
100
AcDbLine
 10
-33.00000000000022
 20
-17.74999999999998
 11
43.00000000000003
 21
-17.75
  0
LINE
  5
2C8
100
AcDbEntity
  8
1
  6
CONTINUOUS
 62
             7
100
AcDbLine
 10
-33.00000000000023
 20
-13.24999999999999
 11
43.00000000000001
 21
-13.25
  0
LINE
  5
2C7
100
AcDbEntity
  8
1
  6
CONTINUOUS
 62
             7
100
AcDbLine
 10
-33.00000000000023
 20
-11.75000000000001
 11
43.00000000000001
 21
-11.75
  0
LINE
  5
2C6
100
AcDbEntity
  8
1
  6
CONTINUOUS
 62
             7
100
AcDbLine
 10
-2.0
 20
-29.5
 11
-5.0
 21
-33.07526077778263
  0
LINE
  5
2C5
100
AcDbEntity
  8
1
  6
CONTINUOUS
 62
             7
100
AcDbLine
 10
-8.0
 20
-29.5
 11
-2.0
 21
-29.5
  0
LINE
  5
2C4
100
AcDbEntity
  8
1
  6
CONTINUOUS
 62
             7
100
AcDbLine
 10
-5.0
 20
-33.07526077778263
 11
-8.0
 21
-29.5
  0
LINE
  5
2C3
100
AcDbEntity
  8
1
  6
CONTINUOUS
 62
             7
100
AcDbLine
 10
-28.0
 20
-32.5
 11
-25.0
 21
-28.92473922221737
  0
LINE
  5
2C2
100
AcDbEntity
  8
1
  6
CONTINUOUS
 62
             7
100
AcDbLine
 10
-22.0
 20
-32.5
 11
-28.0
 21
-32.5
  0
LINE
  5
2C1
100
AcDbEntity
  8
1
  6
CONTINUOUS
 62
             7
100
AcDbLine
 10
-25.0
 20
-28.92473922221737
 11
-22.0
 21
-32.5
  0
LINE
  5
2C0
100
AcDbEntity
  8
1
  6
CONTINUOUS
 62
             7
100
AcDbLine
 10
38.0
 20
6.5
 11
42.0
 21
6.5
  0
LINE
  5
2BF
100
AcDbEntity
  8
1
  6
CONTINUOUS
 62
             7
100
AcDbLine
 10
38.0
 20
12.0
 11
42.0
 21
12.0
  0
LINE
  5
2BE
100
AcDbEntity
  8
1
  6
CONTINUOUS
 62
             7
100
AcDbLine
 10
38.0
 20
13.5
 11
42.0
 21
13.5
  0
LINE
  5
2BD
100
AcDbEntity
  8
1
  6
CONTINUOUS
 62
             7
100
AcDbLine
 10
38.0
 20
19.0
 11
42.0
 21
19.0
  0
LINE
  5
2BC
100
AcDbEntity
  8
1
  6
CONTINUOUS
 62
             7
100
AcDbLine
 10
38.0
 20
20.5
 11
42.0
 21
20.5
  0
LINE
  5
2BB
100
AcDbEntity
  8
1
  6
CONTINUOUS
 62
             7
100
AcDbLine
 10
38.0
 20
26.0
 11
42.0
 21
26.0
  0
LINE
  5
2BA
100
AcDbEntity
  8
1
  6
CONTINUOUS
 62
             7
100
AcDbLine
 10
-31.99999999999999
 20
-19.25
 11
-31.99999999999999
 21
-17.75
  0
LINE
  5
2B9
100
AcDbEntity
  8
1
  6
CONTINUOUS
 62
             7
100
AcDbLine
 10
-27.99999999999999
 20
-17.75
 11
-27.99999999999999
 21
-19.25
  0
LINE
  5
2B8
100
AcDbEntity
  8
1
  6
CONTINUOUS
 62
             7
100
AcDbLine
 10
-8.99999999999999
 20
-17.75
 11
-8.99999999999999
 21
-19.25
  0
LINE
  5
2B7
100
AcDbEntity
  8
1
  6
CONTINUOUS
 62
             7
100
AcDbLine
 10
-4.99999999999999
 20
-17.75
 11
-4.99999999999999
 21
-19.25
  0
LINE
  5
2B6
100
AcDbEntity
  8
1
  6
CONTINUOUS
 62
             7
100
AcDbLine
 10
-5.0
 20
-11.75
 11
-4.99999999999999
 21
-13.25
  0
LINE
  5
2B5
100
AcDbEntity
  8
1
  6
CONTINUOUS
 62
             7
100
AcDbLine
 10
-8.99999999999999
 20
-11.75
 11
-8.99999999999999
 21
-13.25
  0
LINE
  5
2B4
100
AcDbEntity
  8
1
  6
CONTINUOUS
 62
             7
100
AcDbLine
 10
-27.99999999999999
 20
-11.75
 11
-27.99999999999999
 21
-13.25
  0
LINE
  5
2B3
100
AcDbEntity
  8
1
  6
CONTINUOUS
 62
             7
100
AcDbLine
 10
-31.99999999999999
 20
-11.75
 11
-31.99999999999999
 21
-13.25
  0
LINE
  5
2B2
100
AcDbEntity
  8
1
  6
CONTINUOUS
 62
             7
100
AcDbLine
 10
-40.99999999999999
 20
35.5
 11
-41.0
 21
-53.5
  0
LINE
  5
2B1
100
AcDbEntity
  8
1
  6
CONTINUOUS
 62
             7
100
AcDbLine
 10
51.0
 20
35.5
 11
-40.99999999999999
 21
35.5
  0
LINE
  5
2B0
100
AcDbEntity
  8
1
  6
CONTINUOUS
 62
             7
100
AcDbLine
 10
51.00000000000001
 20
-53.5
 11
51.0
 21
35.5
  0
LINE
  5
2AF
100
AcDbEntity
  8
1
  6
CONTINUOUS
 62
             7
100
AcDbLine
 10
-41.0
 20
-53.5
 11
51.00000000000001
 21
-53.5
  0
LINE
  5
2AE
100
AcDbEntity
  8
1
  6
CONTINUOUS
 62
             7
100
AcDbLine
 10
-17.0
 20
13.0
 11
33.0
 21
13.0
  0
LINE
  5
2AD
100
AcDbEntity
  8
1
  6
CONTINUOUS
 62
             7
100
AcDbLine
 10
33.5
 20
13.5
 11
33.5
 21
29.5
  0
LINE
  5
2AC
100
AcDbEntity
  8
1
  6
CONTINUOUS
 62
             7
100
AcDbLine
 10
33.0
 20
30.0
 11
-17.0
 21
30.0
  0
LINE
  5
2AB
100
AcDbEntity
  8
1
  6
CONTINUOUS
 62
             7
100
AcDbLine
 10
-17.5
 20
29.5
 11
-17.5
 21
13.5
  0
LINE
  5
2AA
100
AcDbEntity
  8
1
  6
CONTINUOUS
 62
             7
100
AcDbLine
 10
-7.0
 20
-4.5
 11
33.0
 21
-4.5
  0
LINE
  5
2A9
100
AcDbEntity
  8
1
  6
CONTINUOUS
 62
             7
100
AcDbLine
 10
33.5
 20
-4.0
 11
33.5
 21
7.0
  0
LINE
  5
2A8
100
AcDbEntity
  8
1
  6
CONTINUOUS
 62
             7
100
AcDbLine
 10
33.0
 20
7.5
 11
-7.0
 21
7.5
  0
LINE
  5
2A7
100
AcDbEntity
  8
1
  6
CONTINUOUS
 62
             7
100
AcDbLine
 10
-7.5
 20
7.0
 11
-7.5
 21
-4.0
  0
LINE
  5
2A6
100
AcDbEntity
  8
1
  6
CONTINUOUS
 62
             7
100
AcDbLine
 10
43.5
 20
-12.75
 11
43.5
 21
-12.25
  0
LINE
  5
2A5
100
AcDbEntity
  8
1
  6
CONTINUOUS
 62
             7
100
AcDbLine
 10
-33.49999999999977
 20
-12.25
 11
-33.49999999999977
 21
-12.75
  0
LINE
  5
2A4
100
AcDbEntity
  8
1
  6
CONTINUOUS
 62
             7
100
AcDbLine
 10
43.5
 20
-18.75
 11
43.5
 21
-18.25
  0
LINE
  5
2A3
100
AcDbEntity
  8
1
  6
CONTINUOUS
 62
             7
100
AcDbLine
 10
-33.49999999999977
 20
-18.25
 11
-33.49999999999977
 21
-18.75
  0
LINE
  5
2A2
100
AcDbEntity
  8
1
  6
CONTINUOUS
 62
             7
100
AcDbLine
 10
38.5
 20
-4.25
 11
41.5
 21
-4.25
  0
LINE
  5
2A1
100
AcDbEntity
  8
1
  6
CONTINUOUS
 62
             7
100
AcDbLine
 10
41.5
 20
29.75
 11
38.50000000000001
 21
29.75
  0
LINE
  5
2A0
100
AcDbEntity
  8
1
  6
CONTINUOUS
 62
             7
100
AcDbLine
 10
-41.0
 20
-24.5
 11
51.00000000000001
 21
-24.5
  0
LINE
  5
29F
100
AcDbEntity
  8
0
  6
CONTINUOUS
 62
             7
100
AcDbLine
 10
9.44317294015471
 20
15.79000000000001
 11
9.8055670185885
 21
15.35811555509164
  0
LINE
  5
29E
100
AcDbEntity
  8
0
  6
CONTINUOUS
 62
             7
100
AcDbLine
 10
10.32657111350407
 20
20.8
 11
9.44317294015471
 21
15.79000000000001
  0
LINE
  5
29D
100
AcDbEntity
  8
0
  6
CONTINUOUS
 62
             7
100
AcDbLine
 10
10.61791242380289
 20
14.39
 11
15.57471791052279
 21
14.39
  0
LINE
  5
29C
100
AcDbEntity
  8
0
  6
CONTINUOUS
 62
             7
100
AcDbLine
 10
15.57471791052279
 20
14.39
 11
16.1408298702471
 21
14.86502433660971
  0
LINE
  5
29B
100
AcDbEntity
  8
0
  6
CONTINUOUS
 62
             7
100
AcDbLine
 10
17.24317294015468
 20
15.79000000000001
 11
18.12657111350408
 21
20.8
  0
LINE
  5
29A
100
AcDbEntity
  8
0
  6
CONTINUOUS
 62
             7
100
AcDbLine
 10
19.25682705984529
 20
27.20999999999998
 11
18.37342888649589
 21
22.2
  0
LINE
  5
299
100
AcDbEntity
  8
0
  6
CONTINUOUS
 62
             7
100
AcDbLine
 10
10.57342888649589
 20
22.2
 11
11.4568270598453
 21
27.20999999999998
  0
LINE
  5
298
100
AcDbEntity
  8
0
  6
CONTINUOUS
 62
             7
100
AcDbLine
 10
11.4568270598453
 20
27.20999999999998
 11
12.02293901956961
 21
27.6850243366097
  0
LINE
  5
297
100
AcDbEntity
  8
0
  6
CONTINUOUS
 62
             7
100
AcDbLine
 10
13.12528208947721
 20
28.61
 11
18.08208757619708
 21
28.61
  0
LINE
  5
296
100
AcDbEntity
  8
0
  6
CONTINUOUS
 62
             7
100
AcDbLine
 10
18.08208757619708
 20
28.61
 11
18.44448165463089
 21
28.17811555509164
  0
LINE
  5
295
100
AcDbEntity
  8
0
  6
CONTINUOUS
 62
             7
100
AcDbLine
 10
10.95932220941529
 20
16.32623111018329
 11
9.8055670185885
 21
15.35811555509164
  0
LINE
  5
294
100
AcDbEntity
  8
0
  6
CONTINUOUS
 62
             7
100
AcDbLine
 10
10.95932220941529
 20
16.32623111018329
 11
11.66882981122711
 21
20.35004867321942
  0
LINE
  5
293
100
AcDbEntity
  8
0
  6
CONTINUOUS
 62
             7
100
AcDbLine
 10
11.40927353619578
 20
15.79000000000001
 11
10.25551834536901
 21
14.82188444490836
  0
LINE
  5
292
100
AcDbEntity
  8
0
  6
CONTINUOUS
 62
             7
100
AcDbLine
 10
10.25551834536901
 20
14.82188444490836
 11
10.61791242380289
 21
14.39
  0
LINE
  5
291
100
AcDbEntity
  8
0
  6
CONTINUOUS
 62
             7
100
AcDbLine
 10
15.3646831322483
 20
15.79000000000001
 11
16.1408298702471
 21
14.86502433660971
  0
LINE
  5
290
100
AcDbEntity
  8
0
  6
CONTINUOUS
 62
             7
100
AcDbLine
 10
15.3646831322483
 20
15.79000000000001
 11
11.40927353619578
 21
15.79000000000001
  0
LINE
  5
28F
100
AcDbEntity
  8
0
  6
CONTINUOUS
 62
             7
100
AcDbLine
 10
16.67706098043041
 20
15.31497566339029
 11
15.90091424243161
 21
16.23995132678058
  0
LINE
  5
28E
100
AcDbEntity
  8
0
  6
CONTINUOUS
 62
             7
100
AcDbLine
 10
16.67706098043041
 20
15.31497566339029
 11
17.24317294015468
 21
15.79000000000001
  0
LINE
  5
28D
100
AcDbEntity
  8
0
  6
CONTINUOUS
 62
             7
100
AcDbLine
 10
15.90091424243161
 20
16.23995132678058
 11
16.61042184424349
 21
20.26376888981672
  0
LINE
  5
28C
100
AcDbEntity
  8
0
  6
CONTINUOUS
 62
             7
100
AcDbLine
 10
10.89268307322838
 20
21.27502433660973
 11
11.66882981122711
 21
20.35004867321942
  0
LINE
  5
28B
100
AcDbEntity
  8
0
  6
CONTINUOUS
 62
             7
100
AcDbLine
 10
10.89268307322838
 20
21.27502433660973
 11
10.32657111350407
 21
20.8
  0
LINE
  5
28A
100
AcDbEntity
  8
0
  6
CONTINUOUS
 62
             7
100
AcDbLine
 10
10.93582296492971
 20
21.76811555509164
 11
12.0895781557565
 21
22.73623111018328
  0
LINE
  5
289
100
AcDbEntity
  8
0
  6
CONTINUOUS
 62
             7
100
AcDbLine
 10
10.93582296492971
 20
21.76811555509164
 11
10.57342888649589
 21
22.2
  0
LINE
  5
288
100
AcDbEntity
  8
0
  6
CONTINUOUS
 62
             7
100
AcDbLine
 10
12.53952948253709
 20
22.2
 11
11.65388984680189
 21
21.45686010829863
  0
LINE
  5
287
100
AcDbEntity
  8
0
  6
CONTINUOUS
 62
             7
100
AcDbLine
 10
11.65388984680189
 20
21.45686010829863
 11
12.20506092141039
 21
20.8
  0
LINE
  5
286
100
AcDbEntity
  8
0
  6
CONTINUOUS
 62
             7
100
AcDbLine
 10
12.20506092141039
 20
20.8
 11
16.16047051746288
 21
20.8
  0
LINE
  5
285
100
AcDbEntity
  8
0
  6
CONTINUOUS
 62
             7
100
AcDbLine
 10
17.03117018877289
 20
22.64995132678058
 11
17.80731692677159
 21
21.72497566339027
  0
LINE
  5
284
100
AcDbEntity
  8
0
  6
CONTINUOUS
 62
             7
100
AcDbLine
 10
17.03117018877289
 20
22.64995132678058
 11
17.74067779058468
 21
26.6737688898167
  0
LINE
  5
283
100
AcDbEntity
  8
0
  6
CONTINUOUS
 62
             7
100
AcDbLine
 10
17.80731692677159
 20
21.72497566339027
 11
18.37342888649589
 21
22.2
  0
LINE
  5
282
100
AcDbEntity
  8
0
  6
CONTINUOUS
 62
             7
100
AcDbLine
 10
17.76417703507019
 20
21.23188444490836
 11
16.61042184424349
 21
20.26376888981672
  0
LINE
  5
281
100
AcDbEntity
  8
0
  6
CONTINUOUS
 62
             7
100
AcDbLine
 10
17.76417703507019
 20
21.23188444490836
 11
18.12657111350408
 21
20.8
  0
LINE
  5
280
100
AcDbEntity
  8
0
  6
CONTINUOUS
 62
             7
100
AcDbLine
 10
16.49493907858961
 20
22.2
 11
17.04611015319799
 21
21.54313989170137
  0
LINE
  5
27F
100
AcDbEntity
  8
0
  6
CONTINUOUS
 62
             7
100
AcDbLine
 10
16.49493907858961
 20
22.2
 11
12.53952948253709
 21
22.2
  0
LINE
  5
27E
100
AcDbEntity
  8
0
  6
CONTINUOUS
 62
             7
100
AcDbLine
 10
17.04611015319799
 20
21.54313989170137
 11
16.16047051746288
 21
20.8
  0
LINE
  5
27D
100
AcDbEntity
  8
0
  6
CONTINUOUS
 62
             7
100
AcDbLine
 10
12.02293901956961
 20
27.6850243366097
 11
12.79908575756839
 21
26.76004867321942
  0
LINE
  5
27C
100
AcDbEntity
  8
0
  6
CONTINUOUS
 62
             7
100
AcDbLine
 10
12.79908575756839
 20
26.76004867321942
 11
12.0895781557565
 21
22.73623111018328
  0
LINE
  5
27B
100
AcDbEntity
  8
0
  6
CONTINUOUS
 62
             7
100
AcDbLine
 10
13.3353168677517
 20
27.20999999999999
 11
12.55917012975291
 21
28.13497566339029
  0
LINE
  5
27A
100
AcDbEntity
  8
0
  6
CONTINUOUS
 62
             7
100
AcDbLine
 10
13.3353168677517
 20
27.20999999999999
 11
17.29072646380409
 21
27.20999999999998
  0
LINE
  5
279
100
AcDbEntity
  8
0
  6
CONTINUOUS
 62
             7
100
AcDbLine
 10
12.55917012975291
 20
28.13497566339029
 11
13.12528208947721
 21
28.61
  0
LINE
  5
278
100
AcDbEntity
  8
0
  6
CONTINUOUS
 62
             7
100
AcDbLine
 10
17.29072646380409
 20
27.20999999999998
 11
18.44448165463089
 21
28.17811555509164
  0
LINE
  5
277
100
AcDbEntity
  8
0
  6
CONTINUOUS
 62
             7
100
AcDbLine
 10
18.89443298141148
 20
27.64188444490836
 11
17.74067779058468
 21
26.6737688898167
  0
LINE
  5
276
100
AcDbEntity
  8
0
  6
CONTINUOUS
 62
             7
100
AcDbLine
 10
18.89443298141148
 20
27.64188444490836
 11
19.25682705984529
 21
27.20999999999998
  0
LINE
  5
275
100
AcDbEntity
  8
0
  6
CONTINUOUS
 62
             7
100
AcDbLine
 10
31.5944329814115
 20
27.64188444490836
 11
31.9568270598453
 21
27.20999999999998
  0
LINE
  5
274
100
AcDbEntity
  8
0
  6
CONTINUOUS
 62
             7
100
AcDbLine
 10
31.5944329814115
 20
27.64188444490836
 11
30.44067779058469
 21
26.6737688898167
  0
LINE
  5
273
100
AcDbEntity
  8
0
  6
CONTINUOUS
 62
             7
100
AcDbLine
 10
29.99072646380418
 20
27.20999999999998
 11
31.14448165463099
 21
28.17811555509164
  0
LINE
  5
272
100
AcDbEntity
  8
0
  6
CONTINUOUS
 62
             7
100
AcDbLine
 10
25.25917012975289
 20
28.13497566339029
 11
25.82528208947718
 21
28.61
  0
LINE
  5
271
100
AcDbEntity
  8
0
  6
CONTINUOUS
 62
             7
100
AcDbLine
 10
26.03531686775169
 20
27.20999999999998
 11
29.99072646380418
 21
27.20999999999998
  0
LINE
  5
270
100
AcDbEntity
  8
0
  6
CONTINUOUS
 62
             7
100
AcDbLine
 10
26.03531686775169
 20
27.20999999999998
 11
25.25917012975289
 21
28.13497566339029
  0
LINE
  5
26F
100
AcDbEntity
  8
0
  6
CONTINUOUS
 62
             7
100
AcDbLine
 10
25.49908575756838
 20
26.76004867321942
 11
24.78957815575649
 21
22.73623111018328
  0
LINE
  5
26E
100
AcDbEntity
  8
0
  6
CONTINUOUS
 62
             7
100
AcDbLine
 10
24.72293901956968
 20
27.6850243366097
 11
25.49908575756838
 21
26.76004867321942
  0
LINE
  5
26D
100
AcDbEntity
  8
0
  6
CONTINUOUS
 62
             7
100
AcDbLine
 10
29.746110153198
 20
21.54313989170137
 11
28.86047051746289
 21
20.8
  0
LINE
  5
26C
100
AcDbEntity
  8
0
  6
CONTINUOUS
 62
             7
100
AcDbLine
 10
29.19493907858958
 20
22.2
 11
25.23952948253708
 21
22.2
  0
LINE
  5
26B
100
AcDbEntity
  8
0
  6
CONTINUOUS
 62
             7
100
AcDbLine
 10
29.19493907858958
 20
22.2
 11
29.746110153198
 21
21.54313989170137
  0
LINE
  5
26A
100
AcDbEntity
  8
0
  6
CONTINUOUS
 62
             7
100
AcDbLine
 10
30.46417703507029
 20
21.23188444490836
 11
30.82657111350409
 21
20.8
  0
LINE
  5
269
100
AcDbEntity
  8
0
  6
CONTINUOUS
 62
             7
100
AcDbLine
 10
30.46417703507029
 20
21.23188444490836
 11
29.31042184424351
 21
20.26376888981672
  0
LINE
  5
268
100
AcDbEntity
  8
0
  6
CONTINUOUS
 62
             7
100
AcDbLine
 10
30.50731692677158
 20
21.72497566339027
 11
31.07342888649589
 21
22.2
  0
LINE
  5
267
100
AcDbEntity
  8
0
  6
CONTINUOUS
 62
             7
100
AcDbLine
 10
29.73117018877289
 20
22.64995132678058
 11
30.44067779058469
 21
26.6737688898167
  0
LINE
  5
266
100
AcDbEntity
  8
0
  6
CONTINUOUS
 62
             7
100
AcDbLine
 10
29.73117018877289
 20
22.64995132678058
 11
30.50731692677158
 21
21.72497566339027
  0
LINE
  5
265
100
AcDbEntity
  8
0
  6
CONTINUOUS
 62
             7
100
AcDbLine
 10
24.90506092141038
 20
20.8
 11
28.86047051746289
 21
20.8
  0
LINE
  5
264
100
AcDbEntity
  8
0
  6
CONTINUOUS
 62
             7
100
AcDbLine
 10
24.35388984680199
 20
21.45686010829863
 11
24.90506092141038
 21
20.8
  0
LINE
  5
263
100
AcDbEntity
  8
0
  6
CONTINUOUS
 62
             7
100
AcDbLine
 10
25.23952948253708
 20
22.2
 11
24.35388984680199
 21
21.45686010829863
  0
LINE
  5
262
100
AcDbEntity
  8
0
  6
CONTINUOUS
 62
             7
100
AcDbLine
 10
23.63582296492969
 20
21.76811555509164
 11
23.27342888649589
 21
22.2
  0
LINE
  5
261
100
AcDbEntity
  8
0
  6
CONTINUOUS
 62
             7
100
AcDbLine
 10
23.63582296492969
 20
21.76811555509164
 11
24.78957815575649
 21
22.73623111018328
  0
LINE
  5
260
100
AcDbEntity
  8
0
  6
CONTINUOUS
 62
             7
100
AcDbLine
 10
23.59268307322839
 20
21.27502433660973
 11
23.02657111350409
 21
20.8
  0
LINE
  5
25F
100
AcDbEntity
  8
0
  6
CONTINUOUS
 62
             7
100
AcDbLine
 10
23.59268307322839
 20
21.27502433660973
 11
24.36882981122709
 21
20.35004867321942
  0
LINE
  5
25E
100
AcDbEntity
  8
0
  6
CONTINUOUS
 62
             7
100
AcDbLine
 10
28.6009142424316
 20
16.23995132678058
 11
29.31042184424351
 21
20.26376888981672
  0
LINE
  5
25D
100
AcDbEntity
  8
0
  6
CONTINUOUS
 62
             7
100
AcDbLine
 10
29.3770609804304
 20
15.31497566339029
 11
29.94317294015468
 21
15.79000000000001
  0
LINE
  5
25C
100
AcDbEntity
  8
0
  6
CONTINUOUS
 62
             7
100
AcDbLine
 10
29.3770609804304
 20
15.31497566339029
 11
28.6009142424316
 21
16.23995132678058
  0
LINE
  5
25B
100
AcDbEntity
  8
0
  6
CONTINUOUS
 62
             7
100
AcDbLine
 10
28.06468313224829
 20
15.79000000000001
 11
24.10927353619579
 21
15.79000000000001
  0
LINE
  5
25A
100
AcDbEntity
  8
0
  6
CONTINUOUS
 62
             7
100
AcDbLine
 10
28.06468313224829
 20
15.79000000000001
 11
28.84082987024709
 21
14.86502433660971
  0
LINE
  5
259
100
AcDbEntity
  8
0
  6
CONTINUOUS
 62
             7
100
AcDbLine
 10
22.95551834536909
 20
14.82188444490836
 11
23.31791242380288
 21
14.39
  0
LINE
  5
258
100
AcDbEntity
  8
0
  6
CONTINUOUS
 62
             7
100
AcDbLine
 10
24.10927353619579
 20
15.79000000000001
 11
22.95551834536909
 21
14.82188444490836
  0
LINE
  5
257
100
AcDbEntity
  8
0
  6
CONTINUOUS
 62
             7
100
AcDbLine
 10
23.65932220941528
 20
16.32623111018329
 11
24.36882981122709
 21
20.35004867321942
  0
LINE
  5
256
100
AcDbEntity
  8
0
  6
CONTINUOUS
 62
             7
100
AcDbLine
 10
23.65932220941528
 20
16.32623111018329
 11
22.50556701858848
 21
15.35811555509164
  0
LINE
  5
255
100
AcDbEntity
  8
0
  6
CONTINUOUS
 62
             7
100
AcDbLine
 10
30.78208757619709
 20
28.61
 11
31.14448165463099
 21
28.17811555509164
  0
LINE
  5
254
100
AcDbEntity
  8
0
  6
CONTINUOUS
 62
             7
100
AcDbLine
 10
25.82528208947718
 20
28.61
 11
30.78208757619709
 21
28.61
  0
LINE
  5
253
100
AcDbEntity
  8
0
  6
CONTINUOUS
 62
             7
100
AcDbLine
 10
24.15682705984528
 20
27.20999999999998
 11
24.72293901956968
 21
27.6850243366097
  0
LINE
  5
252
100
AcDbEntity
  8
0
  6
CONTINUOUS
 62
             7
100
AcDbLine
 10
23.27342888649589
 20
22.2
 11
24.15682705984528
 21
27.20999999999998
  0
LINE
  5
251
100
AcDbEntity
  8
0
  6
CONTINUOUS
 62
             7
100
AcDbLine
 10
31.9568270598453
 20
27.20999999999998
 11
31.07342888649589
 21
22.2
  0
LINE
  5
250
100
AcDbEntity
  8
0
  6
CONTINUOUS
 62
             7
100
AcDbLine
 10
29.94317294015468
 20
15.79000000000001
 11
30.82657111350409
 21
20.8
  0
LINE
  5
24F
100
AcDbEntity
  8
0
  6
CONTINUOUS
 62
             7
100
AcDbLine
 10
28.27471791052278
 20
14.39
 11
28.84082987024709
 21
14.86502433660971
  0
LINE
  5
24E
100
AcDbEntity
  8
0
  6
CONTINUOUS
 62
             7
100
AcDbLine
 10
23.31791242380288
 20
14.39
 11
28.27471791052278
 21
14.39
  0
LINE
  5
24D
100
AcDbEntity
  8
0
  6
CONTINUOUS
 62
             7
100
AcDbLine
 10
23.02657111350409
 20
20.8
 11
22.14317294015468
 21
15.79000000000001
  0
LINE
  5
24C
100
AcDbEntity
  8
0
  6
CONTINUOUS
 62
             7
100
AcDbLine
 10
22.14317294015468
 20
15.79000000000001
 11
22.50556701858848
 21
15.35811555509164
  0
LINE
  5
24B
100
AcDbEntity
  8
0
  6
CONTINUOUS
 62
             7
100
AcDbLine
 10
-15.95682705984541
 20
15.79000000000001
 11
-15.5944329814115
 21
15.35811555509164
  0
LINE
  5
24A
100
AcDbEntity
  8
0
  6
CONTINUOUS
 62
             7
100
AcDbLine
 10
-15.07342888649589
 20
20.8
 11
-15.95682705984541
 21
15.79000000000001
  0
LINE
  5
249
100
AcDbEntity
  8
0
  6
CONTINUOUS
 62
             7
100
AcDbLine
 10
-14.78208757619713
 20
14.39
 11
-9.82528208947721
 21
14.39
  0
LINE
  5
248
100
AcDbEntity
  8
0
  6
CONTINUOUS
 62
             7
100
AcDbLine
 10
-9.82528208947721
 20
14.39
 11
-9.2591701297529
 21
14.86502433660971
  0
LINE
  5
247
100
AcDbEntity
  8
0
  6
CONTINUOUS
 62
             7
100
AcDbLine
 10
-8.15682705984531
 20
15.79000000000001
 11
-7.27342888649591
 21
20.8
  0
LINE
  5
246
100
AcDbEntity
  8
0
  6
CONTINUOUS
 62
             7
100
AcDbLine
 10
-6.1431729401547
 20
27.20999999999998
 11
-7.0265711135041
 21
22.2
  0
LINE
  5
245
100
AcDbEntity
  8
0
  6
CONTINUOUS
 62
             7
100
AcDbLine
 10
-14.82657111350409
 20
22.2
 11
-13.94317294015468
 21
27.20999999999998
  0
LINE
  5
244
100
AcDbEntity
  8
0
  6
CONTINUOUS
 62
             7
100
AcDbLine
 10
-13.94317294015468
 20
27.20999999999998
 11
-13.37706098043037
 21
27.6850243366097
  0
LINE
  5
243
100
AcDbEntity
  8
0
  6
CONTINUOUS
 62
             7
100
AcDbLine
 10
-12.27471791052278
 20
28.61
 11
-7.31791242380291
 21
28.61
  0
LINE
  5
242
100
AcDbEntity
  8
0
  6
CONTINUOUS
 62
             7
100
AcDbLine
 10
-7.31791242380291
 20
28.61
 11
-6.95551834536909
 21
28.17811555509164
  0
LINE
  5
241
100
AcDbEntity
  8
0
  6
CONTINUOUS
 62
             7
100
AcDbLine
 10
-14.44067779058469
 20
16.32623111018329
 11
-15.5944329814115
 21
15.35811555509164
  0
LINE
  5
240
100
AcDbEntity
  8
0
  6
CONTINUOUS
 62
             7
100
AcDbLine
 10
-14.44067779058469
 20
16.32623111018329
 11
-13.73117018877292
 21
20.35004867321942
  0
LINE
  5
23F
100
AcDbEntity
  8
0
  6
CONTINUOUS
 62
             7
100
AcDbLine
 10
-13.99072646380421
 20
15.79000000000001
 11
-15.14448165463104
 21
14.82188444490836
  0
LINE
  5
23E
100
AcDbEntity
  8
0
  6
CONTINUOUS
 62
             7
100
AcDbLine
 10
-15.14448165463104
 20
14.82188444490836
 11
-14.78208757619713
 21
14.39
  0
LINE
  5
23D
100
AcDbEntity
  8
0
  6
CONTINUOUS
 62
             7
100
AcDbLine
 10
-10.03531686775172
 20
15.79000000000001
 11
-9.2591701297529
 21
14.86502433660971
  0
LINE
  5
23C
100
AcDbEntity
  8
0
  6
CONTINUOUS
 62
             7
100
AcDbLine
 10
-10.03531686775172
 20
15.79000000000001
 11
-13.99072646380421
 21
15.79000000000001
  0
LINE
  5
23B
100
AcDbEntity
  8
0
  6
CONTINUOUS
 62
             7
100
AcDbLine
 10
-8.72293901956971
 20
15.31497566339029
 11
-9.49908575756839
 21
16.23995132678058
  0
LINE
  5
23A
100
AcDbEntity
  8
0
  6
CONTINUOUS
 62
             7
100
AcDbLine
 10
-8.72293901956971
 20
15.31497566339029
 11
-8.15682705984531
 21
15.79000000000001
  0
LINE
  5
239
100
AcDbEntity
  8
0
  6
CONTINUOUS
 62
             7
100
AcDbLine
 10
-9.49908575756839
 20
16.23995132678058
 11
-8.78957815575649
 21
20.26376888981672
  0
LINE
  5
238
100
AcDbEntity
  8
0
  6
CONTINUOUS
 62
             7
100
AcDbLine
 10
-14.50731692677158
 20
21.27502433660973
 11
-13.73117018877292
 21
20.35004867321942
  0
LINE
  5
237
100
AcDbEntity
  8
0
  6
CONTINUOUS
 62
             7
100
AcDbLine
 10
-14.50731692677158
 20
21.27502433660973
 11
-15.07342888649589
 21
20.8
  0
LINE
  5
236
100
AcDbEntity
  8
0
  6
CONTINUOUS
 62
             7
100
AcDbLine
 10
-14.46417703507031
 20
21.76811555509164
 11
-13.31042184424348
 21
22.73623111018328
  0
LINE
  5
235
100
AcDbEntity
  8
0
  6
CONTINUOUS
 62
             7
100
AcDbLine
 10
-14.46417703507031
 20
21.76811555509164
 11
-14.82657111350409
 21
22.2
  0
LINE
  5
234
100
AcDbEntity
  8
0
  6
CONTINUOUS
 62
             7
100
AcDbLine
 10
-12.86047051746289
 20
22.2
 11
-13.74611015319812
 21
21.45686010829863
  0
LINE
  5
233
100
AcDbEntity
  8
0
  6
CONTINUOUS
 62
             7
100
AcDbLine
 10
-13.74611015319812
 20
21.45686010829863
 11
-13.1949390785896
 21
20.8
  0
LINE
  5
232
100
AcDbEntity
  8
0
  6
CONTINUOUS
 62
             7
100
AcDbLine
 10
-13.1949390785896
 20
20.8
 11
-9.23952948253711
 21
20.8
  0
LINE
  5
231
100
AcDbEntity
  8
0
  6
CONTINUOUS
 62
             7
100
AcDbLine
 10
-8.3688298112271
 20
22.64995132678058
 11
-7.59268307322839
 21
21.72497566339027
  0
LINE
  5
230
100
AcDbEntity
  8
0
  6
CONTINUOUS
 62
             7
100
AcDbLine
 10
-8.3688298112271
 20
22.64995132678058
 11
-7.65932220941531
 21
26.6737688898167
  0
LINE
  5
22F
100
AcDbEntity
  8
0
  6
CONTINUOUS
 62
             7
100
AcDbLine
 10
-7.59268307322839
 20
21.72497566339027
 11
-7.0265711135041
 21
22.2
  0
LINE
  5
22E
100
AcDbEntity
  8
0
  6
CONTINUOUS
 62
             7
100
AcDbLine
 10
-7.6358229649297
 20
21.23188444490836
 11
-8.78957815575649
 21
20.26376888981672
  0
LINE
  5
22D
100
AcDbEntity
  8
0
  6
CONTINUOUS
 62
             7
100
AcDbLine
 10
-7.6358229649297
 20
21.23188444490836
 11
-7.27342888649591
 21
20.8
  0
LINE
  5
22C
100
AcDbEntity
  8
0
  6
CONTINUOUS
 62
             7
100
AcDbLine
 10
-8.90506092141041
 20
22.2
 11
-8.35388984680199
 21
21.54313989170137
  0
LINE
  5
22B
100
AcDbEntity
  8
0
  6
CONTINUOUS
 62
             7
100
AcDbLine
 10
-8.90506092141041
 20
22.2
 11
-12.86047051746289
 21
22.2
  0
LINE
  5
22A
100
AcDbEntity
  8
0
  6
CONTINUOUS
 62
             7
100
AcDbLine
 10
-8.35388984680199
 20
21.54313989170137
 11
-9.23952948253711
 21
20.8
  0
LINE
  5
229
100
AcDbEntity
  8
0
  6
CONTINUOUS
 62
             7
100
AcDbLine
 10
-13.37706098043037
 20
27.6850243366097
 11
-12.6009142424316
 21
26.76004867321942
  0
LINE
  5
228
100
AcDbEntity
  8
0
  6
CONTINUOUS
 62
             7
100
AcDbLine
 10
-12.6009142424316
 20
26.76004867321942
 11
-13.31042184424348
 21
22.73623111018328
  0
LINE
  5
227
100
AcDbEntity
  8
0
  6
CONTINUOUS
 62
             7
100
AcDbLine
 10
-12.06468313224832
 20
27.20999999999998
 11
-12.84082987024698
 21
28.13497566339029
  0
LINE
  5
226
100
AcDbEntity
  8
0
  6
CONTINUOUS
 62
             7
100
AcDbLine
 10
-12.06468313224832
 20
27.20999999999998
 11
-8.10927353619579
 21
27.20999999999998
  0
LINE
  5
225
100
AcDbEntity
  8
0
  6
CONTINUOUS
 62
             7
100
AcDbLine
 10
-12.84082987024698
 20
28.13497566339029
 11
-12.27471791052278
 21
28.61
  0
LINE
  5
224
100
AcDbEntity
  8
0
  6
CONTINUOUS
 62
             7
100
AcDbLine
 10
-8.10927353619579
 20
27.20999999999998
 11
-6.95551834536909
 21
28.17811555509164
  0
LINE
  5
223
100
AcDbEntity
  8
0
  6
CONTINUOUS
 62
             7
100
AcDbLine
 10
-6.50556701858849
 20
27.64188444490836
 11
-7.65932220941531
 21
26.6737688898167
  0
LINE
  5
222
100
AcDbEntity
  8
0
  6
CONTINUOUS
 62
             7
100
AcDbLine
 10
-6.50556701858849
 20
27.64188444490836
 11
-6.1431729401547
 21
27.20999999999998
  0
LINE
  5
221
100
AcDbEntity
  8
0
  6
CONTINUOUS
 62
             7
100
AcDbLine
 10
6.1944329814115
 20
27.64188444490836
 11
6.55682705984529
 21
27.20999999999998
  0
LINE
  5
220
100
AcDbEntity
  8
0
  6
CONTINUOUS
 62
             7
100
AcDbLine
 10
6.1944329814115
 20
27.64188444490836
 11
5.04067779058471
 21
26.6737688898167
  0
LINE
  5
21F
100
AcDbEntity
  8
0
  6
CONTINUOUS
 62
             7
100
AcDbLine
 10
4.59072646380409
 20
27.20999999999998
 11
5.7444816546309
 21
28.17811555509164
  0
LINE
  5
21E
100
AcDbEntity
  8
0
  6
CONTINUOUS
 62
             7
100
AcDbLine
 10
-0.1408298702471
 20
28.13497566339029
 11
0.42528208947721
 21
28.61
  0
LINE
  5
21D
100
AcDbEntity
  8
0
  6
CONTINUOUS
 62
             7
100
AcDbLine
 10
0.6353168677517
 20
27.20999999999998
 11
4.59072646380409
 21
27.20999999999998
  0
LINE
  5
21C
100
AcDbEntity
  8
0
  6
CONTINUOUS
 62
             7
100
AcDbLine
 10
0.6353168677517
 20
27.20999999999998
 11
-0.1408298702471
 21
28.13497566339029
  0
LINE
  5
21B
100
AcDbEntity
  8
0
  6
CONTINUOUS
 62
             7
100
AcDbLine
 10
0.09908575756839
 20
26.76004867321942
 11
-0.61042184424349
 21
22.73623111018328
  0
LINE
  5
21A
100
AcDbEntity
  8
0
  6
CONTINUOUS
 62
             7
100
AcDbLine
 10
-0.67706098043041
 20
27.6850243366097
 11
0.09908575756839
 21
26.76004867321942
  0
LINE
  5
219
100
AcDbEntity
  8
0
  6
CONTINUOUS
 62
             7
100
AcDbLine
 10
4.34611015319811
 20
21.54313989170137
 11
3.46047051746291
 21
20.8
  0
LINE
  5
218
100
AcDbEntity
  8
0
  6
CONTINUOUS
 62
             7
100
AcDbLine
 10
3.79493907858961
 20
22.2
 11
-0.1604705174629
 21
22.2
  0
LINE
  5
217
100
AcDbEntity
  8
0
  6
CONTINUOUS
 62
             7
100
AcDbLine
 10
3.79493907858961
 20
22.2
 11
4.34611015319811
 21
21.54313989170137
  0
LINE
  5
216
100
AcDbEntity
  8
0
  6
CONTINUOUS
 62
             7
100
AcDbLine
 10
5.06417703507029
 20
21.23188444490836
 11
5.42657111350411
 21
20.8
  0
LINE
  5
215
100
AcDbEntity
  8
0
  6
CONTINUOUS
 62
             7
100
AcDbLine
 10
5.06417703507029
 20
21.23188444490836
 11
3.9104218442435
 21
20.26376888981672
  0
LINE
  5
214
100
AcDbEntity
  8
0
  6
CONTINUOUS
 62
             7
100
AcDbLine
 10
5.1073169267716
 20
21.72497566339027
 11
5.67342888649591
 21
22.2
  0
LINE
  5
213
100
AcDbEntity
  8
0
  6
CONTINUOUS
 62
             7
100
AcDbLine
 10
4.33117018877289
 20
22.64995132678058
 11
5.04067779058471
 21
26.6737688898167
  0
LINE
  5
212
100
AcDbEntity
  8
0
  6
CONTINUOUS
 62
             7
100
AcDbLine
 10
4.33117018877289
 20
22.64995132678058
 11
5.1073169267716
 21
21.72497566339027
  0
LINE
  5
211
100
AcDbEntity
  8
0
  6
CONTINUOUS
 62
             7
100
AcDbLine
 10
-0.4949390785896
 20
20.8
 11
3.46047051746291
 21
20.8
  0
LINE
  5
210
100
AcDbEntity
  8
0
  6
CONTINUOUS
 62
             7
100
AcDbLine
 10
-1.04611015319799
 20
21.45686010829863
 11
-0.4949390785896
 21
20.8
  0
LINE
  5
20F
100
AcDbEntity
  8
0
  6
CONTINUOUS
 62
             7
100
AcDbLine
 10
-0.1604705174629
 20
22.2
 11
-1.04611015319799
 21
21.45686010829863
  0
LINE
  5
20E
100
AcDbEntity
  8
0
  6
CONTINUOUS
 62
             7
100
AcDbLine
 10
-1.76417703507019
 20
21.76811555509164
 11
-2.1265711135041
 21
22.2
  0
LINE
  5
20D
100
AcDbEntity
  8
0
  6
CONTINUOUS
 62
             7
100
AcDbLine
 10
-1.76417703507019
 20
21.76811555509164
 11
-0.61042184424349
 21
22.73623111018328
  0
LINE
  5
20C
100
AcDbEntity
  8
0
  6
CONTINUOUS
 62
             7
100
AcDbLine
 10
-1.80731692677159
 20
21.27502433660973
 11
-2.3734288864959
 21
20.8
  0
LINE
  5
20B
100
AcDbEntity
  8
0
  6
CONTINUOUS
 62
             7
100
AcDbLine
 10
-1.80731692677159
 20
21.27502433660973
 11
-1.0311701887729
 21
20.35004867321942
  0
LINE
  5
20A
100
AcDbEntity
  8
0
  6
CONTINUOUS
 62
             7
100
AcDbLine
 10
3.20091424243159
 20
16.23995132678058
 11
3.9104218442435
 21
20.26376888981672
  0
LINE
  5
209
100
AcDbEntity
  8
0
  6
CONTINUOUS
 62
             7
100
AcDbLine
 10
3.97706098043039
 20
15.31497566339029
 11
4.54317294015459
 21
15.79000000000001
  0
LINE
  5
208
100
AcDbEntity
  8
0
  6
CONTINUOUS
 62
             7
100
AcDbLine
 10
3.97706098043039
 20
15.31497566339029
 11
3.20091424243159
 21
16.23995132678058
  0
LINE
  5
207
100
AcDbEntity
  8
0
  6
CONTINUOUS
 62
             7
100
AcDbLine
 10
2.66468313224831
 20
15.79000000000001
 11
-1.29072646380419
 21
15.79000000000001
  0
LINE
  5
206
100
AcDbEntity
  8
0
  6
CONTINUOUS
 62
             7
100
AcDbLine
 10
2.66468313224831
 20
15.79000000000001
 11
3.44082987024709
 21
14.86502433660971
  0
LINE
  5
205
100
AcDbEntity
  8
0
  6
CONTINUOUS
 62
             7
100
AcDbLine
 10
-2.44448165463089
 20
14.82188444490836
 11
-2.0820875761971
 21
14.39
  0
LINE
  5
204
100
AcDbEntity
  8
0
  6
CONTINUOUS
 62
             7
100
AcDbLine
 10
-1.29072646380419
 20
15.79000000000001
 11
-2.44448165463089
 21
14.82188444490836
  0
LINE
  5
203
100
AcDbEntity
  8
0
  6
CONTINUOUS
 62
             7
100
AcDbLine
 10
-1.74067779058468
 20
16.32623111018329
 11
-1.0311701887729
 21
20.35004867321942
  0
LINE
  5
202
100
AcDbEntity
  8
0
  6
CONTINUOUS
 62
             7
100
AcDbLine
 10
-1.74067779058468
 20
16.32623111018329
 11
-2.89443298141151
 21
15.35811555509164
  0
LINE
  5
201
100
AcDbEntity
  8
0
  6
CONTINUOUS
 62
             7
100
AcDbLine
 10
5.38208757619711
 20
28.61
 11
5.7444816546309
 21
28.17811555509164
  0
LINE
  5
200
100
AcDbEntity
  8
0
  6
CONTINUOUS
 62
             7
100
AcDbLine
 10
0.42528208947721
 20
28.61
 11
5.38208757619711
 21
28.61
  0
LINE
  5
1FF
100
AcDbEntity
  8
0
  6
CONTINUOUS
 62
             7
100
AcDbLine
 10
-1.24317294015469
 20
27.20999999999998
 11
-0.67706098043041
 21
27.6850243366097
  0
LINE
  5
1FE
100
AcDbEntity
  8
0
  6
CONTINUOUS
 62
             7
100
AcDbLine
 10
-2.1265711135041
 20
22.2
 11
-1.24317294015469
 21
27.20999999999998
  0
LINE
  5
1FD
100
AcDbEntity
  8
0
  6
CONTINUOUS
 62
             7
100
AcDbLine
 10
6.55682705984529
 20
27.20999999999998
 11
5.67342888649591
 21
22.2
  0
LINE
  5
1FC
100
AcDbEntity
  8
0
  6
CONTINUOUS
 62
             7
100
AcDbLine
 10
4.54317294015459
 20
15.79000000000001
 11
5.42657111350411
 21
20.8
  0
LINE
  5
1FB
100
AcDbEntity
  8
0
  6
CONTINUOUS
 62
             7
100
AcDbLine
 10
2.8747179105228
 20
14.39
 11
3.44082987024709
 21
14.86502433660971
  0
LINE
  5
1FA
100
AcDbEntity
  8
0
  6
CONTINUOUS
 62
             7
100
AcDbLine
 10
-2.0820875761971
 20
14.39
 11
2.8747179105228
 21
14.39
  0
LINE
  5
1F9
100
AcDbEntity
  8
0
  6
CONTINUOUS
 62
             7
100
AcDbLine
 10
-2.3734288864959
 20
20.8
 11
-3.25682705984531
 21
15.79000000000001
  0
LINE
  5
1F8
100
AcDbEntity
  8
0
  6
CONTINUOUS
 62
             7
100
AcDbLine
 10
-3.25682705984531
 20
15.79000000000001
 11
-2.89443298141151
 21
15.35811555509164
  0
LINE
  5
1F7
100
AcDbEntity
  8
1
  6
CONTINUOUS
 62
             7
100
AcDbLine
 10
27.02454332372889
 20
6.11151147498514
 11
27.5828662065046
 21
6.58
  0
LINE
  5
1F6
100
AcDbEntity
  8
1
  6
CONTINUOUS
 62
             7
100
AcDbLine
 10
27.5828662065046
 20
6.58
 11
31.00216339812269
 21
6.58
  0
LINE
  5
1F5
100
AcDbEntity
  8
1
  6
CONTINUOUS
 62
             7
100
AcDbLine
 10
31.00216339812269
 20
6.58
 11
31.36424451763139
 21
6.14848852501487
  0
LINE
  5
1F4
100
AcDbEntity
  8
1
  6
CONTINUOUS
 62
             7
100
AcDbLine
 10
31.36424451763139
 20
6.14848852501487
 11
30.80592163485579
 21
5.68000000000001
  0
LINE
  5
1F3
100
AcDbEntity
  8
1
  6
CONTINUOUS
 62
             7
100
AcDbLine
 10
30.80592163485579
 20
5.68000000000001
 11
27.38662444323768
 21
5.68000000000001
  0
LINE
  5
1F2
100
AcDbEntity
  8
1
  6
CONTINUOUS
 62
             7
100
AcDbLine
 10
27.38662444323768
 20
5.68000000000001
 11
27.02454332372889
 21
6.11151147498514
  0
LINE
  5
1F1
100
AcDbEntity
  8
1
  6
CONTINUOUS
 62
             7
100
AcDbLine
 10
25.65323200063399
 20
2.14283628290596
 11
26.2364071080176
 21
5.4501866670643
  0
LINE
  5
1F0
100
AcDbEntity
  8
1
  6
CONTINUOUS
 62
             7
100
AcDbLine
 10
26.2364071080176
 20
5.4501866670643
 11
26.79472999079329
 21
5.91867519207918
  0
LINE
  5
1EF
100
AcDbEntity
  8
1
  6
CONTINUOUS
 62
             7
100
AcDbLine
 10
26.79472999079329
 20
5.91867519207918
 11
27.15681111030199
 21
5.48716371709403
  0
LINE
  5
1EE
100
AcDbEntity
  8
1
  6
CONTINUOUS
 62
             7
100
AcDbLine
 10
27.15681111030199
 20
5.48716371709403
 11
26.57363600291839
 21
2.17981333293569
  0
LINE
  5
1ED
100
AcDbEntity
  8
1
  6
CONTINUOUS
 62
             7
100
AcDbLine
 10
26.57363600291839
 20
2.17981333293569
 11
26.01531312014279
 21
1.71132480792083
  0
LINE
  5
1EC
100
AcDbEntity
  8
1
  6
CONTINUOUS
 62
             7
100
AcDbLine
 10
26.01531312014279
 20
1.71132480792083
 11
25.65323200063399
 21
2.14283628290596
  0
LINE
  5
1EB
100
AcDbEntity
  8
1
  6
CONTINUOUS
 62
             7
100
AcDbLine
 10
26.20814940304879
 20
1.48151147498514
 11
26.76647228582439
 21
1.95
  0
LINE
  5
1EA
100
AcDbEntity
  8
1
  6
CONTINUOUS
 62
             7
100
AcDbLine
 10
26.76647228582439
 20
1.95
 11
30.18576947744251
 21
1.95
  0
LINE
  5
1E9
100
AcDbEntity
  8
1
  6
CONTINUOUS
 62
             7
100
AcDbLine
 10
30.18576947744251
 20
1.95
 11
30.54785059695129
 21
1.51848852501486
  0
LINE
  5
1E8
100
AcDbEntity
  8
1
  6
CONTINUOUS
 62
             7
100
AcDbLine
 10
30.54785059695129
 20
1.51848852501486
 11
29.98952771417558
 21
1.05
  0
LINE
  5
1E7
100
AcDbEntity
  8
1
  6
CONTINUOUS
 62
             7
100
AcDbLine
 10
29.98952771417558
 20
1.05
 11
26.57023052255758
 21
1.05
  0
LINE
  5
1E6
100
AcDbEntity
  8
1
  6
CONTINUOUS
 62
             7
100
AcDbLine
 10
26.57023052255758
 20
1.05
 11
26.20814940304879
 21
1.48151147498514
  0
LINE
  5
1E5
100
AcDbEntity
  8
1
  6
CONTINUOUS
 62
             7
100
AcDbLine
 10
30.77766392988698
 20
1.71132480792083
 11
30.4155828103782
 21
2.14283628290596
  0
LINE
  5
1E4
100
AcDbEntity
  8
1
  6
CONTINUOUS
 62
             7
100
AcDbLine
 10
30.4155828103782
 20
2.14283628290596
 11
30.99875791776179
 21
5.4501866670643
  0
LINE
  5
1E3
100
AcDbEntity
  8
1
  6
CONTINUOUS
 62
             7
100
AcDbLine
 10
30.99875791776179
 20
5.4501866670643
 11
31.55708080053739
 21
5.91867519207918
  0
LINE
  5
1E2
100
AcDbEntity
  8
1
  6
CONTINUOUS
 62
             7
100
AcDbLine
 10
31.55708080053739
 20
5.91867519207918
 11
31.91916192004618
 21
5.48716371709403
  0
LINE
  5
1E1
100
AcDbEntity
  8
1
  6
CONTINUOUS
 62
             7
100
AcDbLine
 10
31.91916192004618
 20
5.48716371709403
 11
31.33598681266258
 21
2.17981333293569
  0
LINE
  5
1E0
100
AcDbEntity
  8
1
  6
CONTINUOUS
 62
             7
100
AcDbLine
 10
31.33598681266258
 20
2.17981333293569
 11
30.77766392988698
 21
1.71132480792083
  0
LINE
  5
1DF
100
AcDbEntity
  8
1
  6
CONTINUOUS
 62
             7
100
AcDbLine
 10
29.59918888969798
 20
-2.48716371709404
 11
30.18236399708158
 21
0.82018666706431
  0
LINE
  5
1DE
100
AcDbEntity
  8
1
  6
CONTINUOUS
 62
             7
100
AcDbLine
 10
30.18236399708158
 20
0.82018666706431
 11
30.74068687985718
 21
1.28867519207917
  0
LINE
  5
1DD
100
AcDbEntity
  8
1
  6
CONTINUOUS
 62
             7
100
AcDbLine
 10
30.74068687985718
 20
1.28867519207917
 11
31.10276799936599
 21
0.85716371709404
  0
LINE
  5
1DC
100
AcDbEntity
  8
1
  6
CONTINUOUS
 62
             7
100
AcDbLine
 10
31.10276799936599
 20
0.85716371709404
 11
30.5195928919824
 21
-2.4501866670643
  0
LINE
  5
1DB
100
AcDbEntity
  8
1
  6
CONTINUOUS
 62
             7
100
AcDbLine
 10
30.5195928919824
 20
-2.4501866670643
 11
29.96127000920669
 21
-2.91867519207918
  0
LINE
  5
1DA
100
AcDbEntity
  8
1
  6
CONTINUOUS
 62
             7
100
AcDbLine
 10
29.96127000920669
 20
-2.91867519207918
 11
29.59918888969798
 21
-2.48716371709404
  0
LINE
  5
1D9
100
AcDbEntity
  8
1
  6
CONTINUOUS
 62
             7
100
AcDbLine
 10
25.95007836514418
 20
-2.68000000000001
 11
29.36937555676229
 21
-2.68000000000001
  0
LINE
  5
1D8
100
AcDbEntity
  8
1
  6
CONTINUOUS
 62
             7
100
AcDbLine
 10
29.36937555676229
 20
-2.68000000000001
 11
29.73145667627108
 21
-3.11151147498514
  0
LINE
  5
1D7
100
AcDbEntity
  8
1
  6
CONTINUOUS
 62
             7
100
AcDbLine
 10
29.73145667627108
 20
-3.11151147498514
 11
29.1731337934954
 21
-3.58
  0
LINE
  5
1D6
100
AcDbEntity
  8
1
  6
CONTINUOUS
 62
             7
100
AcDbLine
 10
29.1731337934954
 20
-3.58
 11
25.94964769527719
 21
-3.58
  0
LINE
  5
1D5
100
AcDbEntity
  8
1
  6
CONTINUOUS
 62
             7
100
AcDbLine
 10
25.94964769527719
 20
-3.58
 11
25.50666214883638
 21
-3.05207038356188
  0
LINE
  5
1D4
100
AcDbEntity
  8
1
  6
CONTINUOUS
 62
             7
100
AcDbLine
 10
25.50666214883638
 20
-3.05207038356188
 11
25.95007836514418
 21
-2.68000000000001
  0
LINE
  5
1D3
100
AcDbEntity
  8
1
  6
CONTINUOUS
 62
             7
100
AcDbLine
 10
25.42001318733739
 20
0.82018666706431
 11
25.97833607011309
 21
1.28867519207917
  0
LINE
  5
1D2
100
AcDbEntity
  8
1
  6
CONTINUOUS
 62
             7
100
AcDbLine
 10
25.97833607011309
 20
1.28867519207917
 11
26.34041718962189
 21
0.85716371709404
  0
LINE
  5
1D1
100
AcDbEntity
  8
1
  6
CONTINUOUS
 62
             7
100
AcDbLine
 10
26.34041718962189
 20
0.85716371709404
 11
25.75724208223819
 21
-2.4501866670643
  0
LINE
  5
1D0
100
AcDbEntity
  8
1
  6
CONTINUOUS
 62
             7
100
AcDbLine
 10
25.75724208223819
 20
-2.4501866670643
 11
25.19891919946258
 21
-2.91867519207918
  0
LINE
  5
1CF
100
AcDbEntity
  8
1
  6
CONTINUOUS
 62
             7
100
AcDbLine
 10
25.19891919946258
 20
-2.91867519207918
 11
24.83683807995378
 21
-2.48716371709404
  0
LINE
  5
1CE
100
AcDbEntity
  8
1
  6
CONTINUOUS
 62
             7
100
AcDbLine
 10
24.83683807995378
 20
-2.48716371709404
 11
25.42001318733739
 21
0.82018666706431
  0
LINE
  5
1CD
100
AcDbEntity
  8
1
  6
CONTINUOUS
 62
             7
100
AcDbLine
 10
16.83554332372901
 20
6.11151147498514
 11
17.39386620650458
 21
6.58
  0
LINE
  5
1CC
100
AcDbEntity
  8
1
  6
CONTINUOUS
 62
             7
100
AcDbLine
 10
17.39386620650458
 20
6.58
 11
20.81316339812258
 21
6.58
  0
LINE
  5
1CB
100
AcDbEntity
  8
1
  6
CONTINUOUS
 62
             7
100
AcDbLine
 10
20.81316339812258
 20
6.58
 11
21.17524451763138
 21
6.14848852501487
  0
LINE
  5
1CA
100
AcDbEntity
  8
1
  6
CONTINUOUS
 62
             7
100
AcDbLine
 10
21.17524451763138
 20
6.14848852501487
 11
20.61692163485579
 21
5.68000000000001
  0
LINE
  5
1C9
100
AcDbEntity
  8
1
  6
CONTINUOUS
 62
             7
100
AcDbLine
 10
20.61692163485579
 20
5.68000000000001
 11
17.19762444323769
 21
5.68000000000001
  0
LINE
  5
1C8
100
AcDbEntity
  8
1
  6
CONTINUOUS
 62
             7
100
AcDbLine
 10
17.19762444323769
 20
5.68000000000001
 11
16.83554332372901
 21
6.11151147498514
  0
LINE
  5
1C7
100
AcDbEntity
  8
1
  6
CONTINUOUS
 62
             7
100
AcDbLine
 10
15.46423200063401
 20
2.14283628290596
 11
16.04740710801761
 21
5.4501866670643
  0
LINE
  5
1C6
100
AcDbEntity
  8
1
  6
CONTINUOUS
 62
             7
100
AcDbLine
 10
16.04740710801761
 20
5.4501866670643
 11
16.60572999079329
 21
5.91867519207918
  0
LINE
  5
1C5
100
AcDbEntity
  8
1
  6
CONTINUOUS
 62
             7
100
AcDbLine
 10
16.60572999079329
 20
5.91867519207918
 11
16.96781111030211
 21
5.48716371709403
  0
LINE
  5
1C4
100
AcDbEntity
  8
1
  6
CONTINUOUS
 62
             7
100
AcDbLine
 10
16.96781111030211
 20
5.48716371709403
 11
16.3846360029184
 21
2.17981333293569
  0
LINE
  5
1C3
100
AcDbEntity
  8
1
  6
CONTINUOUS
 62
             7
100
AcDbLine
 10
16.3846360029184
 20
2.17981333293569
 11
15.8263131201428
 21
1.71132480792083
  0
LINE
  5
1C2
100
AcDbEntity
  8
1
  6
CONTINUOUS
 62
             7
100
AcDbLine
 10
15.8263131201428
 20
1.71132480792083
 11
15.46423200063401
 21
2.14283628290596
  0
LINE
  5
1C1
100
AcDbEntity
  8
1
  6
CONTINUOUS
 62
             7
100
AcDbLine
 10
16.01914940304867
 20
1.48151147498514
 11
16.5774722858244
 21
1.95
  0
LINE
  5
1C0
100
AcDbEntity
  8
1
  6
CONTINUOUS
 62
             7
100
AcDbLine
 10
16.5774722858244
 20
1.95
 11
19.99676947744248
 21
1.95
  0
LINE
  5
1BF
100
AcDbEntity
  8
1
  6
CONTINUOUS
 62
             7
100
AcDbLine
 10
19.99676947744248
 20
1.95
 11
20.35885059695119
 21
1.51848852501486
  0
LINE
  5
1BE
100
AcDbEntity
  8
1
  6
CONTINUOUS
 62
             7
100
AcDbLine
 10
20.35885059695119
 20
1.51848852501486
 11
19.80052771417559
 21
1.05
  0
LINE
  5
1BD
100
AcDbEntity
  8
1
  6
CONTINUOUS
 62
             7
100
AcDbLine
 10
19.80052771417559
 20
1.05
 11
16.3812305225575
 21
1.05
  0
LINE
  5
1BC
100
AcDbEntity
  8
1
  6
CONTINUOUS
 62
             7
100
AcDbLine
 10
16.3812305225575
 20
1.05
 11
16.01914940304867
 21
1.48151147498514
  0
LINE
  5
1BB
100
AcDbEntity
  8
1
  6
CONTINUOUS
 62
             7
100
AcDbLine
 10
20.58866392988689
 20
1.71132480792083
 11
20.22658281037809
 21
2.14283628290596
  0
LINE
  5
1BA
100
AcDbEntity
  8
1
  6
CONTINUOUS
 62
             7
100
AcDbLine
 10
20.22658281037809
 20
2.14283628290596
 11
20.80975791776179
 21
5.4501866670643
  0
LINE
  5
1B9
100
AcDbEntity
  8
1
  6
CONTINUOUS
 62
             7
100
AcDbLine
 10
20.80975791776179
 20
5.4501866670643
 11
21.36808080053738
 21
5.91867519207918
  0
LINE
  5
1B8
100
AcDbEntity
  8
1
  6
CONTINUOUS
 62
             7
100
AcDbLine
 10
21.36808080053738
 20
5.91867519207918
 11
21.73016192004619
 21
5.48716371709403
  0
LINE
  5
1B7
100
AcDbEntity
  8
1
  6
CONTINUOUS
 62
             7
100
AcDbLine
 10
21.73016192004619
 20
5.48716371709403
 11
21.14698681266259
 21
2.17981333293569
  0
LINE
  5
1B6
100
AcDbEntity
  8
1
  6
CONTINUOUS
 62
             7
100
AcDbLine
 10
21.14698681266259
 20
2.17981333293569
 11
20.58866392988689
 21
1.71132480792083
  0
LINE
  5
1B5
100
AcDbEntity
  8
1
  6
CONTINUOUS
 62
             7
100
AcDbLine
 10
19.41018888969799
 20
-2.48716371709404
 11
19.99336399708159
 21
0.82018666706431
  0
LINE
  5
1B4
100
AcDbEntity
  8
1
  6
CONTINUOUS
 62
             7
100
AcDbLine
 10
19.99336399708159
 20
0.82018666706431
 11
20.55168687985719
 21
1.28867519207917
  0
LINE
  5
1B3
100
AcDbEntity
  8
1
  6
CONTINUOUS
 62
             7
100
AcDbLine
 10
20.55168687985719
 20
1.28867519207917
 11
20.91376799936599
 21
0.85716371709404
  0
LINE
  5
1B2
100
AcDbEntity
  8
1
  6
CONTINUOUS
 62
             7
100
AcDbLine
 10
20.91376799936599
 20
0.85716371709404
 11
20.33059289198239
 21
-2.4501866670643
  0
LINE
  5
1B1
100
AcDbEntity
  8
1
  6
CONTINUOUS
 62
             7
100
AcDbLine
 10
20.33059289198239
 20
-2.4501866670643
 11
19.77227000920668
 21
-2.91867519207918
  0
LINE
  5
1B0
100
AcDbEntity
  8
1
  6
CONTINUOUS
 62
             7
100
AcDbLine
 10
19.77227000920668
 20
-2.91867519207918
 11
19.41018888969799
 21
-2.48716371709404
  0
LINE
  5
1AF
100
AcDbEntity
  8
1
  6
CONTINUOUS
 62
             7
100
AcDbLine
 10
15.76107836514417
 20
-2.68000000000001
 11
19.18037555676229
 21
-2.68000000000001
  0
LINE
  5
1AE
100
AcDbEntity
  8
1
  6
CONTINUOUS
 62
             7
100
AcDbLine
 10
19.18037555676229
 20
-2.68000000000001
 11
19.54245667627109
 21
-3.11151147498514
  0
LINE
  5
1AD
100
AcDbEntity
  8
1
  6
CONTINUOUS
 62
             7
100
AcDbLine
 10
19.54245667627109
 20
-3.11151147498514
 11
18.98413379349539
 21
-3.58
  0
LINE
  5
1AC
100
AcDbEntity
  8
1
  6
CONTINUOUS
 62
             7
100
AcDbLine
 10
18.98413379349539
 20
-3.58
 11
15.76064769527721
 21
-3.58
  0
LINE
  5
1AB
100
AcDbEntity
  8
1
  6
CONTINUOUS
 62
             7
100
AcDbLine
 10
15.76064769527721
 20
-3.58
 11
15.3176621488364
 21
-3.05207038356188
  0
LINE
  5
1AA
100
AcDbEntity
  8
1
  6
CONTINUOUS
 62
             7
100
AcDbLine
 10
15.3176621488364
 20
-3.05207038356188
 11
15.76107836514417
 21
-2.68000000000001
  0
LINE
  5
1A9
100
AcDbEntity
  8
1
  6
CONTINUOUS
 62
             7
100
AcDbLine
 10
15.23101318733738
 20
0.82018666706431
 11
15.78933607011311
 21
1.28867519207917
  0
LINE
  5
1A8
100
AcDbEntity
  8
1
  6
CONTINUOUS
 62
             7
100
AcDbLine
 10
15.78933607011311
 20
1.28867519207917
 11
16.15141718962181
 21
0.85716371709404
  0
LINE
  5
1A7
100
AcDbEntity
  8
1
  6
CONTINUOUS
 62
             7
100
AcDbLine
 10
16.15141718962181
 20
0.85716371709404
 11
15.56824208223821
 21
-2.4501866670643
  0
LINE
  5
1A6
100
AcDbEntity
  8
1
  6
CONTINUOUS
 62
             7
100
AcDbLine
 10
15.56824208223821
 20
-2.4501866670643
 11
15.00991919946257
 21
-2.91867519207918
  0
LINE
  5
1A5
100
AcDbEntity
  8
1
  6
CONTINUOUS
 62
             7
100
AcDbLine
 10
15.00991919946257
 20
-2.91867519207918
 11
14.6478380799538
 21
-2.48716371709404
  0
LINE
  5
1A4
100
AcDbEntity
  8
1
  6
CONTINUOUS
 62
             7
100
AcDbLine
 10
14.6478380799538
 20
-2.48716371709404
 11
15.23101318733738
 21
0.82018666706431
  0
LINE
  5
1A3
100
AcDbEntity
  8
1
  6
CONTINUOUS
 62
             7
100
AcDbLine
 10
6.64654332372899
 20
6.11151147498514
 11
7.20486620650459
 21
6.58
  0
LINE
  5
1A2
100
AcDbEntity
  8
1
  6
CONTINUOUS
 62
             7
100
AcDbLine
 10
7.20486620650459
 20
6.58
 11
10.62416339812259
 21
6.58
  0
LINE
  5
1A1
100
AcDbEntity
  8
1
  6
CONTINUOUS
 62
             7
100
AcDbLine
 10
10.62416339812259
 20
6.58
 11
10.98624451763141
 21
6.14848852501487
  0
LINE
  5
1A0
100
AcDbEntity
  8
1
  6
CONTINUOUS
 62
             7
100
AcDbLine
 10
10.98624451763141
 20
6.14848852501487
 11
10.42792163485579
 21
5.68000000000001
  0
LINE
  5
19F
100
AcDbEntity
  8
1
  6
CONTINUOUS
 62
             7
100
AcDbLine
 10
10.42792163485579
 20
5.68000000000001
 11
7.00862444323769
 21
5.68000000000001
  0
LINE
  5
19E
100
AcDbEntity
  8
1
  6
CONTINUOUS
 62
             7
100
AcDbLine
 10
7.00862444323769
 20
5.68000000000001
 11
6.64654332372899
 21
6.11151147498514
  0
LINE
  5
19D
100
AcDbEntity
  8
1
  6
CONTINUOUS
 62
             7
100
AcDbLine
 10
5.27523200063399
 20
2.14283628290596
 11
5.85840710801759
 21
5.4501866670643
  0
LINE
  5
19C
100
AcDbEntity
  8
1
  6
CONTINUOUS
 62
             7
100
AcDbLine
 10
5.85840710801759
 20
5.4501866670643
 11
6.4167299907933
 21
5.91867519207918
  0
LINE
  5
19B
100
AcDbEntity
  8
1
  6
CONTINUOUS
 62
             7
100
AcDbLine
 10
6.4167299907933
 20
5.91867519207918
 11
6.77881111030209
 21
5.48716371709403
  0
LINE
  5
19A
100
AcDbEntity
  8
1
  6
CONTINUOUS
 62
             7
100
AcDbLine
 10
6.77881111030209
 20
5.48716371709403
 11
6.19563600291841
 21
2.17981333293569
  0
LINE
  5
199
100
AcDbEntity
  8
1
  6
CONTINUOUS
 62
             7
100
AcDbLine
 10
6.19563600291841
 20
2.17981333293569
 11
5.63731312014281
 21
1.71132480792083
  0
LINE
  5
198
100
AcDbEntity
  8
1
  6
CONTINUOUS
 62
             7
100
AcDbLine
 10
5.63731312014281
 20
1.71132480792083
 11
5.27523200063399
 21
2.14283628290596
  0
LINE
  5
197
100
AcDbEntity
  8
1
  6
CONTINUOUS
 62
             7
100
AcDbLine
 10
5.83014940304881
 20
1.48151147498514
 11
6.38847228582441
 21
1.95
  0
LINE
  5
196
100
AcDbEntity
  8
1
  6
CONTINUOUS
 62
             7
100
AcDbLine
 10
6.38847228582441
 20
1.95
 11
9.80776947744249
 21
1.95
  0
LINE
  5
195
100
AcDbEntity
  8
1
  6
CONTINUOUS
 62
             7
100
AcDbLine
 10
9.80776947744249
 20
1.95
 11
10.16985059695119
 21
1.51848852501486
  0
LINE
  5
194
100
AcDbEntity
  8
1
  6
CONTINUOUS
 62
             7
100
AcDbLine
 10
10.16985059695119
 20
1.51848852501486
 11
9.61152771417559
 21
1.05
  0
LINE
  5
193
100
AcDbEntity
  8
1
  6
CONTINUOUS
 62
             7
100
AcDbLine
 10
9.61152771417559
 20
1.05
 11
6.19223052255751
 21
1.05
  0
LINE
  5
192
100
AcDbEntity
  8
1
  6
CONTINUOUS
 62
             7
100
AcDbLine
 10
6.19223052255751
 20
1.05
 11
5.83014940304881
 21
1.48151147498514
  0
LINE
  5
191
100
AcDbEntity
  8
1
  6
CONTINUOUS
 62
             7
100
AcDbLine
 10
10.39966392988691
 20
1.71132480792083
 11
10.03758281037821
 21
2.14283628290596
  0
LINE
  5
190
100
AcDbEntity
  8
1
  6
CONTINUOUS
 62
             7
100
AcDbLine
 10
10.03758281037821
 20
2.14283628290596
 11
10.62075791776179
 21
5.4501866670643
  0
LINE
  5
18F
100
AcDbEntity
  8
1
  6
CONTINUOUS
 62
             7
100
AcDbLine
 10
10.62075791776179
 20
5.4501866670643
 11
11.17908080053739
 21
5.91867519207918
  0
LINE
  5
18E
100
AcDbEntity
  8
1
  6
CONTINUOUS
 62
             7
100
AcDbLine
 10
11.17908080053739
 20
5.91867519207918
 11
11.54116192004619
 21
5.48716371709403
  0
LINE
  5
18D
100
AcDbEntity
  8
1
  6
CONTINUOUS
 62
             7
100
AcDbLine
 10
11.54116192004619
 20
5.48716371709403
 11
10.95798681266258
 21
2.17981333293569
  0
LINE
  5
18C
100
AcDbEntity
  8
1
  6
CONTINUOUS
 62
             7
100
AcDbLine
 10
10.95798681266258
 20
2.17981333293569
 11
10.39966392988691
 21
1.71132480792083
  0
LINE
  5
18B
100
AcDbEntity
  8
1
  6
CONTINUOUS
 62
             7
100
AcDbLine
 10
9.22118888969791
 20
-2.48716371709404
 11
9.80436399708159
 21
0.82018666706431
  0
LINE
  5
18A
100
AcDbEntity
  8
1
  6
CONTINUOUS
 62
             7
100
AcDbLine
 10
9.80436399708159
 20
0.82018666706431
 11
10.36268687985719
 21
1.28867519207917
  0
LINE
  5
189
100
AcDbEntity
  8
1
  6
CONTINUOUS
 62
             7
100
AcDbLine
 10
10.36268687985719
 20
1.28867519207917
 11
10.72476799936601
 21
0.85716371709404
  0
LINE
  5
188
100
AcDbEntity
  8
1
  6
CONTINUOUS
 62
             7
100
AcDbLine
 10
10.72476799936601
 20
0.85716371709404
 11
10.14159289198241
 21
-2.4501866670643
  0
LINE
  5
187
100
AcDbEntity
  8
1
  6
CONTINUOUS
 62
             7
100
AcDbLine
 10
10.14159289198241
 20
-2.4501866670643
 11
9.5832700092067
 21
-2.91867519207918
  0
LINE
  5
186
100
AcDbEntity
  8
1
  6
CONTINUOUS
 62
             7
100
AcDbLine
 10
9.5832700092067
 20
-2.91867519207918
 11
9.22118888969791
 21
-2.48716371709404
  0
LINE
  5
185
100
AcDbEntity
  8
1
  6
CONTINUOUS
 62
             7
100
AcDbLine
 10
5.57207836514419
 20
-2.68000000000001
 11
8.99137555676231
 21
-2.68000000000001
  0
LINE
  5
184
100
AcDbEntity
  8
1
  6
CONTINUOUS
 62
             7
100
AcDbLine
 10
8.99137555676231
 20
-2.68000000000001
 11
9.35345667627101
 21
-3.11151147498514
  0
LINE
  5
183
100
AcDbEntity
  8
1
  6
CONTINUOUS
 62
             7
100
AcDbLine
 10
9.35345667627101
 20
-3.11151147498514
 11
8.79513379349541
 21
-3.58
  0
LINE
  5
182
100
AcDbEntity
  8
1
  6
CONTINUOUS
 62
             7
100
AcDbLine
 10
8.79513379349541
 20
-3.58
 11
5.57164769527719
 21
-3.58
  0
LINE
  5
181
100
AcDbEntity
  8
1
  6
CONTINUOUS
 62
             7
100
AcDbLine
 10
5.57164769527719
 20
-3.58
 11
5.12866214883641
 21
-3.05207038356188
  0
LINE
  5
180
100
AcDbEntity
  8
1
  6
CONTINUOUS
 62
             7
100
AcDbLine
 10
5.12866214883641
 20
-3.05207038356188
 11
5.57207836514419
 21
-2.68000000000001
  0
LINE
  5
17F
100
AcDbEntity
  8
1
  6
CONTINUOUS
 62
             7
100
AcDbLine
 10
5.0420131873374
 20
0.82018666706431
 11
5.60033607011309
 21
1.28867519207917
  0
LINE
  5
17E
100
AcDbEntity
  8
1
  6
CONTINUOUS
 62
             7
100
AcDbLine
 10
5.60033607011309
 20
1.28867519207917
 11
5.96241718962179
 21
0.85716371709404
  0
LINE
  5
17D
100
AcDbEntity
  8
1
  6
CONTINUOUS
 62
             7
100
AcDbLine
 10
5.96241718962179
 20
0.85716371709404
 11
5.37924208223819
 21
-2.4501866670643
  0
LINE
  5
17C
100
AcDbEntity
  8
1
  6
CONTINUOUS
 62
             7
100
AcDbLine
 10
5.37924208223819
 20
-2.4501866670643
 11
4.82091919946259
 21
-2.91867519207918
  0
LINE
  5
17B
100
AcDbEntity
  8
1
  6
CONTINUOUS
 62
             7
100
AcDbLine
 10
4.82091919946259
 20
-2.91867519207918
 11
4.45883807995381
 21
-2.48716371709404
  0
LINE
  5
17A
100
AcDbEntity
  8
1
  6
CONTINUOUS
 62
             7
100
AcDbLine
 10
4.45883807995381
 20
-2.48716371709404
 11
5.0420131873374
 21
0.82018666706431
  0
LINE
  5
179
100
AcDbEntity
  8
1
  6
CONTINUOUS
 62
             7
100
AcDbLine
 10
-3.54245667627109
 20
6.11151147498514
 11
-2.9841337934954
 21
6.58
  0
LINE
  5
178
100
AcDbEntity
  8
1
  6
CONTINUOUS
 62
             7
100
AcDbLine
 10
-2.9841337934954
 20
6.58
 11
0.43516339812271
 21
6.58
  0
LINE
  5
177
100
AcDbEntity
  8
1
  6
CONTINUOUS
 62
             7
100
AcDbLine
 10
0.43516339812271
 20
6.58
 11
0.79724451763141
 21
6.14848852501487
  0
LINE
  5
176
100
AcDbEntity
  8
1
  6
CONTINUOUS
 62
             7
100
AcDbLine
 10
0.79724451763141
 20
6.14848852501487
 11
0.23892163485581
 21
5.68000000000001
  0
LINE
  5
175
100
AcDbEntity
  8
1
  6
CONTINUOUS
 62
             7
100
AcDbLine
 10
0.23892163485581
 20
5.68000000000001
 11
-3.1803755567623
 21
5.68000000000001
  0
LINE
  5
174
100
AcDbEntity
  8
1
  6
CONTINUOUS
 62
             7
100
AcDbLine
 10
-3.1803755567623
 20
5.68000000000001
 11
-3.54245667627109
 21
6.11151147498514
  0
LINE
  5
173
100
AcDbEntity
  8
1
  6
CONTINUOUS
 62
             7
100
AcDbLine
 10
-4.913767999366
 20
2.14283628290596
 11
-4.3305928919824
 21
5.4501866670643
  0
LINE
  5
172
100
AcDbEntity
  8
1
  6
CONTINUOUS
 62
             7
100
AcDbLine
 10
-4.3305928919824
 20
5.4501866670643
 11
-3.77227000920669
 21
5.91867519207918
  0
LINE
  5
171
100
AcDbEntity
  8
1
  6
CONTINUOUS
 62
             7
100
AcDbLine
 10
-3.77227000920669
 20
5.91867519207918
 11
-3.41018888969799
 21
5.48716371709403
  0
LINE
  5
170
100
AcDbEntity
  8
1
  6
CONTINUOUS
 62
             7
100
AcDbLine
 10
-3.41018888969799
 20
5.48716371709403
 11
-3.99336399708159
 21
2.17981333293569
  0
LINE
  5
16F
100
AcDbEntity
  8
1
  6
CONTINUOUS
 62
             7
100
AcDbLine
 10
-3.99336399708159
 20
2.17981333293569
 11
-4.55168687985719
 21
1.71132480792083
  0
LINE
  5
16E
100
AcDbEntity
  8
1
  6
CONTINUOUS
 62
             7
100
AcDbLine
 10
-4.55168687985719
 20
1.71132480792083
 11
-4.913767999366
 21
2.14283628290596
  0
LINE
  5
16D
100
AcDbEntity
  8
1
  6
CONTINUOUS
 62
             7
100
AcDbLine
 10
-4.35885059695121
 20
1.48151147498514
 11
-3.80052771417559
 21
1.95
  0
LINE
  5
16C
100
AcDbEntity
  8
1
  6
CONTINUOUS
 62
             7
100
AcDbLine
 10
-3.80052771417559
 20
1.95
 11
-0.3812305225575
 21
1.95
  0
LINE
  5
16B
100
AcDbEntity
  8
1
  6
CONTINUOUS
 62
             7
100
AcDbLine
 10
-0.3812305225575
 20
1.95
 11
-0.01914940304869
 21
1.51848852501486
  0
LINE
  5
16A
100
AcDbEntity
  8
1
  6
CONTINUOUS
 62
             7
100
AcDbLine
 10
-0.01914940304869
 20
1.51848852501486
 11
-0.5774722858244
 21
1.05
  0
LINE
  5
169
100
AcDbEntity
  8
1
  6
CONTINUOUS
 62
             7
100
AcDbLine
 10
-0.5774722858244
 20
1.05
 11
-3.99676947744251
 21
1.05
  0
LINE
  5
168
100
AcDbEntity
  8
1
  6
CONTINUOUS
 62
             7
100
AcDbLine
 10
-3.99676947744251
 20
1.05
 11
-4.35885059695121
 21
1.48151147498514
  0
LINE
  5
167
100
AcDbEntity
  8
1
  6
CONTINUOUS
 62
             7
100
AcDbLine
 10
0.21066392988689
 20
1.71132480792083
 11
-0.15141718962181
 21
2.14283628290596
  0
LINE
  5
166
100
AcDbEntity
  8
1
  6
CONTINUOUS
 62
             7
100
AcDbLine
 10
-0.15141718962181
 20
2.14283628290596
 11
0.43175791776179
 21
5.4501866670643
  0
LINE
  5
165
100
AcDbEntity
  8
1
  6
CONTINUOUS
 62
             7
100
AcDbLine
 10
0.43175791776179
 20
5.4501866670643
 11
0.99008080053741
 21
5.91867519207918
  0
LINE
  5
164
100
AcDbEntity
  8
1
  6
CONTINUOUS
 62
             7
100
AcDbLine
 10
0.99008080053741
 20
5.91867519207918
 11
1.3521619200462
 21
5.48716371709403
  0
LINE
  5
163
100
AcDbEntity
  8
1
  6
CONTINUOUS
 62
             7
100
AcDbLine
 10
1.3521619200462
 20
5.48716371709403
 11
0.7689868126626
 21
2.17981333293569
  0
LINE
  5
162
100
AcDbEntity
  8
1
  6
CONTINUOUS
 62
             7
100
AcDbLine
 10
0.7689868126626
 20
2.17981333293569
 11
0.21066392988689
 21
1.71132480792083
  0
LINE
  5
161
100
AcDbEntity
  8
1
  6
CONTINUOUS
 62
             7
100
AcDbLine
 10
-0.96781111030211
 20
-2.48716371709404
 11
-0.3846360029184
 21
0.82018666706431
  0
LINE
  5
160
100
AcDbEntity
  8
1
  6
CONTINUOUS
 62
             7
100
AcDbLine
 10
-0.3846360029184
 20
0.82018666706431
 11
0.1736868798572
 21
1.28867519207917
  0
LINE
  5
15F
100
AcDbEntity
  8
1
  6
CONTINUOUS
 62
             7
100
AcDbLine
 10
0.1736868798572
 20
1.28867519207917
 11
0.53576799936599
 21
0.85716371709404
  0
LINE
  5
15E
100
AcDbEntity
  8
1
  6
CONTINUOUS
 62
             7
100
AcDbLine
 10
0.53576799936599
 20
0.85716371709404
 11
-0.04740710801761
 21
-2.4501866670643
  0
LINE
  5
15D
100
AcDbEntity
  8
1
  6
CONTINUOUS
 62
             7
100
AcDbLine
 10
-0.04740710801761
 20
-2.4501866670643
 11
-0.60572999079329
 21
-2.91867519207918
  0
LINE
  5
15C
100
AcDbEntity
  8
1
  6
CONTINUOUS
 62
             7
100
AcDbLine
 10
-0.60572999079329
 20
-2.91867519207918
 11
-0.96781111030211
 21
-2.48716371709404
  0
LINE
  5
15B
100
AcDbEntity
  8
1
  6
CONTINUOUS
 62
             7
100
AcDbLine
 10
-4.6169216348558
 20
-2.68000000000001
 11
-1.19762444323769
 21
-2.68000000000001
  0
LINE
  5
15A
100
AcDbEntity
  8
1
  6
CONTINUOUS
 62
             7
100
AcDbLine
 10
-1.19762444323769
 20
-2.68000000000001
 11
-0.83554332372901
 21
-3.11151147498514
  0
LINE
  5
159
100
AcDbEntity
  8
1
  6
CONTINUOUS
 62
             7
100
AcDbLine
 10
-0.83554332372901
 20
-3.11151147498514
 11
-1.39386620650461
 21
-3.58
  0
LINE
  5
158
100
AcDbEntity
  8
1
  6
CONTINUOUS
 62
             7
100
AcDbLine
 10
-1.39386620650461
 20
-3.58
 11
-4.6173523047228
 21
-3.58
  0
LINE
  5
157
100
AcDbEntity
  8
1
  6
CONTINUOUS
 62
             7
100
AcDbLine
 10
-4.6173523047228
 20
-3.58
 11
-5.06033785116361
 21
-3.05207038356188
  0
LINE
  5
156
100
AcDbEntity
  8
1
  6
CONTINUOUS
 62
             7
100
AcDbLine
 10
-5.06033785116361
 20
-3.05207038356188
 11
-4.6169216348558
 21
-2.68000000000001
  0
LINE
  5
155
100
AcDbEntity
  8
1
  6
CONTINUOUS
 62
             7
100
AcDbLine
 10
-5.14698681266259
 20
0.82018666706431
 11
-4.58866392988691
 21
1.28867519207917
  0
LINE
  5
154
100
AcDbEntity
  8
1
  6
CONTINUOUS
 62
             7
100
AcDbLine
 10
-4.58866392988691
 20
1.28867519207917
 11
-4.22658281037809
 21
0.85716371709404
  0
LINE
  5
153
100
AcDbEntity
  8
1
  6
CONTINUOUS
 62
             7
100
AcDbLine
 10
-4.22658281037809
 20
0.85716371709404
 11
-4.8097579177618
 21
-2.4501866670643
  0
LINE
  5
152
100
AcDbEntity
  8
1
  6
CONTINUOUS
 62
             7
100
AcDbLine
 10
-4.8097579177618
 20
-2.4501866670643
 11
-5.3680808005374
 21
-2.91867519207918
  0
LINE
  5
151
100
AcDbEntity
  8
1
  6
CONTINUOUS
 62
             7
100
AcDbLine
 10
-5.3680808005374
 20
-2.91867519207918
 11
-5.73016192004621
 21
-2.48716371709404
  0
LINE
  5
150
100
AcDbEntity
  8
1
  6
CONTINUOUS
 62
             7
100
AcDbLine
 10
-5.73016192004621
 20
-2.48716371709404
 11
-5.14698681266259
 21
0.82018666706431
  0
LINE
  5
14F
100
AcDbEntity
  8
1
  6
CONTINUOUS
 62
             7
100
AcDbLine
 10
7.39038820320221
 20
-35.0
 11
22.99999999999999
 21
-35.0
  0
LINE
  5
14E
100
AcDbEntity
  8
1
  6
CONTINUOUS
 62
             7
100
AcDbLine
 10
-13.5
 20
-38.5
 11
-13.5
 21
-45.5
  0
LINE
  5
14D
100
AcDbEntity
  8
1
  6
CONTINUOUS
 62
             7
100
AcDbLine
 10
3.0
 20
-38.0
 11
-12.99999999999999
 21
-38.0
  0
LINE
  5
14C
100
AcDbEntity
  8
1
  6
CONTINUOUS
 62
             7
100
AcDbLine
 10
3.5
 20
-45.5
 11
3.5
 21
-38.5
  0
LINE
  5
14B
100
AcDbEntity
  8
1
  6
CONTINUOUS
 62
             7
100
AcDbLine
 10
-13.0
 20
-46.0
 11
3.0
 21
-46.0
  0
LINE
  5
14A
100
AcDbEntity
  8
1
  6
CONTINUOUS
 62
             7
100
AcDbLine
 10
-33.5
 20
-27.5
 11
-33.5
 21
-34.5
  0
LINE
  5
149
100
AcDbEntity
  8
1
  6
CONTINUOUS
 62
             7
100
AcDbLine
 10
-17.00000000000001
 20
-27.0
 11
-33.0
 21
-27.0
  0
LINE
  5
148
100
AcDbEntity
  8
1
  6
CONTINUOUS
 62
             7
100
AcDbLine
 10
-33.0
 20
-35.0
 11
-17.00000000000001
 21
-35.0
  0
LINE
  5
147
100
AcDbEntity
  8
1
  6
CONTINUOUS
 62
             7
100
AcDbLine
 10
26.5
 20
-38.5
 11
26.5
 21
-45.5
  0
LINE
  5
146
100
AcDbEntity
  8
1
  6
CONTINUOUS
 62
             7
100
AcDbLine
 10
43.0
 20
-38.0
 11
27.0
 21
-38.0
  0
LINE
  5
145
100
AcDbEntity
  8
1
  6
CONTINUOUS
 62
             7
100
AcDbLine
 10
43.5
 20
-45.5
 11
43.5
 21
-42.0529555699501
  0
LINE
  5
144
100
AcDbEntity
  8
1
  6
CONTINUOUS
 62
             7
100
AcDbLine
 10
27.0
 20
-46.0
 11
43.0
 21
-46.0
  0
LINE
  5
143
100
AcDbEntity
  8
1
  6
CONTINUOUS
 62
             7
100
AcDbLine
 10
-13.5
 20
-27.5
 11
-13.5
 21
-34.5
  0
LINE
  5
142
100
AcDbEntity
  8
1
  6
CONTINUOUS
 62
             7
100
AcDbLine
 10
3.0
 20
-27.0
 11
-13.0
 21
-27.0
  0
LINE
  5
141
100
AcDbEntity
  8
1
  6
CONTINUOUS
 62
             7
100
AcDbLine
 10
-13.0
 20
-35.0
 11
3.0
 21
-35.0
  0
LINE
  5
140
100
AcDbEntity
  8
1
  6
CONTINUOUS
 62
             7
100
AcDbLine
 10
22.99999999999999
 20
-27.0
 11
7.39038820320221
 21
-27.0
  0
LINE
  5
13F
100
AcDbEntity
  8
1
  6
CONTINUOUS
 62
             7
100
AcDbLine
 10
23.49999999999999
 20
-34.5
 11
23.49999999999999
 21
-27.5
  0
LINE
  5
13E
100
AcDbEntity
  8
1
  6
CONTINUOUS
 62
             7
100
AcDbLine
 10
-16.50000000000001
 20
-34.5
 11
-16.50000000000001
 21
-27.5
  0
LINE
  5
13D
100
AcDbEntity
  8
1
  6
CONTINUOUS
 62
             7
100
AcDbLine
 10
3.5
 20
-27.5
 11
3.5
 21
-34.5
  0
LINE
  5
13C
100
AcDbEntity
  8
1
  6
CONTINUOUS
 62
             7
100
AcDbLine
 10
6.9053169531295
 20
-27.37873218748183
 11
6.0
 21
-31.0
  0
LINE
  5
13B
100
AcDbEntity
  8
1
  6
CONTINUOUS
 62
             7
100
AcDbLine
 10
6.0
 20
-31.0
 11
6.9053169531295
 21
-34.62126781251817
  0
LINE
  5
13A
100
AcDbEntity
  8
1
  6
CONTINUOUS
 62
             7
100
AcDbLine
 10
43.0435778713738
 20
-41.04532316268097
 11
27.72821106431309
 21
-42.38524413604
  0
LINE
  5
139
100
AcDbEntity
  8
1
  6
CONTINUOUS
 62
             7
100
AcDbLine
 10
43.5
 20
-40.54722581363508
 11
43.5
 21
-38.5
  0
LINE
  5
138
100
AcDbEntity
  8
1
  6
CONTINUOUS
 62
             7
100
AcDbLine
 10
27.77178893568689
 20
-42.88334148508588
 11
42.9564221286262
 21
-41.55485822090424
  0
LINE
  5
137
100
AcDbEntity
  8
1
  6
CONTINUOUS
 62
             7
100
AcDbLine
 10
-30.0
 20
20.0
 11
-24.0
 21
20.0
  0
LINE
  5
136
100
AcDbEntity
  8
1
  6
CONTINUOUS
 62
             7
100
AcDbLine
 10
-23.5
 20
20.5
 11
-23.5
 21
29.5
  0
LINE
  5
135
100
AcDbEntity
  8
1
  6
CONTINUOUS
 62
             7
100
AcDbLine
 10
-24.0
 20
30.0
 11
-30.0
 21
30.0
  0
LINE
  5
134
100
AcDbEntity
  8
1
  6
CONTINUOUS
 62
             7
100
AcDbLine
 10
-30.5
 20
29.5
 11
-30.5
 21
20.5
  0
LINE
  5
133
100
AcDbEntity
  8
0
  6
CONTINUOUS
 62
             7
100
AcDbLine
 10
-25.27127144896752
 20
27.89358222275241
 11
-25.66562095407259
 21
25.65711504387461
  0
LINE
  5
132
100
AcDbEntity
  8
0
  6
CONTINUOUS
 62
             7
100
AcDbLine
 10
-24.61198276849501
 20
28.4467911113762
 11
-25.27127144896752
 21
27.89358222275241
  0
LINE
  5
131
100
AcDbEntity
  8
0
  6
CONTINUOUS
 62
             7
100
AcDbLine
 10
-24.86909781236972
 20
28.75320888862379
 11
-25.0761801429032
 21
29.0
  0
LINE
  5
130
100
AcDbEntity
  8
0
  6
CONTINUOUS
 62
             7
100
AcDbLine
 10
-25.52838649284212
 20
28.2
 11
-24.86909781236972
 21
28.75320888862379
  0
LINE
  5
12F
100
AcDbEntity
  8
0
  6
CONTINUOUS
 62
             7
100
AcDbLine
 10
-27.39318413812943
 20
28.2
 11
-25.52838649284212
 21
28.2
  0
LINE
  5
12E
100
AcDbEntity
  8
0
  6
CONTINUOUS
 62
             7
100
AcDbLine
 10
-27.39318413812943
 20
28.2
 11
-27.83669655984289
 21
28.7285575219373
  0
LINE
  5
12D
100
AcDbEntity
  8
0
  6
CONTINUOUS
 62
             7
100
AcDbLine
 10
-28.14311433709048
 20
28.4714424780627
 11
-28.4666068855044
 21
28.2
  0
LINE
  5
12C
100
AcDbEntity
  8
0
  6
CONTINUOUS
 62
             7
100
AcDbLine
 10
-28.14311433709048
 20
28.4714424780627
 11
-27.69960191537687
 21
27.94288495612538
  0
LINE
  5
12B
100
AcDbEntity
  8
0
  6
CONTINUOUS
 62
             7
100
AcDbLine
 10
-25.23388279462777
 20
24.85759628494367
 11
-25.90604857951801
 21
24.29358222275241
  0
LINE
  5
12A
100
AcDbEntity
  8
0
  6
CONTINUOUS
 62
             7
100
AcDbLine
 10
-25.03038449397557
 20
24.65270364466613
 11
-25.23388279462777
 21
24.85759628494367
  0
LINE
  5
129
100
AcDbEntity
  8
0
  6
CONTINUOUS
 62
             7
100
AcDbLine
 10
-25.22210853235903
 20
25.12855752193731
 11
-24.89861598394509
 21
25.40000000000001
  0
LINE
  5
128
100
AcDbEntity
  8
0
  6
CONTINUOUS
 62
             7
100
AcDbLine
 10
-25.66562095407259
 20
25.65711504387461
 11
-25.22210853235903
 21
25.12855752193731
  0
LINE
  5
127
100
AcDbEntity
  8
0
  6
CONTINUOUS
 62
             7
100
AcDbLine
 10
-25.9720387313202
 20
25.40000000000001
 11
-27.83683637660738
 21
25.40000000000001
  0
LINE
  5
126
100
AcDbEntity
  8
0
  6
CONTINUOUS
 62
             7
100
AcDbLine
 10
-25.6864621863549
 20
25.0
 11
-25.9720387313202
 21
25.40000000000001
  0
LINE
  5
125
100
AcDbEntity
  8
0
  6
CONTINUOUS
 62
             7
100
AcDbLine
 10
-26.16316362339262
 20
24.59999999999999
 11
-28.02796126867982
 21
24.59999999999999
  0
LINE
  5
124
100
AcDbEntity
  8
0
  6
CONTINUOUS
 62
             7
100
AcDbLine
 10
-26.16316362339262
 20
24.59999999999999
 11
-25.6864621863549
 21
25.0
  0
LINE
  5
123
100
AcDbEntity
  8
0
  6
CONTINUOUS
 62
             7
100
AcDbLine
 10
-28.33437904592739
 20
24.34288495612539
 11
-28.72872855103249
 21
22.1064177772476
  0
LINE
  5
122
100
AcDbEntity
  8
0
  6
CONTINUOUS
 62
             7
100
AcDbLine
 10
-28.77789146764098
 20
24.87144247806269
 11
-28.33437904592739
 21
24.34288495612539
  0
LINE
  5
121
100
AcDbEntity
  8
0
  6
CONTINUOUS
 62
             7
100
AcDbLine
 10
-28.31353781364508
 20
25.0
 11
-28.02796126867982
 21
24.59999999999999
  0
LINE
  5
120
100
AcDbEntity
  8
0
  6
CONTINUOUS
 62
             7
100
AcDbLine
 10
-28.31353781364508
 20
25.0
 11
-27.83683637660738
 21
25.40000000000001
  0
LINE
  5
11F
100
AcDbEntity
  8
0
  6
CONTINUOUS
 62
             7
100
AcDbLine
 10
-28.09395142048197
 20
25.70641777724759
 11
-27.69960191537687
 21
27.94288495612538
  0
LINE
  5
11E
100
AcDbEntity
  8
0
  6
CONTINUOUS
 62
             7
100
AcDbLine
 10
-28.7532401009545
 20
25.15320888862379
 11
-28.09395142048197
 21
25.70641777724759
  0
LINE
  5
11D
100
AcDbEntity
  8
0
  6
CONTINUOUS
 62
             7
100
AcDbLine
 10
-28.4716135071579
 20
21.8
 11
-26.60681586187059
 21
21.8
  0
LINE
  5
11C
100
AcDbEntity
  8
0
  6
CONTINUOUS
 62
             7
100
AcDbLine
 10
-29.13090218763028
 20
21.24679111137621
 11
-28.4716135071579
 21
21.8
  0
LINE
  5
11B
100
AcDbEntity
  8
0
  6
CONTINUOUS
 62
             7
100
AcDbLine
 10
-29.38801723150497
 20
21.5532088886238
 11
-29.59509956203863
 21
21.8
  0
LINE
  5
11A
100
AcDbEntity
  8
0
  6
CONTINUOUS
 62
             7
100
AcDbLine
 10
-29.38801723150497
 20
21.5532088886238
 11
-28.72872855103249
 21
22.1064177772476
  0
LINE
  5
119
100
AcDbEntity
  8
0
  6
CONTINUOUS
 62
             7
100
AcDbLine
 10
-26.16330344015709
 20
21.2714424780627
 11
-26.48679598857099
 21
21.0
  0
LINE
  5
118
100
AcDbEntity
  8
0
  6
CONTINUOUS
 62
             7
100
AcDbLine
 10
-26.16330344015709
 20
21.2714424780627
 11
-26.60681586187059
 21
21.8
  0
LINE
  5
117
100
AcDbEntity
  8
0
  6
CONTINUOUS
 62
             7
100
AcDbLine
 10
-26.30039808462311
 20
22.05711504387462
 11
-25.90604857951801
 21
24.29358222275241
  0
LINE
  5
116
100
AcDbEntity
  8
0
  6
CONTINUOUS
 62
             7
100
AcDbLine
 10
-26.30039808462311
 20
22.05711504387462
 11
-25.87182216255121
 21
21.54635814904611
  0
LINE
  5
115
100
AcDbEntity
  8
0
  6
CONTINUOUS
 62
             7
100
AcDbLine
 10
-28.96032243148814
 20
25.40000000000001
 11
-28.7532401009545
 21
25.15320888862379
  0
LINE
  5
114
100
AcDbEntity
  8
0
  6
CONTINUOUS
 62
             7
100
AcDbLine
 10
-28.4666068855044
 20
28.2
 11
-28.96032243148814
 21
25.40000000000001
  0
LINE
  5
113
100
AcDbEntity
  8
0
  6
CONTINUOUS
 62
             7
100
AcDbLine
 10
-27.51320401142902
 20
29.0
 11
-27.83669655984289
 21
28.7285575219373
  0
LINE
  5
112
100
AcDbEntity
  8
0
  6
CONTINUOUS
 62
             7
100
AcDbLine
 10
-25.0761801429032
 20
29.0
 11
-27.51320401142902
 21
29.0
  0
LINE
  5
111
100
AcDbEntity
  8
0
  6
CONTINUOUS
 62
             7
100
AcDbLine
 10
-24.40490043796139
 20
28.2
 11
-24.61198276849501
 21
28.4467911113762
  0
LINE
  5
110
100
AcDbEntity
  8
0
  6
CONTINUOUS
 62
             7
100
AcDbLine
 10
-24.89861598394509
 20
25.40000000000001
 11
-24.40490043796139
 21
28.2
  0
LINE
  5
10F
100
AcDbEntity
  8
0
  6
CONTINUOUS
 62
             7
100
AcDbLine
 10
-25.51072197812853
 20
21.92857440350869
 11
-25.87182216255121
 21
21.54635814904611
  0
LINE
  5
10E
100
AcDbEntity
  8
0
  6
CONTINUOUS
 62
             7
100
AcDbLine
 10
-25.03038449397557
 20
24.65270364466613
 11
-25.51072197812853
 21
21.92857440350869
  0
LINE
  5
10D
100
AcDbEntity
  8
0
  6
CONTINUOUS
 62
             7
100
AcDbLine
 10
-29.10138401605489
 20
24.59999999999999
 11
-28.77789146764098
 21
24.87144247806269
  0
LINE
  5
10C
100
AcDbEntity
  8
0
  6
CONTINUOUS
 62
             7
100
AcDbLine
 10
-29.59509956203863
 20
21.8
 11
-29.10138401605489
 21
24.59999999999999
  0
LINE
  5
10B
100
AcDbEntity
  8
0
  6
CONTINUOUS
 62
             7
100
AcDbLine
 10
-28.92381985709682
 20
21.0
 11
-29.13090218763028
 21
21.24679111137621
  0
LINE
  5
10A
100
AcDbEntity
  8
0
  6
CONTINUOUS
 62
             7
100
AcDbLine
 10
-26.48679598857099
 20
21.0
 11
-28.92381985709682
 21
21.0
  0
LINE
  5
109
100
AcDbEntity
  8
1
  6
CONTINUOUS
 62
             7
100
AcDbLine
 10
38.0
 20
5.0
 11
42.0
 21
5.0
  0
LINE
  5
108
100
AcDbEntity
  8
1
  6
CONTINUOUS
 62
             7
100
AcDbLine
 10
38.0
 20
27.5
 11
42.0
 21
27.5
  0
LINE
  5
107
100
AcDbEntity
  8
1
  6
CONTINUOUS
 62
             7
100
AcDbLine
 10
38.0
 20
-0.5
 11
42.0
 21
-0.5
  0
LINE
  5
106
100
AcDbEntity
  8
1
  6
CONTINUOUS
 62
             7
100
AcDbLine
 10
38.0
 20
-2.0
 11
42.0
 21
-2.0
  0
LINE
  5
105
100
AcDbEntity
  8
1
  6
CONTINUOUS
 62
             7
100
AcDbLine
 10
7.77178893568688
 20
-42.88334148508588
 11
22.95642212862619
 21
-41.55485822090424
  0
LINE
  5
104
100
AcDbEntity
  8
1
  6
CONTINUOUS
 62
             7
100
AcDbLine
 10
23.49999999999999
 20
-40.54722581363508
 11
23.49999999999999
 21
-38.5
  0
LINE
  5
103
100
AcDbEntity
  8
1
  6
CONTINUOUS
 62
             7
100
AcDbLine
 10
23.04357787137379
 20
-41.04532316268097
 11
7.72821106431308
 21
-42.38524413604
  0
LINE
  5
102
100
AcDbEntity
  8
1
  6
CONTINUOUS
 62
             7
100
AcDbLine
 10
6.99999999999999
 20
-46.0
 11
22.99999999999999
 21
-46.0
  0
LINE
  5
101
100
AcDbEntity
  8
1
  6
CONTINUOUS
 62
             7
100
AcDbLine
 10
23.49999999999999
 20
-45.5
 11
23.49999999999999
 21
-42.0529555699501
  0
LINE
  5
100
100
AcDbEntity
  8
1
  6
CONTINUOUS
 62
             7
100
AcDbLine
 10
22.99999999999999
 20
-38.0
 11
6.99999999999999
 21
-38.0
  0
LINE
  5
FF
100
AcDbEntity
  8
1
  6
CONTINUOUS
 62
             7
100
AcDbLine
 10
6.49999999999999
 20
-38.5
 11
6.49999999999999
 21
-45.5
  0
LINE
  5
FE
100
AcDbEntity
  8
1
  6
CONTINUOUS
 62
             7
100
AcDbLine
 10
172.36463480680459
 20
-43.31627384298133
 11
172.36463480680459
 21
-50.3186336281814
  0
LINE
  5
FD
100
AcDbEntity
  8
0
  6
CONTINUOUS
 62
             7
100
AcDbLine
 10
173.76463480680459
 20
-50.21745373558139
 11
173.76463480680459
 21
-47.70605382921428
  0
LINE
  5
FC
100
AcDbEntity
  8
0
  6
CONTINUOUS
 62
             7
100
AcDbLine
 10
172.76463480680459
 20
-48.56745373558135
 11
172.76463480680459
 21
-47.70605382921428
  0
LINE
  5
FB
100
AcDbEntity
  8
0
  6
CONTINUOUS
 62
             7
100
AcDbLine
 10
172.76463480680459
 20
-45.92885364194845
 11
172.76463480680459
 21
-45.06745373558135
  0
LINE
  5
FA
100
AcDbEntity
  8
0
  6
CONTINUOUS
 62
             7
100
AcDbLine
 10
173.76463480680459
 20
-50.21745373558139
 11
173.36463480680459
 21
-50.21745373558139
  0
LINE
  5
F9
100
AcDbEntity
  8
0
  6
CONTINUOUS
 62
             7
100
AcDbLine
 10
173.76463480680459
 20
-43.41745373558138
 11
173.36463480680459
 21
-43.41745373558138
  0
LINE
  5
F8
100
AcDbEntity
  8
0
  6
CONTINUOUS
 62
             7
100
AcDbLine
 10
172.76463480680459
 20
-48.56745373558135
 11
172.36463480680459
 21
-50.21745373558139
  0
LINE
  5
F7
100
AcDbEntity
  8
0
  6
CONTINUOUS
 62
             7
100
AcDbLine
 10
173.76463480680459
 20
-48.56745373558135
 11
173.36463480680459
 21
-50.21745373558139
  0
LINE
  5
F6
100
AcDbEntity
  8
0
  6
CONTINUOUS
 62
             7
100
AcDbLine
 10
173.76463480680459
 20
-43.41745373558138
 11
173.76463480680459
 21
-45.92885364194845
  0
LINE
  5
F5
100
AcDbEntity
  8
0
  6
CONTINUOUS
 62
             7
100
AcDbLine
 10
172.36463480680459
 20
-47.41745373558138
 11
172.6348594951223
 21
-47.5187879937005
  0
LINE
  5
F4
100
AcDbEntity
  8
0
  6
CONTINUOUS
 62
             7
100
AcDbLine
 10
172.36463480680459
 20
-46.21745373558139
 11
172.6348594951223
 21
-46.11611947746223
  0
LINE
  5
F3
100
AcDbEntity
  8
0
  6
CONTINUOUS
 62
             7
100
AcDbLine
 10
173.36463480680459
 20
-47.41745373558138
 11
173.6348594951223
 21
-47.5187879937005
  0
LINE
  5
F2
100
AcDbEntity
  8
0
  6
CONTINUOUS
 62
             7
100
AcDbLine
 10
173.36463480680459
 20
-46.21745373558139
 11
173.36463480680459
 21
-47.41745373558138
  0
LINE
  5
F1
100
AcDbEntity
  8
0
  6
CONTINUOUS
 62
             7
100
AcDbLine
 10
173.36463480680459
 20
-46.21745373558139
 11
173.6348594951223
 21
-46.11611947746223
  0
LINE
  5
F0
100
AcDbEntity
  8
0
  6
CONTINUOUS
 62
             7
100
AcDbLine
 10
172.36463480680459
 20
-43.41745373558138
 11
172.76463480680459
 21
-45.06745373558135
  0
LINE
  5
EF
100
AcDbEntity
  8
0
  6
CONTINUOUS
 62
             7
100
AcDbLine
 10
173.36463480680459
 20
-43.41745373558138
 11
173.76463480680459
 21
-45.06745373558135
  0
LINE
  5
EE
100
AcDbEntity
  8
0
  6
CONTINUOUS
 62
             7
100
AcDbLine
 10
173.36463480680459
 20
-50.21745373558139
 11
172.36463480680459
 21
-50.21745373558139
  0
LINE
  5
ED
100
AcDbEntity
  8
0
  6
CONTINUOUS
 62
             7
100
AcDbLine
 10
173.36463480680459
 20
-43.41745373558138
 11
172.36463480680459
 21
-43.41745373558138
  0
LINE
  5
EC
100
AcDbEntity
  8
0
  6
CONTINUOUS
 62
             7
100
AcDbLine
 10
174.5037549484291
 20
-49.56745373558135
 11
173.76463480680459
 21
-49.56745373558135
  0
LINE
  5
EB
100
AcDbEntity
  8
0
  6
CONTINUOUS
 62
             7
100
AcDbLine
 10
173.76463480680459
 20
-44.06745373558135
 11
174.5037549484291
 21
-44.06745373558135
  0
LINE
  5
EA
100
AcDbEntity
  8
0
  6
CONTINUOUS
 62
             7
100
AcDbLine
 10
173.76463480680459
 20
-45.92885364194845
 11
173.76463480680459
 21
-47.70605382921428
  0
LINE
  5
E9
100
AcDbEntity
  8
1
  6
CONTINUOUS
 62
             7
100
AcDbLine
 10
172.36463480680459
 20
-34.91627384298135
 11
172.36463480680459
 21
-41.91863362818142
  0
LINE
  5
E8
100
AcDbEntity
  8
0
  6
CONTINUOUS
 62
             7
100
AcDbLine
 10
173.76463480680459
 20
-41.81745373558141
 11
173.76463480680459
 21
-39.30605382921431
  0
LINE
  5
E7
100
AcDbEntity
  8
0
  6
CONTINUOUS
 62
             7
100
AcDbLine
 10
172.76463480680459
 20
-40.16745373558138
 11
172.76463480680459
 21
-39.30605382921431
  0
LINE
  5
E6
100
AcDbEntity
  8
0
  6
CONTINUOUS
 62
             7
100
AcDbLine
 10
172.76463480680459
 20
-37.52885364194844
 11
172.76463480680459
 21
-36.66745373558138
  0
LINE
  5
E5
100
AcDbEntity
  8
0
  6
CONTINUOUS
 62
             7
100
AcDbLine
 10
173.76463480680459
 20
-41.81745373558141
 11
173.36463480680459
 21
-41.81745373558141
  0
LINE
  5
E4
100
AcDbEntity
  8
0
  6
CONTINUOUS
 62
             7
100
AcDbLine
 10
173.76463480680459
 20
-35.01745373558137
 11
173.36463480680459
 21
-35.01745373558137
  0
LINE
  5
E3
100
AcDbEntity
  8
0
  6
CONTINUOUS
 62
             7
100
AcDbLine
 10
172.76463480680459
 20
-40.16745373558138
 11
172.36463480680459
 21
-41.81745373558141
  0
LINE
  5
E2
100
AcDbEntity
  8
0
  6
CONTINUOUS
 62
             7
100
AcDbLine
 10
173.76463480680459
 20
-40.16745373558138
 11
173.36463480680459
 21
-41.81745373558141
  0
LINE
  5
E1
100
AcDbEntity
  8
0
  6
CONTINUOUS
 62
             7
100
AcDbLine
 10
173.76463480680459
 20
-35.01745373558137
 11
173.76463480680459
 21
-37.52885364194844
  0
LINE
  5
E0
100
AcDbEntity
  8
0
  6
CONTINUOUS
 62
             7
100
AcDbLine
 10
172.36463480680459
 20
-39.01745373558137
 11
172.6348594951223
 21
-39.11878799370049
  0
LINE
  5
DF
100
AcDbEntity
  8
0
  6
CONTINUOUS
 62
             7
100
AcDbLine
 10
172.36463480680459
 20
-37.81745373558141
 11
172.6348594951223
 21
-37.71611947746226
  0
LINE
  5
DE
100
AcDbEntity
  8
0
  6
CONTINUOUS
 62
             7
100
AcDbLine
 10
173.36463480680459
 20
-39.01745373558137
 11
173.6348594951223
 21
-39.11878799370049
  0
LINE
  5
DD
100
AcDbEntity
  8
0
  6
CONTINUOUS
 62
             7
100
AcDbLine
 10
173.36463480680459
 20
-37.81745373558141
 11
173.36463480680459
 21
-39.01745373558137
  0
LINE
  5
DC
100
AcDbEntity
  8
0
  6
CONTINUOUS
 62
             7
100
AcDbLine
 10
173.36463480680459
 20
-37.81745373558141
 11
173.6348594951223
 21
-37.71611947746226
  0
LINE
  5
DB
100
AcDbEntity
  8
0
  6
CONTINUOUS
 62
             7
100
AcDbLine
 10
172.36463480680459
 20
-35.01745373558137
 11
172.76463480680459
 21
-36.66745373558138
  0
LINE
  5
DA
100
AcDbEntity
  8
0
  6
CONTINUOUS
 62
             7
100
AcDbLine
 10
173.36463480680459
 20
-35.01745373558137
 11
173.76463480680459
 21
-36.66745373558138
  0
LINE
  5
D9
100
AcDbEntity
  8
0
  6
CONTINUOUS
 62
             7
100
AcDbLine
 10
173.36463480680459
 20
-41.81745373558141
 11
172.36463480680459
 21
-41.81745373558141
  0
LINE
  5
D8
100
AcDbEntity
  8
0
  6
CONTINUOUS
 62
             7
100
AcDbLine
 10
173.36463480680459
 20
-35.01745373558137
 11
172.36463480680459
 21
-35.01745373558137
  0
LINE
  5
D7
100
AcDbEntity
  8
0
  6
CONTINUOUS
 62
             7
100
AcDbLine
 10
174.5037549484291
 20
-41.16745373558138
 11
173.76463480680459
 21
-41.16745373558138
  0
LINE
  5
D6
100
AcDbEntity
  8
0
  6
CONTINUOUS
 62
             7
100
AcDbLine
 10
173.76463480680459
 20
-35.66745373558138
 11
174.5037549484291
 21
-35.66745373558138
  0
LINE
  5
D5
100
AcDbEntity
  8
0
  6
CONTINUOUS
 62
             7
100
AcDbLine
 10
173.76463480680459
 20
-37.52885364194844
 11
173.76463480680459
 21
-39.30605382921431
  0
LINE
  5
D4
100
AcDbEntity
  8
1
  6
CONTINUOUS
 62
             7
100
AcDbLine
 10
172.36463480680459
 20
-26.51627384298136
 11
172.36463480680459
 21
-33.51863362818145
  0
LINE
  5
D3
100
AcDbEntity
  8
0
  6
CONTINUOUS
 62
             7
100
AcDbLine
 10
173.76463480680459
 20
-33.41745373558143
 11
173.76463480680459
 21
-30.90605382921433
  0
LINE
  5
D2
100
AcDbEntity
  8
0
  6
CONTINUOUS
 62
             7
100
AcDbLine
 10
172.76463480680459
 20
-31.7674537355814
 11
172.76463480680459
 21
-30.90605382921433
  0
LINE
  5
D1
100
AcDbEntity
  8
0
  6
CONTINUOUS
 62
             7
100
AcDbLine
 10
172.76463480680459
 20
-29.12885364194847
 11
172.76463480680459
 21
-28.26745373558141
  0
LINE
  5
D0
100
AcDbEntity
  8
0
  6
CONTINUOUS
 62
             7
100
AcDbLine
 10
173.76463480680459
 20
-33.41745373558143
 11
173.36463480680459
 21
-33.41745373558143
  0
LINE
  5
CF
100
AcDbEntity
  8
0
  6
CONTINUOUS
 62
             7
100
AcDbLine
 10
173.76463480680459
 20
-26.61745373558141
 11
173.36463480680459
 21
-26.61745373558141
  0
LINE
  5
CE
100
AcDbEntity
  8
0
  6
CONTINUOUS
 62
             7
100
AcDbLine
 10
172.76463480680459
 20
-31.7674537355814
 11
172.36463480680459
 21
-33.41745373558143
  0
LINE
  5
CD
100
AcDbEntity
  8
0
  6
CONTINUOUS
 62
             7
100
AcDbLine
 10
173.76463480680459
 20
-31.7674537355814
 11
173.36463480680459
 21
-33.41745373558143
  0
LINE
  5
CC
100
AcDbEntity
  8
0
  6
CONTINUOUS
 62
             7
100
AcDbLine
 10
173.76463480680459
 20
-26.61745373558141
 11
173.76463480680459
 21
-29.12885364194847
  0
LINE
  5
CB
100
AcDbEntity
  8
0
  6
CONTINUOUS
 62
             7
100
AcDbLine
 10
172.36463480680459
 20
-30.61745373558142
 11
172.6348594951223
 21
-30.71878799370052
  0
LINE
  5
CA
100
AcDbEntity
  8
0
  6
CONTINUOUS
 62
             7
100
AcDbLine
 10
172.36463480680459
 20
-29.41745373558143
 11
172.6348594951223
 21
-29.31611947746228
  0
LINE
  5
C9
100
AcDbEntity
  8
0
  6
CONTINUOUS
 62
             7
100
AcDbLine
 10
173.36463480680459
 20
-30.61745373558142
 11
173.6348594951223
 21
-30.71878799370052
  0
LINE
  5
C8
100
AcDbEntity
  8
0
  6
CONTINUOUS
 62
             7
100
AcDbLine
 10
173.36463480680459
 20
-29.41745373558143
 11
173.36463480680459
 21
-30.61745373558142
  0
LINE
  5
C7
100
AcDbEntity
  8
0
  6
CONTINUOUS
 62
             7
100
AcDbLine
 10
173.36463480680459
 20
-29.41745373558143
 11
173.6348594951223
 21
-29.31611947746228
  0
LINE
  5
C6
100
AcDbEntity
  8
0
  6
CONTINUOUS
 62
             7
100
AcDbLine
 10
172.36463480680459
 20
-26.61745373558141
 11
172.76463480680459
 21
-28.26745373558141
  0
LINE
  5
C5
100
AcDbEntity
  8
0
  6
CONTINUOUS
 62
             7
100
AcDbLine
 10
173.36463480680459
 20
-26.61745373558141
 11
173.76463480680459
 21
-28.26745373558141
  0
LINE
  5
C4
100
AcDbEntity
  8
0
  6
CONTINUOUS
 62
             7
100
AcDbLine
 10
173.36463480680459
 20
-33.41745373558143
 11
172.36463480680459
 21
-33.41745373558143
  0
LINE
  5
C3
100
AcDbEntity
  8
0
  6
CONTINUOUS
 62
             7
100
AcDbLine
 10
173.36463480680459
 20
-26.61745373558141
 11
172.36463480680459
 21
-26.61745373558141
  0
LINE
  5
C2
100
AcDbEntity
  8
0
  6
CONTINUOUS
 62
             7
100
AcDbLine
 10
174.5037549484291
 20
-32.7674537355814
 11
173.76463480680459
 21
-32.7674537355814
  0
LINE
  5
C1
100
AcDbEntity
  8
0
  6
CONTINUOUS
 62
             7
100
AcDbLine
 10
173.76463480680459
 20
-27.26745373558141
 11
174.5037549484291
 21
-27.26745373558141
  0
LINE
  5
C0
100
AcDbEntity
  8
0
  6
CONTINUOUS
 62
             7
100
AcDbLine
 10
173.76463480680459
 20
-29.12885364194847
 11
173.76463480680459
 21
-30.90605382921433
  0
LINE
  5
BF
100
AcDbEntity
  8
1
  6
CONTINUOUS
 62
             7
100
AcDbLine
 10
172.36463480680459
 20
-18.11627384298139
 11
172.36463480680459
 21
-25.11863362818148
  0
LINE
  5
BE
100
AcDbEntity
  8
0
  6
CONTINUOUS
 62
             7
100
AcDbLine
 10
173.76463480680459
 20
-25.01745373558144
 11
173.76463480680459
 21
-22.50605382921437
  0
LINE
  5
BD
100
AcDbEntity
  8
0
  6
CONTINUOUS
 62
             7
100
AcDbLine
 10
172.76463480680459
 20
-23.36745373558144
 11
172.76463480680459
 21
-22.50605382921437
  0
LINE
  5
BC
100
AcDbEntity
  8
0
  6
CONTINUOUS
 62
             7
100
AcDbLine
 10
172.76463480680459
 20
-20.7288536419485
 11
172.76463480680459
 21
-19.86745373558144
  0
LINE
  5
BB
100
AcDbEntity
  8
0
  6
CONTINUOUS
 62
             7
100
AcDbLine
 10
173.76463480680459
 20
-25.01745373558144
 11
173.36463480680459
 21
-25.01745373558144
  0
LINE
  5
BA
100
AcDbEntity
  8
0
  6
CONTINUOUS
 62
             7
100
AcDbLine
 10
173.76463480680459
 20
-18.21745373558143
 11
173.36463480680459
 21
-18.21745373558143
  0
LINE
  5
B9
100
AcDbEntity
  8
0
  6
CONTINUOUS
 62
             7
100
AcDbLine
 10
172.76463480680459
 20
-23.36745373558144
 11
172.36463480680459
 21
-25.01745373558144
  0
LINE
  5
B8
100
AcDbEntity
  8
0
  6
CONTINUOUS
 62
             7
100
AcDbLine
 10
173.76463480680459
 20
-23.36745373558144
 11
173.36463480680459
 21
-25.01745373558144
  0
LINE
  5
B7
100
AcDbEntity
  8
0
  6
CONTINUOUS
 62
             7
100
AcDbLine
 10
173.76463480680459
 20
-18.21745373558143
 11
173.76463480680459
 21
-20.7288536419485
  0
LINE
  5
B6
100
AcDbEntity
  8
0
  6
CONTINUOUS
 62
             7
100
AcDbLine
 10
172.36463480680459
 20
-22.21745373558143
 11
172.6348594951223
 21
-22.31878799370055
  0
LINE
  5
B5
100
AcDbEntity
  8
0
  6
CONTINUOUS
 62
             7
100
AcDbLine
 10
172.36463480680459
 20
-21.01745373558144
 11
172.6348594951223
 21
-20.91611947746229
  0
LINE
  5
B4
100
AcDbEntity
  8
0
  6
CONTINUOUS
 62
             7
100
AcDbLine
 10
173.36463480680459
 20
-22.21745373558143
 11
173.6348594951223
 21
-22.31878799370055
  0
LINE
  5
B3
100
AcDbEntity
  8
0
  6
CONTINUOUS
 62
             7
100
AcDbLine
 10
173.36463480680459
 20
-21.01745373558144
 11
173.36463480680459
 21
-22.21745373558143
  0
LINE
  5
B2
100
AcDbEntity
  8
0
  6
CONTINUOUS
 62
             7
100
AcDbLine
 10
173.36463480680459
 20
-21.01745373558144
 11
173.6348594951223
 21
-20.91611947746229
  0
LINE
  5
B1
100
AcDbEntity
  8
0
  6
CONTINUOUS
 62
             7
100
AcDbLine
 10
172.36463480680459
 20
-18.21745373558143
 11
172.76463480680459
 21
-19.86745373558144
  0
LINE
  5
B0
100
AcDbEntity
  8
0
  6
CONTINUOUS
 62
             7
100
AcDbLine
 10
173.36463480680459
 20
-18.21745373558143
 11
173.76463480680459
 21
-19.86745373558144
  0
LINE
  5
AF
100
AcDbEntity
  8
0
  6
CONTINUOUS
 62
             7
100
AcDbLine
 10
173.36463480680459
 20
-25.01745373558144
 11
172.36463480680459
 21
-25.01745373558144
  0
LINE
  5
AE
100
AcDbEntity
  8
0
  6
CONTINUOUS
 62
             7
100
AcDbLine
 10
173.36463480680459
 20
-18.21745373558143
 11
172.36463480680459
 21
-18.21745373558143
  0
LINE
  5
AD
100
AcDbEntity
  8
0
  6
CONTINUOUS
 62
             7
100
AcDbLine
 10
174.5037549484291
 20
-24.36745373558144
 11
173.76463480680459
 21
-24.36745373558144
  0
LINE
  5
AC
100
AcDbEntity
  8
0
  6
CONTINUOUS
 62
             7
100
AcDbLine
 10
173.76463480680459
 20
-18.86745373558144
 11
174.5037549484291
 21
-18.86745373558144
  0
LINE
  5
AB
100
AcDbEntity
  8
0
  6
CONTINUOUS
 62
             7
100
AcDbLine
 10
173.76463480680459
 20
-20.7288536419485
 11
173.76463480680459
 21
-22.50605382921437
  0
LINE
  5
AA
100
AcDbEntity
  8
1
  6
CONTINUOUS
 62
             7
100
AcDbLine
 10
172.36463480680459
 20
-9.71627384298141
 11
172.36463480680459
 21
-16.71863362818149
  0
LINE
  5
A9
100
AcDbEntity
  8
0
  6
CONTINUOUS
 62
             7
100
AcDbLine
 10
173.76463480680459
 20
-16.61745373558146
 11
173.76463480680459
 21
-14.10605382921439
  0
LINE
  5
A8
100
AcDbEntity
  8
0
  6
CONTINUOUS
 62
             7
100
AcDbLine
 10
172.76463480680459
 20
-14.96745373558146
 11
172.76463480680459
 21
-14.10605382921439
  0
LINE
  5
A7
100
AcDbEntity
  8
0
  6
CONTINUOUS
 62
             7
100
AcDbLine
 10
172.76463480680459
 20
-12.32885364194853
 11
172.76463480680459
 21
-11.46745373558146
  0
LINE
  5
A6
100
AcDbEntity
  8
0
  6
CONTINUOUS
 62
             7
100
AcDbLine
 10
173.76463480680459
 20
-16.61745373558146
 11
173.36463480680459
 21
-16.61745373558146
  0
LINE
  5
A5
100
AcDbEntity
  8
0
  6
CONTINUOUS
 62
             7
100
AcDbLine
 10
173.76463480680459
 20
-9.81745373558145
 11
173.36463480680459
 21
-9.81745373558145
  0
LINE
  5
A4
100
AcDbEntity
  8
0
  6
CONTINUOUS
 62
             7
100
AcDbLine
 10
172.76463480680459
 20
-14.96745373558146
 11
172.36463480680459
 21
-16.61745373558146
  0
LINE
  5
A3
100
AcDbEntity
  8
0
  6
CONTINUOUS
 62
             7
100
AcDbLine
 10
173.76463480680459
 20
-14.96745373558146
 11
173.36463480680459
 21
-16.61745373558146
  0
LINE
  5
A2
100
AcDbEntity
  8
0
  6
CONTINUOUS
 62
             7
100
AcDbLine
 10
173.76463480680459
 20
-9.81745373558145
 11
173.76463480680459
 21
-12.32885364194853
  0
LINE
  5
A1
100
AcDbEntity
  8
0
  6
CONTINUOUS
 62
             7
100
AcDbLine
 10
172.36463480680459
 20
-13.81745373558145
 11
172.6348594951223
 21
-13.91878799370058
  0
LINE
  5
A0
100
AcDbEntity
  8
0
  6
CONTINUOUS
 62
             7
100
AcDbLine
 10
172.36463480680459
 20
-12.61745373558146
 11
172.6348594951223
 21
-12.51611947746231
  0
LINE
  5
9F
100
AcDbEntity
  8
0
  6
CONTINUOUS
 62
             7
100
AcDbLine
 10
173.36463480680459
 20
-13.81745373558145
 11
173.6348594951223
 21
-13.91878799370058
  0
LINE
  5
9E
100
AcDbEntity
  8
0
  6
CONTINUOUS
 62
             7
100
AcDbLine
 10
173.36463480680459
 20
-12.61745373558146
 11
173.36463480680459
 21
-13.81745373558145
  0
LINE
  5
9D
100
AcDbEntity
  8
0
  6
CONTINUOUS
 62
             7
100
AcDbLine
 10
173.36463480680459
 20
-12.61745373558146
 11
173.6348594951223
 21
-12.51611947746231
  0
LINE
  5
9C
100
AcDbEntity
  8
0
  6
CONTINUOUS
 62
             7
100
AcDbLine
 10
172.36463480680459
 20
-9.81745373558145
 11
172.76463480680459
 21
-11.46745373558146
  0
LINE
  5
9B
100
AcDbEntity
  8
0
  6
CONTINUOUS
 62
             7
100
AcDbLine
 10
173.36463480680459
 20
-9.81745373558145
 11
173.76463480680459
 21
-11.46745373558146
  0
LINE
  5
9A
100
AcDbEntity
  8
0
  6
CONTINUOUS
 62
             7
100
AcDbLine
 10
173.36463480680459
 20
-16.61745373558146
 11
172.36463480680459
 21
-16.61745373558146
  0
LINE
  5
99
100
AcDbEntity
  8
0
  6
CONTINUOUS
 62
             7
100
AcDbLine
 10
173.36463480680459
 20
-9.81745373558145
 11
172.36463480680459
 21
-9.81745373558145
  0
LINE
  5
98
100
AcDbEntity
  8
0
  6
CONTINUOUS
 62
             7
100
AcDbLine
 10
174.5037549484291
 20
-15.96745373558146
 11
173.76463480680459
 21
-15.96745373558146
  0
LINE
  5
97
100
AcDbEntity
  8
0
  6
CONTINUOUS
 62
             7
100
AcDbLine
 10
173.76463480680459
 20
-10.46745373558146
 11
174.5037549484291
 21
-10.46745373558146
  0
LINE
  5
96
100
AcDbEntity
  8
0
  6
CONTINUOUS
 62
             7
100
AcDbLine
 10
173.76463480680459
 20
-12.32885364194853
 11
173.76463480680459
 21
-14.10605382921439
  0
LINE
  5
95
100
AcDbEntity
  8
1
  6
CONTINUOUS
 62
             7
100
AcDbLine
 10
172.36463480680459
 20
-1.31627384298143
 11
172.36463480680459
 21
-8.31863362818152
  0
LINE
  5
94
100
AcDbEntity
  8
0
  6
CONTINUOUS
 62
             7
100
AcDbLine
 10
173.76463480680459
 20
-8.21745373558149
 11
173.76463480680459
 21
-5.70605382921441
  0
LINE
  5
93
100
AcDbEntity
  8
0
  6
CONTINUOUS
 62
             7
100
AcDbLine
 10
172.76463480680459
 20
-6.56745373558148
 11
172.76463480680459
 21
-5.70605382921441
  0
LINE
  5
92
100
AcDbEntity
  8
0
  6
CONTINUOUS
 62
             7
100
AcDbLine
 10
172.76463480680459
 20
-3.92885364194855
 11
172.76463480680459
 21
-3.06745373558148
  0
LINE
  5
91
100
AcDbEntity
  8
0
  6
CONTINUOUS
 62
             7
100
AcDbLine
 10
173.76463480680459
 20
-8.21745373558149
 11
173.36463480680459
 21
-8.21745373558149
  0
LINE
  5
90
100
AcDbEntity
  8
0
  6
CONTINUOUS
 62
             7
100
AcDbLine
 10
173.76463480680459
 20
-1.41745373558147
 11
173.36463480680459
 21
-1.41745373558147
  0
LINE
  5
8F
100
AcDbEntity
  8
0
  6
CONTINUOUS
 62
             7
100
AcDbLine
 10
172.76463480680459
 20
-6.56745373558148
 11
172.36463480680459
 21
-8.21745373558149
  0
LINE
  5
8E
100
AcDbEntity
  8
0
  6
CONTINUOUS
 62
             7
100
AcDbLine
 10
173.76463480680459
 20
-6.56745373558148
 11
173.36463480680459
 21
-8.21745373558149
  0
LINE
  5
8D
100
AcDbEntity
  8
0
  6
CONTINUOUS
 62
             7
100
AcDbLine
 10
173.76463480680459
 20
-1.41745373558147
 11
173.76463480680459
 21
-3.92885364194855
  0
LINE
  5
8C
100
AcDbEntity
  8
0
  6
CONTINUOUS
 62
             7
100
AcDbLine
 10
172.36463480680459
 20
-5.41745373558147
 11
172.6348594951223
 21
-5.5187879937006
  0
LINE
  5
8B
100
AcDbEntity
  8
0
  6
CONTINUOUS
 62
             7
100
AcDbLine
 10
172.36463480680459
 20
-4.21745373558149
 11
172.6348594951223
 21
-4.11611947746233
  0
LINE
  5
8A
100
AcDbEntity
  8
0
  6
CONTINUOUS
 62
             7
100
AcDbLine
 10
173.36463480680459
 20
-5.41745373558147
 11
173.6348594951223
 21
-5.5187879937006
  0
LINE
  5
89
100
AcDbEntity
  8
0
  6
CONTINUOUS
 62
             7
100
AcDbLine
 10
173.36463480680459
 20
-4.21745373558149
 11
173.36463480680459
 21
-5.41745373558147
  0
LINE
  5
88
100
AcDbEntity
  8
0
  6
CONTINUOUS
 62
             7
100
AcDbLine
 10
173.36463480680459
 20
-4.21745373558149
 11
173.6348594951223
 21
-4.11611947746233
  0
LINE
  5
87
100
AcDbEntity
  8
0
  6
CONTINUOUS
 62
             7
100
AcDbLine
 10
172.36463480680459
 20
-1.41745373558147
 11
172.76463480680459
 21
-3.06745373558148
  0
LINE
  5
86
100
AcDbEntity
  8
0
  6
CONTINUOUS
 62
             7
100
AcDbLine
 10
173.36463480680459
 20
-1.41745373558147
 11
173.76463480680459
 21
-3.06745373558148
  0
LINE
  5
85
100
AcDbEntity
  8
0
  6
CONTINUOUS
 62
             7
100
AcDbLine
 10
173.36463480680459
 20
-8.21745373558149
 11
172.36463480680459
 21
-8.21745373558149
  0
LINE
  5
84
100
AcDbEntity
  8
0
  6
CONTINUOUS
 62
             7
100
AcDbLine
 10
173.36463480680459
 20
-1.41745373558147
 11
172.36463480680459
 21
-1.41745373558147
  0
LINE
  5
83
100
AcDbEntity
  8
0
  6
CONTINUOUS
 62
             7
100
AcDbLine
 10
174.5037549484291
 20
-7.56745373558148
 11
173.76463480680459
 21
-7.56745373558148
  0
LINE
  5
82
100
AcDbEntity
  8
0
  6
CONTINUOUS
 62
             7
100
AcDbLine
 10
173.76463480680459
 20
-2.06745373558148
 11
174.5037549484291
 21
-2.06745373558148
  0
LINE
  5
81
100
AcDbEntity
  8
0
  6
CONTINUOUS
 62
             7
100
AcDbLine
 10
173.76463480680459
 20
-3.92885364194855
 11
173.76463480680459
 21
-5.70605382921441
  0
LINE
  5
80
100
AcDbEntity
  8
1
  6
CONTINUOUS
 62
             7
100
AcDbLine
 10
172.36463480680459
 20
7.08372615701855
 11
172.36463480680459
 21
0.08136637181846
  0
LINE
  5
7F
100
AcDbEntity
  8
0
  6
CONTINUOUS
 62
             7
100
AcDbLine
 10
173.76463480680459
 20
0.18254626441849
 11
173.76463480680459
 21
2.69394617078557
  0
LINE
  5
7E
100
AcDbEntity
  8
0
  6
CONTINUOUS
 62
             7
100
AcDbLine
 10
172.76463480680459
 20
1.8325462644185
 11
172.76463480680459
 21
2.69394617078557
  0
LINE
  5
7D
100
AcDbEntity
  8
0
  6
CONTINUOUS
 62
             7
100
AcDbLine
 10
172.76463480680459
 20
4.47114635805143
 11
172.76463480680459
 21
5.3325462644185
  0
LINE
  5
7C
100
AcDbEntity
  8
0
  6
CONTINUOUS
 62
             7
100
AcDbLine
 10
173.76463480680459
 20
0.18254626441849
 11
173.36463480680459
 21
0.18254626441849
  0
LINE
  5
7B
100
AcDbEntity
  8
0
  6
CONTINUOUS
 62
             7
100
AcDbLine
 10
173.76463480680459
 20
6.9825462644185
 11
173.36463480680459
 21
6.9825462644185
  0
LINE
  5
7A
100
AcDbEntity
  8
0
  6
CONTINUOUS
 62
             7
100
AcDbLine
 10
172.76463480680459
 20
1.8325462644185
 11
172.36463480680459
 21
0.18254626441849
  0
LINE
  5
79
100
AcDbEntity
  8
0
  6
CONTINUOUS
 62
             7
100
AcDbLine
 10
173.76463480680459
 20
1.8325462644185
 11
173.36463480680459
 21
0.18254626441849
  0
LINE
  5
78
100
AcDbEntity
  8
0
  6
CONTINUOUS
 62
             7
100
AcDbLine
 10
173.76463480680459
 20
6.9825462644185
 11
173.76463480680459
 21
4.47114635805143
  0
LINE
  5
77
100
AcDbEntity
  8
0
  6
CONTINUOUS
 62
             7
100
AcDbLine
 10
172.36463480680459
 20
2.9825462644185
 11
172.6348594951223
 21
2.88121200629938
  0
LINE
  5
76
100
AcDbEntity
  8
0
  6
CONTINUOUS
 62
             7
100
AcDbLine
 10
172.36463480680459
 20
4.18254626441849
 11
172.6348594951223
 21
4.28388052253764
  0
LINE
  5
75
100
AcDbEntity
  8
0
  6
CONTINUOUS
 62
             7
100
AcDbLine
 10
173.36463480680459
 20
2.9825462644185
 11
173.6348594951223
 21
2.88121200629938
  0
LINE
  5
74
100
AcDbEntity
  8
0
  6
CONTINUOUS
 62
             7
100
AcDbLine
 10
173.36463480680459
 20
4.18254626441849
 11
173.36463480680459
 21
2.9825462644185
  0
LINE
  5
73
100
AcDbEntity
  8
0
  6
CONTINUOUS
 62
             7
100
AcDbLine
 10
173.36463480680459
 20
4.18254626441849
 11
173.6348594951223
 21
4.28388052253764
  0
LINE
  5
72
100
AcDbEntity
  8
0
  6
CONTINUOUS
 62
             7
100
AcDbLine
 10
172.36463480680459
 20
6.9825462644185
 11
172.76463480680459
 21
5.3325462644185
  0
LINE
  5
71
100
AcDbEntity
  8
0
  6
CONTINUOUS
 62
             7
100
AcDbLine
 10
173.36463480680459
 20
6.9825462644185
 11
173.76463480680459
 21
5.3325462644185
  0
LINE
  5
70
100
AcDbEntity
  8
0
  6
CONTINUOUS
 62
             7
100
AcDbLine
 10
173.36463480680459
 20
0.18254626441849
 11
172.36463480680459
 21
0.18254626441849
  0
LINE
  5
6F
100
AcDbEntity
  8
0
  6
CONTINUOUS
 62
             7
100
AcDbLine
 10
173.36463480680459
 20
6.9825462644185
 11
172.36463480680459
 21
6.9825462644185
  0
LINE
  5
6E
100
AcDbEntity
  8
0
  6
CONTINUOUS
 62
             7
100
AcDbLine
 10
174.5037549484291
 20
0.8325462644185
 11
173.76463480680459
 21
0.8325462644185
  0
LINE
  5
6D
100
AcDbEntity
  8
0
  6
CONTINUOUS
 62
             7
100
AcDbLine
 10
173.76463480680459
 20
6.3325462644185
 11
174.5037549484291
 21
6.3325462644185
  0
LINE
  5
6C
100
AcDbEntity
  8
0
  6
CONTINUOUS
 62
             7
100
AcDbLine
 10
173.76463480680459
 20
4.47114635805143
 11
173.76463480680459
 21
2.69394617078557
  0
LINE
  5
6B
100
AcDbEntity
  8
1
  6
CONTINUOUS
 62
             7
100
AcDbLine
 10
172.36463480680459
 20
15.48372615701854
 11
172.36463480680459
 21
8.48136637181844
  0
LINE
  5
6A
100
AcDbEntity
  8
0
  6
CONTINUOUS
 62
             7
100
AcDbLine
 10
173.76463480680459
 20
8.58254626441848
 11
173.76463480680459
 21
11.09394617078556
  0
LINE
  5
69
100
AcDbEntity
  8
0
  6
CONTINUOUS
 62
             7
100
AcDbLine
 10
172.76463480680459
 20
10.23254626441847
 11
172.76463480680459
 21
11.09394617078556
  0
LINE
  5
68
100
AcDbEntity
  8
0
  6
CONTINUOUS
 62
             7
100
AcDbLine
 10
172.76463480680459
 20
12.8711463580514
 11
172.76463480680459
 21
13.73254626441847
  0
LINE
  5
67
100
AcDbEntity
  8
0
  6
CONTINUOUS
 62
             7
100
AcDbLine
 10
173.76463480680459
 20
8.58254626441848
 11
173.36463480680459
 21
8.58254626441848
  0
LINE
  5
66
100
AcDbEntity
  8
0
  6
CONTINUOUS
 62
             7
100
AcDbLine
 10
173.76463480680459
 20
15.38254626441849
 11
173.36463480680459
 21
15.38254626441849
  0
LINE
  5
65
100
AcDbEntity
  8
0
  6
CONTINUOUS
 62
             7
100
AcDbLine
 10
172.76463480680459
 20
10.23254626441847
 11
172.36463480680459
 21
8.58254626441848
  0
LINE
  5
64
100
AcDbEntity
  8
0
  6
CONTINUOUS
 62
             7
100
AcDbLine
 10
173.76463480680459
 20
10.23254626441847
 11
173.36463480680459
 21
8.58254626441848
  0
LINE
  5
63
100
AcDbEntity
  8
0
  6
CONTINUOUS
 62
             7
100
AcDbLine
 10
173.76463480680459
 20
15.38254626441849
 11
173.76463480680459
 21
12.8711463580514
  0
LINE
  5
62
100
AcDbEntity
  8
0
  6
CONTINUOUS
 62
             7
100
AcDbLine
 10
172.36463480680459
 20
11.38254626441849
 11
172.6348594951223
 21
11.28121200629936
  0
LINE
  5
61
100
AcDbEntity
  8
0
  6
CONTINUOUS
 62
             7
100
AcDbLine
 10
172.36463480680459
 20
12.58254626441848
 11
172.6348594951223
 21
12.68388052253763
  0
LINE
  5
60
100
AcDbEntity
  8
0
  6
CONTINUOUS
 62
             7
100
AcDbLine
 10
173.36463480680459
 20
11.38254626441849
 11
173.6348594951223
 21
11.28121200629936
  0
LINE
  5
5F
100
AcDbEntity
  8
0
  6
CONTINUOUS
 62
             7
100
AcDbLine
 10
173.36463480680459
 20
12.58254626441848
 11
173.36463480680459
 21
11.38254626441849
  0
LINE
  5
5E
100
AcDbEntity
  8
0
  6
CONTINUOUS
 62
             7
100
AcDbLine
 10
173.36463480680459
 20
12.58254626441848
 11
173.6348594951223
 21
12.68388052253763
  0
LINE
  5
5D
100
AcDbEntity
  8
0
  6
CONTINUOUS
 62
             7
100
AcDbLine
 10
172.36463480680459
 20
15.38254626441849
 11
172.76463480680459
 21
13.73254626441847
  0
LINE
  5
5C
100
AcDbEntity
  8
0
  6
CONTINUOUS
 62
             7
100
AcDbLine
 10
173.36463480680459
 20
15.38254626441849
 11
173.76463480680459
 21
13.73254626441847
  0
LINE
  5
5B
100
AcDbEntity
  8
0
  6
CONTINUOUS
 62
             7
100
AcDbLine
 10
173.36463480680459
 20
8.58254626441848
 11
172.36463480680459
 21
8.58254626441848
  0
LINE
  5
5A
100
AcDbEntity
  8
0
  6
CONTINUOUS
 62
             7
100
AcDbLine
 10
173.36463480680459
 20
15.38254626441849
 11
172.36463480680459
 21
15.38254626441849
  0
LINE
  5
59
100
AcDbEntity
  8
0
  6
CONTINUOUS
 62
             7
100
AcDbLine
 10
174.5037549484291
 20
9.23254626441849
 11
173.76463480680459
 21
9.23254626441849
  0
LINE
  5
58
100
AcDbEntity
  8
0
  6
CONTINUOUS
 62
             7
100
AcDbLine
 10
173.76463480680459
 20
14.73254626441847
 11
174.5037549484291
 21
14.73254626441847
  0
LINE
  5
57
100
AcDbEntity
  8
0
  6
CONTINUOUS
 62
             7
100
AcDbLine
 10
173.76463480680459
 20
12.8711463580514
 11
173.76463480680459
 21
11.09394617078556
  0
LINE
  5
56
100
AcDbEntity
  8
1
  6
CONTINUOUS
 62
             7
100
AcDbLine
 10
172.36463480680459
 20
23.88372615701851
 11
172.36463480680459
 21
16.88136637181842
  0
LINE
  5
55
100
AcDbEntity
  8
0
  6
CONTINUOUS
 62
             7
100
AcDbLine
 10
173.76463480680459
 20
16.98254626441846
 11
173.76463480680459
 21
19.49394617078553
  0
LINE
  5
54
100
AcDbEntity
  8
0
  6
CONTINUOUS
 62
             7
100
AcDbLine
 10
172.76463480680459
 20
18.63254626441847
 11
172.76463480680459
 21
19.49394617078553
  0
LINE
  5
53
100
AcDbEntity
  8
0
  6
CONTINUOUS
 62
             7
100
AcDbLine
 10
172.76463480680459
 20
21.2711463580514
 11
172.76463480680459
 21
22.13254626441847
  0
LINE
  5
52
100
AcDbEntity
  8
0
  6
CONTINUOUS
 62
             7
100
AcDbLine
 10
173.76463480680459
 20
16.98254626441846
 11
173.36463480680459
 21
16.98254626441846
  0
LINE
  5
51
100
AcDbEntity
  8
0
  6
CONTINUOUS
 62
             7
100
AcDbLine
 10
173.76463480680459
 20
23.78254626441847
 11
173.36463480680459
 21
23.78254626441847
  0
LINE
  5
50
100
AcDbEntity
  8
0
  6
CONTINUOUS
 62
             7
100
AcDbLine
 10
172.76463480680459
 20
18.63254626441847
 11
172.36463480680459
 21
16.98254626441846
  0
LINE
  5
4F
100
AcDbEntity
  8
0
  6
CONTINUOUS
 62
             7
100
AcDbLine
 10
173.76463480680459
 20
18.63254626441847
 11
173.36463480680459
 21
16.98254626441846
  0
LINE
  5
4E
100
AcDbEntity
  8
0
  6
CONTINUOUS
 62
             7
100
AcDbLine
 10
173.76463480680459
 20
23.78254626441847
 11
173.76463480680459
 21
21.2711463580514
  0
LINE
  5
4D
100
AcDbEntity
  8
0
  6
CONTINUOUS
 62
             7
100
AcDbLine
 10
172.36463480680459
 20
19.78254626441847
 11
172.6348594951223
 21
19.68121200629935
  0
LINE
  5
4C
100
AcDbEntity
  8
0
  6
CONTINUOUS
 62
             7
100
AcDbLine
 10
172.36463480680459
 20
20.98254626441846
 11
172.6348594951223
 21
21.08388052253761
  0
LINE
  5
4B
100
AcDbEntity
  8
0
  6
CONTINUOUS
 62
             7
100
AcDbLine
 10
173.36463480680459
 20
19.78254626441847
 11
173.6348594951223
 21
19.68121200629935
  0
LINE
  5
4A
100
AcDbEntity
  8
0
  6
CONTINUOUS
 62
             7
100
AcDbLine
 10
173.36463480680459
 20
20.98254626441846
 11
173.36463480680459
 21
19.78254626441847
  0
LINE
  5
49
100
AcDbEntity
  8
0
  6
CONTINUOUS
 62
             7
100
AcDbLine
 10
173.36463480680459
 20
20.98254626441846
 11
173.6348594951223
 21
21.08388052253761
  0
LINE
  5
48
100
AcDbEntity
  8
0
  6
CONTINUOUS
 62
             7
100
AcDbLine
 10
172.36463480680459
 20
23.78254626441847
 11
172.76463480680459
 21
22.13254626441847
  0
LINE
  5
47
100
AcDbEntity
  8
0
  6
CONTINUOUS
 62
             7
100
AcDbLine
 10
173.36463480680459
 20
23.78254626441847
 11
173.76463480680459
 21
22.13254626441847
  0
LINE
  5
46
100
AcDbEntity
  8
0
  6
CONTINUOUS
 62
             7
100
AcDbLine
 10
173.36463480680459
 20
16.98254626441846
 11
172.36463480680459
 21
16.98254626441846
  0
LINE
  5
45
100
AcDbEntity
  8
0
  6
CONTINUOUS
 62
             7
100
AcDbLine
 10
173.36463480680459
 20
23.78254626441847
 11
172.36463480680459
 21
23.78254626441847
  0
LINE
  5
44
100
AcDbEntity
  8
0
  6
CONTINUOUS
 62
             7
100
AcDbLine
 10
174.5037549484291
 20
17.63254626441847
 11
173.76463480680459
 21
17.63254626441847
  0
LINE
  5
43
100
AcDbEntity
  8
0
  6
CONTINUOUS
 62
             7
100
AcDbLine
 10
173.76463480680459
 20
23.13254626441847
 11
174.5037549484291
 21
23.13254626441847
  0
LINE
  5
42
100
AcDbEntity
  8
0
  6
CONTINUOUS
 62
             7
100
AcDbLine
 10
173.76463480680459
 20
21.2711463580514
 11
173.76463480680459
 21
19.49394617078553
  0
LINE
  5
41
100
AcDbEntity
  8
1
  6
CONTINUOUS
 62
             7
100
AcDbLine
 10
172.36463480680459
 20
32.28372615701849
 11
172.36463480680459
 21
25.28136637181839
  0
LINE
  5
40
100
AcDbEntity
  8
0
  6
CONTINUOUS
 62
             7
100
AcDbLine
 10
173.76463480680459
 20
25.38254626441844
 11
173.76463480680459
 21
27.89394617078551
  0
LINE
  5
3F
100
AcDbEntity
  8
0
  6
CONTINUOUS
 62
             7
100
AcDbLine
 10
172.76463480680459
 20
27.03254626441844
 11
172.76463480680459
 21
27.89394617078551
  0
LINE
  5
3E
100
AcDbEntity
  8
0
  6
CONTINUOUS
 62
             7
100
AcDbLine
 10
172.76463480680459
 20
29.67114635805137
 11
172.76463480680459
 21
30.53254626441844
  0
LINE
  5
3D
100
AcDbEntity
  8
0
  6
CONTINUOUS
 62
             7
100
AcDbLine
 10
173.76463480680459
 20
25.38254626441844
 11
173.36463480680459
 21
25.38254626441844
  0
LINE
  5
3C
100
AcDbEntity
  8
0
  6
CONTINUOUS
 62
             7
100
AcDbLine
 10
173.76463480680459
 20
32.18254626441845
 11
173.36463480680459
 21
32.18254626441845
  0
LINE
  5
3B
100
AcDbEntity
  8
0
  6
CONTINUOUS
 62
             7
100
AcDbLine
 10
172.76463480680459
 20
27.03254626441844
 11
172.36463480680459
 21
25.38254626441844
  0
LINE
  5
3A
100
AcDbEntity
  8
0
  6
CONTINUOUS
 62
             7
100
AcDbLine
 10
173.76463480680459
 20
27.03254626441844
 11
173.36463480680459
 21
25.38254626441844
  0
LINE
  5
39
100
AcDbEntity
  8
0
  6
CONTINUOUS
 62
             7
100
AcDbLine
 10
173.76463480680459
 20
32.18254626441845
 11
173.76463480680459
 21
29.67114635805137
  0
LINE
  5
38
100
AcDbEntity
  8
0
  6
CONTINUOUS
 62
             7
100
AcDbLine
 10
172.36463480680459
 20
28.18254626441845
 11
172.6348594951223
 21
28.08121200629932
  0
LINE
  5
37
100
AcDbEntity
  8
0
  6
CONTINUOUS
 62
             7
100
AcDbLine
 10
172.36463480680459
 20
29.38254626441844
 11
172.6348594951223
 21
29.48388052253759
  0
LINE
  5
36
100
AcDbEntity
  8
0
  6
CONTINUOUS
 62
             7
100
AcDbLine
 10
173.36463480680459
 20
28.18254626441845
 11
173.6348594951223
 21
28.08121200629932
  0
LINE
  5
35
100
AcDbEntity
  8
0
  6
CONTINUOUS
 62
             7
100
AcDbLine
 10
173.36463480680459
 20
29.38254626441844
 11
173.36463480680459
 21
28.18254626441845
  0
LINE
  5
34
100
AcDbEntity
  8
0
  6
CONTINUOUS
 62
             7
100
AcDbLine
 10
173.36463480680459
 20
29.38254626441844
 11
173.6348594951223
 21
29.48388052253759
  0
LINE
  5
33
100
AcDbEntity
  8
0
  6
CONTINUOUS
 62
             7
100
AcDbLine
 10
172.36463480680459
 20
32.18254626441845
 11
172.76463480680459
 21
30.53254626441844
  0
LINE
  5
32
100
AcDbEntity
  8
0
  6
CONTINUOUS
 62
             7
100
AcDbLine
 10
173.36463480680459
 20
32.18254626441845
 11
173.76463480680459
 21
30.53254626441844
  0
LINE
  5
31
100
AcDbEntity
  8
0
  6
CONTINUOUS
 62
             7
100
AcDbLine
 10
173.36463480680459
 20
25.38254626441844
 11
172.36463480680459
 21
25.38254626441844
  0
LINE
  5
30
100
AcDbEntity
  8
0
  6
CONTINUOUS
 62
             7
100
AcDbLine
 10
173.36463480680459
 20
32.18254626441845
 11
172.36463480680459
 21
32.18254626441845
  0
LINE
  5
2F
100
AcDbEntity
  8
0
  6
CONTINUOUS
 62
             7
100
AcDbLine
 10
174.5037549484291
 20
26.03254626441844
 11
173.76463480680459
 21
26.03254626441844
  0
LINE
  5
2E
100
AcDbEntity
  8
0
  6
CONTINUOUS
 62
             7
100
AcDbLine
 10
173.76463480680459
 20
31.53254626441844
 11
174.5037549484291
 21
31.53254626441844
  0
LINE
  5
2D
100
AcDbEntity
  8
0
  6
CONTINUOUS
 62
             7
100
AcDbLine
 10
173.76463480680459
 20
29.67114635805137
 11
173.76463480680459
 21
27.89394617078551
  0
INSERT
  5
29
100
AcDbEntity
  8
0
100
AcDbBlockReference
  2
TOP__1
 10
-19.9422054261271
 20
-16.58503071301669
  0
ENDSEC
  0
SECTION
  2
OBJECTS
  0
DICTIONARY
  5
19
100
AcDbDictionary
  3
ACAD_GROUP
350
1A
  3
ACAD_MLINESTYLE
350
1B
  0
DICTIONARY
  5
1A
102
{ACAD_REACTORS
330
19
102
}
100
AcDbDictionary
  0
DICTIONARY
  5
1B
102
{ACAD_REACTORS
330
19
102
}
100
AcDbDictionary
  3
STANDARD
350
1C
  0
MLINESTYLE
  5
1C
102
{ACAD_REACTORS
330
1B
102
}
100
AcDbMlineStyle
  2
STANDARD
 70
             0
  3

 62
             0
 51
90.0
 52
90.0
 71
             2
 49
0.5
 62
           256
  6
BYLAYER
 49
-0.5
 62
           256
  6
BYLAYER
  0
ENDSEC
  0
EOF
