  0
SECTION
  2
HEADER
  9
$ACADVER
  1
AC1014
  9
$ACADMAINTVER
 70
             0
  9
$DWGCODEPAGE
  3
ANSI_1252
  9
$INSBASE
 10
0.0
 20
0.0
 30
0.0
  9
$EXTMIN
 10
1.00000000000000E+20
 20
1.00000000000000E+20
 30
1.00000000000000E+20
  9
$EXTMAX
 10
-1.00000000000000E+20
 20
-1.00000000000000E+20
 30
-1.00000000000000E+20
  9
$LIMMIN
 10
0.0
 20
0.0
  9
$LIMMAX
 10
0.0
 20
0.0
  9
$ORTHOMODE
 70
             0
  9
$REGENMODE
 70
             1
  9
$FILLMODE
 70
             1
  9
$QTEXTMODE
 70
             0
  9
$MIRRTEXT
 70
             1
  9
$DRAGMODE
 70
             2
  9
$LTSCALE
 40
1.0
  9
$OSMODE
 70
             0
  9
$ATTMODE
 70
             1
  9
$TEXTSIZE
 40
0.2
  9
$TRACEWID
 40
0.05
  9
$TEXTSTYLE
  7
STANDARD
  9
$CLAYER
  8
0
  9
$CELTYPE
  6
CONTINUOUS
  9
$CECOLOR
 62
           256
  9
$CELTSCALE
 40
1.0
  9
$DELOBJ
 70
             1
  9
$DISPSILH
 70
             0
  9
$DIMSCALE
 40
1.0
  9
$DIMASZ
 40
0.18
  9
$DIMEXO
 40
0.0625
  9
$DIMDLI
 40
0.38
  9
$DIMRND
 40
0.0
  9
$DIMDLE
 40
0.0
  9
$DIMEXE
 40
0.18
  9
$DIMTP
 40
0.0
  9
$DIMTM
 40
0.0
  9
$DIMTXT
 40
0.18
  9
$DIMCEN
 40
0.09
  9
$DIMTSZ
 40
0.0
  9
$DIMTOL
 70
             0
  9
$DIMLIM
 70
             0
  9
$DIMTIH
 70
             1
  9
$DIMTOH
 70
             1
  9
$DIMSE1
 70
             0
  9
$DIMSE2
 70
             0
  9
$DIMTAD
 70
             0
  9
$DIMZIN
 70
             0
  9
$DIMBLK
  1

  9
$DIMASO
 70
             1
  9
$DIMSHO
 70
             1
  9
$DIMPOST
  1

  9
$DIMAPOST
  1

  9
$DIMALT
 70
             0
  9
$DIMALTD
 70
             2
  9
$DIMALTF
 40
25.4
  9
$DIMLFAC
 40
1.0
  9
$DIMTOFL
 70
             0
  9
$DIMTVP
 40
0.0
  9
$DIMTIX
 70
             0
  9
$DIMSOXD
 70
             0
  9
$DIMSAH
 70
             0
  9
$DIMBLK1
  1

  9
$DIMBLK2
  1

  9
$DIMSTYLE
  2
STANDARD
  9
$DIMCLRD
 70
             0
  9
$DIMCLRE
 70
             0
  9
$DIMCLRT
 70
             0
  9
$DIMTFAC
 40
1.0
  9
$DIMGAP
 40
0.09
  9
$DIMJUST
 70
             0
  9
$DIMSD1
 70
             0
  9
$DIMSD2
 70
             0
  9
$DIMTOLJ
 70
             1
  9
$DIMTZIN
 70
             0
  9
$DIMALTZ
 70
             0
  9
$DIMALTTZ
 70
             0
  9
$DIMFIT
 70
             3
  9
$DIMUPT
 70
             0
  9
$DIMUNIT
 70
             2
  9
$DIMDEC
 70
             4
  9
$DIMTDEC
 70
             4
  9
$DIMALTU
 70
             2
  9
$DIMALTTD
 70
             2
  9
$DIMTXSTY
  7
STANDARD
  9
$DIMAUNIT
 70
             0
  9
$LUNITS
 70
             2
  9
$LUPREC
 70
             4
  9
$SKETCHINC
 40
0.1
  9
$FILLETRAD
 40
0.0
  9
$AUNITS
 70
             0
  9
$AUPREC
 70
             0
  9
$MENU
  1
acad
  9
$ELEVATION
 40
0.0
  9
$PELEVATION
 40
0.0
  9
$THICKNESS
 40
0.0
  9
$LIMCHECK
 70
             0
  9
$BLIPMODE
 70
             1
  9
$CHAMFERA
 40
0.0
  9
$CHAMFERB
 40
0.0
  9
$CHAMFERC
 40
0.0
  9
$CHAMFERD
 40
0.0
  9
$SKPOLY
 70
             0
  9
$TDCREATE
 40
0.000000000
  9
$TDUPDATE
 40
0.000000000
  9
$TDINDWG
 40
0.0000000000
  9
$TDUSRTIMER
 40
0.0000000000
  9
$USRTIMER
 70
             1
  9
$ANGBASE
 50
0.0
  9
$ANGDIR
 70
             0
  9
$PDMODE
 70
             0
  9
$PDSIZE
 40
0.0
  9
$PLINEWID
 40
0.0
  9
$COORDS
 70
             0
  9
$SPLFRAME
 70
             0
  9
$SPLINETYPE
 70
             6
  9
$SPLINESEGS
 70
             8
  9
$ATTDIA
 70
             0
  9
$ATTREQ
 70
             1
  9
$HANDLING
 70
             1
  9
$HANDSEED
  5
3EA
  9
$SURFTAB1
 70
             6
  9
$SURFTAB2
 70
             6
  9
$SURFTYPE
 70
             6
  9
$SURFU
 70
             6
  9
$SURFV
 70
             6
  9
$UCSNAME
  2

  9
$UCSORG
 10
0.0
 20
0.0
 30
0.0
  9
$UCSXDIR
 10
1.0
 20
0.0
 30
0.0
  9
$UCSYDIR
 10
0.0
 20
1.0
 30
0.0
  9
$PUCSNAME
  2

  9
$PUCSORG
 10
0.0
 20
0.0
 30
0.0
  9
$PUCSXDIR
 10
1.0
 20
0.0
 30
0.0
  9
$PUCSYDIR
 10
0.0
 20
1.0
 30
0.0
  9
$USERI1
 70
             0
  9
$USERI2
 70
             0
  9
$USERI3
 70
             0
  9
$USERI4
 70
             0
  9
$USERI5
 70
             0
  9
$USERR1
 40
11.6
  9
$USERR2
 40
0.0
  9
$USERR3
 40
0.0
  9
$USERR4
 40
0.0
  9
$USERR5
 40
0.0
  9
$WORLDVIEW
 70
             1
  9
$SHADEDGE
 70
             3
  9
$SHADEDIF
 70
            70
  9
$TILEMODE
 70
             1
  9
$MAXACTVP
 70
            16
  9
$PINSBASE
 10
0.0
 20
0.0
 30
0.0
  9
$PLIMCHECK
 70
             0
  9
$PEXTMIN
 10
1.00000000000000E+20
 20
1.00000000000000E+20
 30
1.00000000000000E+20
  9
$PEXTMAX
 10
-1.00000000000000E+20
 20
-1.00000000000000E+20
 30
-1.00000000000000E+20
  9
$PLIMMIN
 10
0.0
 20
0.0
  9
$PLIMMAX
 10
12.0
 20
9.0
  9
$UNITMODE
 70
             0
  9
$VISRETAIN
 70
             0
  9
$PLINEGEN
 70
             1
  9
$PSLTSCALE
 70
             0
  9
$TREEDEPTH
 70
          3020
  9
$PICKSTYLE
 70
             1
  9
$CMLSTYLE
  2
STANDARD
  9
$CMLJUST
 70
             0
  9
$CMLSCALE
 40
1.0
  9
$PROXYGRAPHICS
 70
             0
  9
$MEASUREMENT
 70
             1
  0
ENDSEC
  0
SECTION
  2
CLASSES
  0
CLASS
  1
LWPOLYLINE
  2
AcDbPolyline
  3
"AutoCAD"
 90
        0
280
             0
281
             1
  0
CLASS
  1
IMAGE
  2
AcDbRasterImage
  3
ISM
 90
      127
280
             0
281
             1
  0
CLASS
  1
OLE2FRAME
  2
AcDbOle2Frame
  3
""
 90
        0
280
             0
281
             1
  0
CLASS
  1
HATCH
  2
AcDbHatch
  3
"ACAD_SEDONA"
 90
        0
280
             0
281
             1
  0
CLASS
  1
DICTIONARYVAR
  2
AcDbDictionaryVar
  3
"AutoCAD"
 90
        0
280
             0
281
             0
  0
CLASS
  1
RASTERVARIABLES
  2
AcDbRasterVariables
  3
ISM
 90
        0
280
             0
281
             0
  0
CLASS
  1
IMAGEDEF
  2
AcDbRasterImageDef
  3
ISM
 90
        0
280
             0
281
             0
  0
CLASS
  1
IMAGEDEF_REACTOR
  2
AcDbRasterImageDefReactor
  3
ISM
 90
        1
280
             0
281
             0
  0
CLASS
  1
IDBUFFER
  2
AcDbIdBuffer
  3
"Acad"
 90
        0
280
             0
281
             0
  0
CLASS
  1
SPATIAL_FILTER
  2
AcDbSpatialFilter
  3
"Acad"
 90
        0
280
             0
281
             0
  0
CLASS
  1
XRECORD
  2
AcDbXrecord
  3
"<Built In>"
 90
        0
280
             0
281
             0
  0
CLASS
  1
SORTENTSTABLE
  2
AcDbSortentsTable
  3
"AutoCAD"
 90
        0
280
             0
281
             0
  0
CLASS
  1
LAYER_INDEX
  2
AcDbLayerIndex
  3
"Acad"
 90
        0
280
             0
281
             0
  0
CLASS
  1
SPATIAL_INDEX
  2
AcDbSpatialIndex
  3
"Acad"
 90
        0
280
             0
281
             0
  0
CLASS
  1
OBJECT_PTR
  2
CAseDLPNTableRecord
  3
"ASE-LPNTableRecord"
 90
        1
280
             0
281
             0
  0
CLASS
  1
LAYOUT
  2
AcDbLayout
  3
"AutoCAD 2000"
 90
        1
280
             0
281
             0
  0
CLASS
  1
PLOTSETTINGS
  2
AcDbPlotSettings
  3
"AutoCAD 2000"
 90
        1
280
             0
281
             0
  0
CLASS
  1
ACDBDICTIONARYWDFLT
  2
AcDbDictionaryWithDefault
  3
"AutoCAD 2000"
 90
        1
280
             0
281
             0
  0
CLASS
  1
ACDBPLACEHOLDER
  2
AcDbPlaceHolder
  3
"AutoCAD 2000"
 90
        1
280
             0
281
             0
  0
ENDSEC
  0
SECTION
  2
TABLES
  0
TABLE
  2
VPORT
  5
7
100
AcDbSymbolTable
 70
             1
  0
VPORT
  5
15
100
AcDbSymbolTableRecord
100
AcDbViewportTableRecord
  2
*ACTIVE
 70
             0
 10
0.0
 20
0.0
 11
1.0
 21
1.0
 12
-116.30000000000001
 22
45.20000000000001
 13
0.0
 23
0.0
 14
1.0
 24
1.0
 15
0.0
 25
0.0
 16
0.0
 26
0.0
 36
1.0
 17
0.0
 27
0.0
 37
0.0
 40
86.48022284122567
 41
1.60267857142857
 42
50.0
 43
0.0
 44
0.0
 50
0.0
 51
0.0
 71
             0
 72
           100
 73
             1
 74
             1
 75
             0
 76
             0
 77
             0
 78
             0
  0
ENDTAB
  0
TABLE
  2
LTYPE
  5
4
100
AcDbSymbolTable
 70
            10
  0
LTYPE
  5
11
100
AcDbSymbolTableRecord
100
AcDbLinetypeTableRecord
  2
BYBLOCK
 70
            64
  3

 72
            65
 73
             0
 40
0.0
  0
LTYPE
  5
12
100
AcDbSymbolTableRecord
100
AcDbLinetypeTableRecord
  2
BYLAYER
 70
            64
  3

 72
            65
 73
             0
 40
0.0
  0
LTYPE
  5
13
100
AcDbSymbolTableRecord
100
AcDbLinetypeTableRecord
  2
CONTINUOUS
 70
            64
  3
Solid line
 72
            65
 73
             0
 40
0.0
  0
LTYPE
  5
1D
100
AcDbSymbolTableRecord
100
AcDbLinetypeTableRecord
  2
DASHED
 70
            64
  3
Dashed
 72
            65
 73
             2
 40
15.0
 49
12.0
 74
             0
 49
-3.0
 74
             0
  0
LTYPE
  5
1E
100
AcDbSymbolTableRecord
100
AcDbLinetypeTableRecord
  2
DOTTED
 70
            64
  3
Dotted
 72
            65
 73
             2
 40
3.5
 49
0.5
 74
             0
 49
-3.0
 74
             0
  0
LTYPE
  5
1F
100
AcDbSymbolTableRecord
100
AcDbLinetypeTableRecord
  2
DOT_CENTER
 70
            64
  3
Dot_Center
 72
            65
 73
             4
 40
2.0
 49
1.25
 74
             0
 49
-0.25
 74
             0
 49
0.25
 74
             0
 49
-0.25
 74
             0
  0
LTYPE
  5
20
100
AcDbSymbolTableRecord
100
AcDbLinetypeTableRecord
  2
LONG_DASHED
 70
            64
  3
Long_Dashed
 72
            65
 73
             2
 40
2.0
 49
1.5
 74
             0
 49
-0.5
 74
             0
  0
LTYPE
  5
21
100
AcDbSymbolTableRecord
100
AcDbLinetypeTableRecord
  2
DASH_CENTER
 70
            64
  3
Dash_Center
 72
            65
 73
             4
 40
36.0
 49
24.0
 74
             0
 49
-3.0
 74
             0
 49
6.0
 74
             0
 49
-3.0
 74
             0
  0
LTYPE
  5
22
100
AcDbSymbolTableRecord
100
AcDbLinetypeTableRecord
  2
PHANTOM
 70
            64
  3
Phantom
 72
            65
 73
             6
 40
2.5
 49
1.25
 74
             0
 49
-0.25
 74
             0
 49
0.25
 74
             0
 49
-0.25
 74
             0
 49
0.25
 74
             0
 49
-0.25
 74
             0
  0
LTYPE
  5
23
100
AcDbSymbolTableRecord
100
AcDbLinetypeTableRecord
  2
CENTER_DASH_DASH
 70
            64
  3
Center_Dash_Dash
 72
            65
 73
             6
 40
22.0
 49
12.0
 74
             0
 49
-3.0
 74
             0
 49
0.5
 74
             0
 49
-3.0
 74
             0
 49
0.5
 74
             0
 49
-3.0
 74
             0
  0
ENDTAB
  0
TABLE
  2
LAYER
  5
2
100
AcDbSymbolTable
 70
             3
  0
LAYER
  5
14
100
AcDbSymbolTableRecord
100
AcDbLayerTableRecord
  2
0
 70
             0
 62
             7
  6
CONTINUOUS
  0
LAYER
  5
24
100
AcDbSymbolTableRecord
100
AcDbLayerTableRecord
  2
1
 70
             0
 62
             7
  6
CONTINUOUS
  0
LAYER
  5
25
100
AcDbSymbolTableRecord
100
AcDbLayerTableRecord
  2
PV
 70
             0
 62
             7
  6
CONTINUOUS
  0
ENDTAB
  0
TABLE
  2
STYLE
  5
3
100
AcDbSymbolTable
 70
             1
  0
STYLE
  5
17
100
AcDbSymbolTableRecord
100
AcDbTextStyleTableRecord
  2
STANDARD
 70
             0
 40
0.0
 41
1.0
 50
0.0
 71
             0
 42
0.0
  3
txt
  4

  0
ENDTAB
  0
TABLE
  2
VIEW
  5
5
100
AcDbSymbolTable
 70
             0
  0
ENDTAB
  0
TABLE
  2
UCS
  5
6
100
AcDbSymbolTable
 70
             0
  0
ENDTAB
  0
TABLE
  2
APPID
  5
8
100
AcDbSymbolTable
 70
             1
  0
APPID
  5
16
100
AcDbSymbolTableRecord
100
AcDbRegAppTableRecord
  2
ACAD
 70
             0
  0
ENDTAB
  0
TABLE
  2
DIMSTYLE
  5
9
100
AcDbSymbolTable
 70
             1
  0
DIMSTYLE
105
18
100
AcDbSymbolTableRecord
100
AcDbDimStyleTableRecord
  2
STANDARD
 70
             0
  3

  4

  5

  6

  7

 40
1.0
 41
0.18
 42
0.0625
 43
0.38
 44
0.18
 45
0.0
 46
0.0
 47
0.0
 48
0.0
 71
             0
 72
             0
 73
             1
 74
             1
 75
             0
 76
             0
 77
             0
 78
             0
140
0.18
141
0.09
142
0.0
143
25.4
144
1.0
145
0.0
146
1.0
147
0.09
170
             0
171
             2
172
             0
173
             0
174
             0
175
             0
176
             0
177
             0
178
             0
270
             2
271
             4
272
             4
273
             2
274
             2
275
             0
280
             0
281
             0
282
             0
283
             1
284
             0
285
             0
286
             0
287
             0
288
             0
340
17
  0
ENDTAB
  0
TABLE
  2
BLOCK_RECORD
  5
1
100
AcDbSymbolTable
 70
             4
  0
BLOCK_RECORD
  5
A
100
AcDbSymbolTableRecord
100
AcDbBlockTableRecord
  2
*MODEL_SPACE
  0
BLOCK_RECORD
  5
B
100
AcDbSymbolTableRecord
100
AcDbBlockTableRecord
  2
*PAPER_SPACE
  0
BLOCK_RECORD
  5
26
100
AcDbSymbolTableRecord
100
AcDbBlockTableRecord
  2
PP4
  0
BLOCK_RECORD
  5
28
100
AcDbSymbolTableRecord
100
AcDbBlockTableRecord
  2
TOP__1
  0
BLOCK_RECORD
  5
2A
100
AcDbSymbolTableRecord
100
AcDbBlockTableRecord
  2
TOP__2
  0
BLOCK_RECORD
  5
2C
100
AcDbSymbolTableRecord
100
AcDbBlockTableRecord
  2
TOP__3
  0
ENDTAB
  0
ENDSEC
  0
SECTION
  2
BLOCKS
  0
BLOCK
  5
D
100
AcDbEntity
  8
0
100
AcDbBlockBegin
  2
*MODEL_SPACE
 70
             0
 10
0.0
 20
0.0
 30
0.0
  3
*MODEL_SPACE
  1

  0
ENDBLK
  5
E
100
AcDbEntity
  8
0
100
AcDbBlockEnd
  0
BLOCK
  5
F
100
AcDbEntity
 67
             1
  8
0
100
AcDbBlockBegin
  2
*PAPER_SPACE
 70
             0
 10
0.0
 20
0.0
 30
0.0
  3
*PAPER_SPACE
  1

  0
ENDBLK
  5
10
100
AcDbEntity
 67
             1
  8
0
100
AcDbBlockEnd
  0
BLOCK
  5
27
100
AcDbEntity
  8
0
100
AcDbBlockBegin
  2
PP4
 70
             0
 10
-96.98179999999999
 20
156.27625
 30
0.0
  3
PP4
  1

  0
ENDBLK
  5
34
100
AcDbEntity
  8
0
100
AcDbBlockEnd
  0
BLOCK
  5
29
100
AcDbEntity
  8
0
100
AcDbBlockBegin
  2
TOP__1
 70
             0
 10
-83.15677413524784
 20
80.54220542612708
 30
0.0
  3
TOP__1
  1

  0
ENDBLK
  5
35
100
AcDbEntity
  8
0
100
AcDbBlockEnd
  0
BLOCK
  5
2B
100
AcDbEntity
  8
0
100
AcDbBlockBegin
  2
TOP__2
 70
             0
 10
-183.80000000000001
 20
45.0
 30
0.0
  3
TOP__2
  1

  0
ENDBLK
  5
36
100
AcDbEntity
  8
0
100
AcDbBlockEnd
  0
BLOCK
  5
2D
100
AcDbEntity
  8
0
100
AcDbBlockBegin
  2
TOP__3
 70
             0
 10
-83.30000000000001
 20
46.0
 30
0.0
  3
TOP__3
  1

  0
ENDBLK
  5
37
100
AcDbEntity
  8
0
100
AcDbBlockEnd
  0
ENDSEC
  0
SECTION
  2
ENTITIES
  0
ARC
  5
3E8
100
AcDbEntity
  8
1
  6
CONTINUOUS
 62
             7
100
AcDbCircle
 10
-131.80000000000001
 20
68.5
 40
0.5
100
AcDbArc
 50
0.0
 51
90.0
  0
ARC
  5
3E7
100
AcDbEntity
  8
1
  6
CONTINUOUS
 62
             7
100
AcDbCircle
 10
-178.80000000000001
 20
68.5
 40
0.5
100
AcDbArc
 50
90.0
 51
180.0
  0
ARC
  5
3E6
100
AcDbEntity
  8
1
  6
CONTINUOUS
 62
             7
100
AcDbCircle
 10
-178.80000000000001
 20
21.5
 40
0.5
100
AcDbArc
 50
180.0
 51
-90.0
  0
ARC
  5
3E5
100
AcDbEntity
  8
1
  6
CONTINUOUS
 62
             7
100
AcDbCircle
 10
-131.80000000000001
 20
21.5
 40
0.5
100
AcDbArc
 50
-90.0
 51
0.0
  0
ARC
  5
3E4
100
AcDbEntity
  8
1
  6
CONTINUOUS
 62
             7
100
AcDbCircle
 10
-171.03720939308971
 20
44.70025
 40
0.50000000000002
100
AcDbArc
 50
144.03695903281573
 51
175.00000000000108
  0
ARC
  5
3E3
100
AcDbEntity
  8
1
  6
CONTINUOUS
 62
             7
100
AcDbCircle
 10
-169.23033368551171
 20
44.70025
 40
0.5
100
AcDbArc
 50
54.03695903281609
 51
90.0
  0
ARC
  5
3E2
100
AcDbEntity
  8
1
  6
CONTINUOUS
 62
             7
100
AcDbCircle
 10
-171.03720939308971
 20
44.70025
 40
0.5
100
AcDbArc
 50
90.0
 51
120.96304096718906
  0
ARC
  5
3E1
100
AcDbEntity
  8
1
  6
CONTINUOUS
 62
             7
100
AcDbCircle
 10
-169.23033368551171
 20
44.70025
 40
0.50000000000003
100
AcDbArc
 50
-5.00000000000027
 51
30.96304096718739
  0
ARC
  5
3E0
100
AcDbEntity
  8
1
  6
CONTINUOUS
 62
             7
100
AcDbCircle
 10
-171.36966631448831
 20
40.90025
 40
0.49999999999992
100
AcDbArc
 50
174.99999999999778
 51
-149.03695903281093
  0
ARC
  5
3DF
100
AcDbEntity
  8
1
  6
CONTINUOUS
 62
             7
100
AcDbCircle
 10
-169.5627906069102
 20
40.90025
 40
0.5
100
AcDbArc
 50
-90.0
 51
-59.03695903282128
  0
ARC
  5
3DE
100
AcDbEntity
  8
1
  6
CONTINUOUS
 62
             7
100
AcDbCircle
 10
-171.36966631448831
 20
40.90025
 40
0.49999999999999
100
AcDbArc
 50
-125.96304096718127
 51
-90.0
  0
ARC
  5
3DD
100
AcDbEntity
  8
1
  6
CONTINUOUS
 62
             7
100
AcDbCircle
 10
-169.5627906069102
 20
40.90025
 40
0.49999999999995
100
AcDbArc
 50
-35.9630409671887
 51
-5.0000000000006
  0
ARC
  5
3DC
100
AcDbEntity
  8
1
  6
CONTINUOUS
 62
             7
100
AcDbCircle
 10
-137.59999999999999
 20
60.0999
 40
1.19999999999999
100
AcDbArc
 50
0.0
 51
90.0
  0
ARC
  5
3DB
100
AcDbEntity
  8
1
  6
CONTINUOUS
 62
             7
100
AcDbCircle
 10
-173.0
 20
60.0999
 40
1.2
100
AcDbArc
 50
90.0
 51
180.0
  0
ARC
  5
3DA
100
AcDbEntity
  8
1
  6
CONTINUOUS
 62
             7
100
AcDbCircle
 10
-173.0
 20
39.7001
 40
1.19999999999999
100
AcDbArc
 50
180.0
 51
-90.0
  0
ARC
  5
3D9
100
AcDbEntity
  8
1
  6
CONTINUOUS
 62
             7
100
AcDbCircle
 10
-137.59999999999999
 20
39.7001
 40
1.2
100
AcDbArc
 50
-90.0
 51
0.00000000000068
  0
ARC
  5
3D8
100
AcDbEntity
  8
1
  6
CONTINUOUS
 62
             7
100
AcDbCircle
 10
-136.30000000000001
 20
28.50010000000003
 40
2.5
100
AcDbArc
 50
-90.0
 51
0.0
  0
ARC
  5
3D7
100
AcDbEntity
  8
1
  6
CONTINUOUS
 62
             7
100
AcDbCircle
 10
-174.30000000000001
 20
28.50010000000003
 40
2.5
100
AcDbArc
 50
180.0
 51
-90.0
  0
ARC
  5
3D6
100
AcDbEntity
  8
1
  6
CONTINUOUS
 62
             7
100
AcDbCircle
 10
-136.30000000000001
 20
62.19990000000002
 40
2.5
100
AcDbArc
 50
0.0
 51
90.0
  0
ARC
  5
3D5
100
AcDbEntity
  8
1
  6
CONTINUOUS
 62
             7
100
AcDbCircle
 10
-174.30000000000001
 20
62.19990000000002
 40
2.49999999999999
100
AcDbArc
 50
90.0
 51
180.0
  0
ARC
  5
3D4
100
AcDbEntity
  8
1
  6
CONTINUOUS
 62
             7
100
AcDbCircle
 10
-174.30000000000001
 20
62.19990000000002
 40
0.99999999999999
100
AcDbArc
 50
90.0
 51
180.0
  0
ARC
  5
3D3
100
AcDbEntity
  8
1
  6
CONTINUOUS
 62
             7
100
AcDbCircle
 10
-136.30000000000001
 20
62.19990000000002
 40
1.0
100
AcDbArc
 50
0.0
 51
90.0
  0
ARC
  5
3D2
100
AcDbEntity
  8
1
  6
CONTINUOUS
 62
             7
100
AcDbCircle
 10
-136.30000000000001
 20
36.00010000000003
 40
1.0
100
AcDbArc
 50
-90.0
 51
0.0
  0
ARC
  5
3D1
100
AcDbEntity
  8
1
  6
CONTINUOUS
 62
             7
100
AcDbCircle
 10
-174.30000000000001
 20
36.00010000000003
 40
1.0
100
AcDbArc
 50
180.0
 51
-90.0
  0
ARC
  5
3D0
100
AcDbEntity
  8
1
  6
CONTINUOUS
 62
             7
100
AcDbCircle
 10
-177.65000000000001
 20
67.34990000000001
 40
0.5
100
AcDbArc
 50
90.0
 51
180.0
  0
ARC
  5
3CF
100
AcDbEntity
  8
1
  6
CONTINUOUS
 62
             7
100
AcDbCircle
 10
-132.94999999999999
 20
67.34990000000001
 40
0.5
100
AcDbArc
 50
0.0
 51
90.0
  0
ARC
  5
3CE
100
AcDbEntity
  8
1
  6
CONTINUOUS
 62
             7
100
AcDbCircle
 10
-132.94999999999999
 20
22.65009999999999
 40
0.5
100
AcDbArc
 50
-90.0
 51
0.0
  0
ARC
  5
3CD
100
AcDbEntity
  8
1
  6
CONTINUOUS
 62
             7
100
AcDbCircle
 10
-177.65000000000001
 20
22.65009999999998
 40
0.5
100
AcDbArc
 50
179.99999999999878
 51
-90.0
  0
ARC
  5
3CC
100
AcDbEntity
  8
0
  6
CONTINUOUS
 62
             7
100
AcDbCircle
 10
-57.20000000000002
 20
61.86139990636706
 40
0.19999999999997
100
AcDbArc
 50
0.0
 51
69.44395478041392
  0
ARC
  5
3CB
100
AcDbEntity
  8
0
  6
CONTINUOUS
 62
             7
100
AcDbCircle
 10
-57.20000000000002
 20
63.63860009363292
 40
0.20000000000001
100
AcDbArc
 50
-69.44395478041535
 51
0.0
  0
ARC
  5
3CA
100
AcDbEntity
  8
0
  6
CONTINUOUS
 62
             7
100
AcDbCircle
 10
-58.20000000000002
 20
61.86139990636706
 40
0.19999999999997
100
AcDbArc
 50
0.0
 51
69.44395478041392
  0
ARC
  5
3C9
100
AcDbEntity
  8
0
  6
CONTINUOUS
 62
             7
100
AcDbCircle
 10
-58.20000000000002
 20
63.63860009363292
 40
0.20000000000001
100
AcDbArc
 50
-69.44395478041535
 51
0.0
  0
ARC
  5
3C8
100
AcDbEntity
  8
0
  6
CONTINUOUS
 62
             7
100
AcDbCircle
 10
-58.20000000000002
 20
56.53860009363293
 40
0.20000000000001
100
AcDbArc
 50
-69.44395478041463
 51
0.0
  0
ARC
  5
3C7
100
AcDbEntity
  8
0
  6
CONTINUOUS
 62
             7
100
AcDbCircle
 10
-58.20000000000002
 20
54.76139990636707
 40
0.19999999999997
100
AcDbArc
 50
0.0
 51
69.44395478041463
  0
ARC
  5
3C6
100
AcDbEntity
  8
0
  6
CONTINUOUS
 62
             7
100
AcDbCircle
 10
-57.20000000000002
 20
56.53860009363293
 40
0.20000000000001
100
AcDbArc
 50
-69.44395478041463
 51
0.0
  0
ARC
  5
3C5
100
AcDbEntity
  8
0
  6
CONTINUOUS
 62
             7
100
AcDbCircle
 10
-57.20000000000002
 20
54.76139990636707
 40
0.19999999999997
100
AcDbArc
 50
0.0
 51
69.44395478041463
  0
ARC
  5
3C4
100
AcDbEntity
  8
0
  6
CONTINUOUS
 62
             7
100
AcDbCircle
 10
-58.20000000000002
 20
49.43860009363294
 40
0.20000000000001
100
AcDbArc
 50
-69.44395478041463
 51
0.0
  0
ARC
  5
3C3
100
AcDbEntity
  8
0
  6
CONTINUOUS
 62
             7
100
AcDbCircle
 10
-58.20000000000002
 20
47.66139990636708
 40
0.19999999999997
100
AcDbArc
 50
0.0
 51
69.44395478041463
  0
ARC
  5
3C2
100
AcDbEntity
  8
0
  6
CONTINUOUS
 62
             7
100
AcDbCircle
 10
-57.20000000000002
 20
49.43860009363294
 40
0.20000000000001
100
AcDbArc
 50
-69.44395478041463
 51
0.0
  0
ARC
  5
3C1
100
AcDbEntity
  8
0
  6
CONTINUOUS
 62
             7
100
AcDbCircle
 10
-57.20000000000002
 20
47.66139990636708
 40
0.19999999999997
100
AcDbArc
 50
0.0
 51
69.44395478041463
  0
ARC
  5
3C0
100
AcDbEntity
  8
0
  6
CONTINUOUS
 62
             7
100
AcDbCircle
 10
-58.20000000000002
 20
42.33860009363296
 40
0.20000000000001
100
AcDbArc
 50
-69.44395478041535
 51
0.0
  0
ARC
  5
3BF
100
AcDbEntity
  8
0
  6
CONTINUOUS
 62
             7
100
AcDbCircle
 10
-58.20000000000002
 20
40.56139990636709
 40
0.19999999999997
100
AcDbArc
 50
0.0
 51
69.44395478041535
  0
ARC
  5
3BE
100
AcDbEntity
  8
0
  6
CONTINUOUS
 62
             7
100
AcDbCircle
 10
-57.20000000000002
 20
42.33860009363296
 40
0.20000000000001
100
AcDbArc
 50
-69.44395478041535
 51
0.0
  0
ARC
  5
3BD
100
AcDbEntity
  8
0
  6
CONTINUOUS
 62
             7
100
AcDbCircle
 10
-57.20000000000002
 20
40.56139990636709
 40
0.19999999999997
100
AcDbArc
 50
0.0
 51
69.44395478041535
  0
ARC
  5
3BC
100
AcDbEntity
  8
0
  6
CONTINUOUS
 62
             7
100
AcDbCircle
 10
-58.20000000000002
 20
35.23860009363297
 40
0.2
100
AcDbArc
 50
-69.44395478041392
 51
0.0
  0
ARC
  5
3BB
100
AcDbEntity
  8
0
  6
CONTINUOUS
 62
             7
100
AcDbCircle
 10
-58.20000000000002
 20
33.46139990636711
 40
0.19999999999997
100
AcDbArc
 50
0.0
 51
69.44395478041392
  0
ARC
  5
3BA
100
AcDbEntity
  8
0
  6
CONTINUOUS
 62
             7
100
AcDbCircle
 10
-57.20000000000002
 20
35.23860009363297
 40
0.2
100
AcDbArc
 50
-69.44395478041392
 51
0.0
  0
ARC
  5
3B9
100
AcDbEntity
  8
0
  6
CONTINUOUS
 62
             7
100
AcDbCircle
 10
-57.20000000000002
 20
33.46139990636711
 40
0.19999999999997
100
AcDbArc
 50
0.0
 51
69.44395478041392
  0
ARC
  5
3B8
100
AcDbEntity
  8
0
  6
CONTINUOUS
 62
             7
100
AcDbCircle
 10
-58.20000000000002
 20
28.13860009363298
 40
0.2
100
AcDbArc
 50
-69.44395478041427
 51
0.0
  0
ARC
  5
3B7
100
AcDbEntity
  8
0
  6
CONTINUOUS
 62
             7
100
AcDbCircle
 10
-58.20000000000002
 20
26.36139990636712
 40
0.19999999999997
100
AcDbArc
 50
0.0
 51
69.44395478041463
  0
ARC
  5
3B6
100
AcDbEntity
  8
0
  6
CONTINUOUS
 62
             7
100
AcDbCircle
 10
-57.20000000000002
 20
28.13860009363298
 40
0.2
100
AcDbArc
 50
-69.44395478041427
 51
0.0
  0
ARC
  5
3B5
100
AcDbEntity
  8
0
  6
CONTINUOUS
 62
             7
100
AcDbCircle
 10
-57.20000000000002
 20
26.36139990636712
 40
0.19999999999997
100
AcDbArc
 50
0.0
 51
69.44395478041463
  0
CIRCLE
  5
3B4
100
AcDbEntity
  8
1
  6
CONTINUOUS
 62
             7
100
AcDbCircle
 10
-162.17761163374789
 20
40.70025
 40
0.29999999999998
  0
CIRCLE
  5
3B3
100
AcDbEntity
  8
1
  6
CONTINUOUS
 62
             7
100
AcDbCircle
 10
-147.4776116337479
 20
40.70025
 40
0.30000000000001
  0
CIRCLE
  5
3B2
100
AcDbEntity
  8
1
  6
CONTINUOUS
 62
             7
100
AcDbCircle
 10
-152.3776116337479
 20
40.70025
 40
0.30000000000001
  0
CIRCLE
  5
3B1
100
AcDbEntity
  8
1
  6
CONTINUOUS
 62
             7
100
AcDbCircle
 10
-157.27761163374791
 20
40.70025
 40
0.2999999999999
  0
CIRCLE
  5
3B0
100
AcDbEntity
  8
1
  6
CONTINUOUS
 62
             7
100
AcDbCircle
 10
-149.69999999999999
 20
47.79995
 40
0.39999999999998
  0
CIRCLE
  5
3AF
100
AcDbEntity
  8
1
  6
CONTINUOUS
 62
             7
100
AcDbCircle
 10
-156.09999999999999
 20
47.79995
 40
0.40000000000001
  0
CIRCLE
  5
3AE
100
AcDbEntity
  8
1
  6
CONTINUOUS
 62
             7
100
AcDbCircle
 10
-162.5
 20
47.79995
 40
0.40000000000001
  0
CIRCLE
  5
3AD
100
AcDbEntity
  8
1
  6
CONTINUOUS
 62
             7
100
AcDbCircle
 10
-138.80000000000001
 20
30.60010000000003
 40
3.0
  0
CIRCLE
  5
3AC
100
AcDbEntity
  8
1
  6
CONTINUOUS
 62
             7
100
AcDbCircle
 10
-138.80000000000001
 20
30.60010000000003
 40
2.5
  0
ARC
  5
3AB
100
AcDbEntity
  8
1
  6
CONTINUOUS
 62
             7
100
AcDbCircle
 10
-115.0
 20
68.7
 40
0.3
100
AcDbArc
 50
90.0
 51
180.0
  0
ARC
  5
3AA
100
AcDbEntity
  8
1
  6
CONTINUOUS
 62
             7
100
AcDbCircle
 10
-115.0
 20
21.3
 40
0.3
100
AcDbArc
 50
180.0
 51
-90.0
  0
ARC
  5
3A9
100
AcDbEntity
  8
1
  6
CONTINUOUS
 62
             7
100
AcDbCircle
 10
-148.80000000000001
 20
30.60010000000003
 40
1.5
100
AcDbArc
 50
-90.0
 51
90.0
  0
ARC
  5
3A8
100
AcDbEntity
  8
1
  6
CONTINUOUS
 62
             7
100
AcDbCircle
 10
-150.80000000000001
 20
30.60010000000003
 40
1.5
100
AcDbArc
 50
90.0
 51
-90.0
  0
ARC
  5
3A7
100
AcDbEntity
  8
1
  6
CONTINUOUS
 62
             7
100
AcDbCircle
 10
-151.30000000000001
 20
30.60010000000003
 40
2.0
100
AcDbArc
 50
90.0
 51
-90.0
  0
ARC
  5
3A6
100
AcDbEntity
  8
1
  6
CONTINUOUS
 62
             7
100
AcDbCircle
 10
-148.30000000000001
 20
30.60010000000003
 40
2.0
100
AcDbArc
 50
-90.0
 51
90.0
  0
ARC
  5
3A5
100
AcDbEntity
  8
1
  6
CONTINUOUS
 62
             7
100
AcDbCircle
 10
-91.06087985837553
 20
73.25000000000001
 40
1.0
100
AcDbArc
 50
16.95776330000437
 51
90.0
  0
ARC
  5
3A4
100
AcDbEntity
  8
1
  6
CONTINUOUS
 62
             7
100
AcDbCircle
 10
-96.80000000000001
 20
71.50000000000001
 40
6.99999999999999
100
AcDbArc
 50
-16.95776330000421
 51
16.95776330000421
  0
ARC
  5
3A3
100
AcDbEntity
  8
1
  6
CONTINUOUS
 62
             7
100
AcDbCircle
 10
-91.06087985837553
 20
69.75000000000001
 40
1.0
100
AcDbArc
 50
-90.0
 51
-16.95776330000437
  0
ARC
  5
3A2
100
AcDbEntity
  8
1
  6
CONTINUOUS
 62
             7
100
AcDbCircle
 10
-91.06087985837553
 20
16.74999999999998
 40
1.0
100
AcDbArc
 50
-90.0
 51
-16.95776330000417
  0
ARC
  5
3A1
100
AcDbEntity
  8
1
  6
CONTINUOUS
 62
             7
100
AcDbCircle
 10
-96.80000000000001
 20
18.49999999999998
 40
6.99999999999999
100
AcDbArc
 50
-16.95776330000419
 51
16.95776330000421
  0
ARC
  5
3A0
100
AcDbEntity
  8
1
  6
CONTINUOUS
 62
             7
100
AcDbCircle
 10
-91.06087985837553
 20
20.24999999999998
 40
1.0
100
AcDbArc
 50
16.95776330000437
 51
90.0
  0
ARC
  5
39F
100
AcDbEntity
  8
0
  6
CONTINUOUS
 62
             7
100
AcDbCircle
 10
-56.2608798583755
 20
60.99999999999999
 40
1.0
100
AcDbArc
 50
-90.0
 51
-16.95776330000422
  0
ARC
  5
39E
100
AcDbEntity
  8
0
  6
CONTINUOUS
 62
             7
100
AcDbCircle
 10
-62.00000000000004
 20
62.74999999999999
 40
7.00000000000003
100
AcDbArc
 50
-16.95776330000406
 51
16.95776330000394
  0
ARC
  5
39D
100
AcDbEntity
  8
0
  6
CONTINUOUS
 62
             7
100
AcDbCircle
 10
-56.2608798583755
 20
64.49999999999999
 40
0.99999999999999
100
AcDbArc
 50
16.95776330000383
 51
90.0
  0
ARC
  5
39C
100
AcDbEntity
  8
0
  6
CONTINUOUS
 62
             7
100
AcDbCircle
 10
-56.2608798583755
 20
57.4
 40
0.99999999999999
100
AcDbArc
 50
16.95776330000422
 51
90.0
  0
ARC
  5
39B
100
AcDbEntity
  8
0
  6
CONTINUOUS
 62
             7
100
AcDbCircle
 10
-62.00000000000004
 20
55.65
 40
7.00000000000003
100
AcDbArc
 50
-16.957763300004
 51
16.95776330000406
  0
ARC
  5
39A
100
AcDbEntity
  8
0
  6
CONTINUOUS
 62
             7
100
AcDbCircle
 10
-56.2608798583755
 20
53.9
 40
1.0
100
AcDbArc
 50
-90.0
 51
-16.95776330000383
  0
ARC
  5
399
100
AcDbEntity
  8
0
  6
CONTINUOUS
 62
             7
100
AcDbCircle
 10
-56.2608798583755
 20
50.30000000000001
 40
0.99999999999999
100
AcDbArc
 50
16.95776330000383
 51
90.0
  0
ARC
  5
398
100
AcDbEntity
  8
0
  6
CONTINUOUS
 62
             7
100
AcDbCircle
 10
-62.00000000000004
 20
48.55000000000001
 40
7.00000000000003
100
AcDbArc
 50
-16.95776330000406
 51
16.957763300004
  0
ARC
  5
397
100
AcDbEntity
  8
0
  6
CONTINUOUS
 62
             7
100
AcDbCircle
 10
-56.2608798583755
 20
46.80000000000001
 40
1.0
100
AcDbArc
 50
-90.0
 51
-16.95776330000422
  0
ARC
  5
396
100
AcDbEntity
  8
0
  6
CONTINUOUS
 62
             7
100
AcDbCircle
 10
-56.2608798583755
 20
43.20000000000002
 40
0.99999999999999
100
AcDbArc
 50
16.95776330000422
 51
90.0
  0
ARC
  5
395
100
AcDbEntity
  8
0
  6
CONTINUOUS
 62
             7
100
AcDbCircle
 10
-62.00000000000004
 20
41.45000000000002
 40
7.00000000000002
100
AcDbArc
 50
-16.95776330000394
 51
16.95776330000406
  0
ARC
  5
394
100
AcDbEntity
  8
0
  6
CONTINUOUS
 62
             7
100
AcDbCircle
 10
-56.2608798583755
 20
39.70000000000002
 40
1.0
100
AcDbArc
 50
-90.0
 51
-16.95776330000344
  0
ARC
  5
393
100
AcDbEntity
  8
0
  6
CONTINUOUS
 62
             7
100
AcDbCircle
 10
-56.2608798583755
 20
36.10000000000004
 40
0.99999999999998
100
AcDbArc
 50
16.95776330000344
 51
90.0
  0
ARC
  5
392
100
AcDbEntity
  8
0
  6
CONTINUOUS
 62
             7
100
AcDbCircle
 10
-62.00000000000004
 20
34.35000000000004
 40
7.00000000000003
100
AcDbArc
 50
-16.957763300004
 51
16.95776330000394
  0
ARC
  5
391
100
AcDbEntity
  8
0
  6
CONTINUOUS
 62
             7
100
AcDbCircle
 10
-56.2608798583755
 20
32.60000000000004
 40
1.0
100
AcDbArc
 50
-90.0
 51
-16.95776330000383
  0
ARC
  5
390
100
AcDbEntity
  8
0
  6
CONTINUOUS
 62
             7
100
AcDbCircle
 10
-56.2608798583755
 20
29.00000000000005
 40
0.99999999999999
100
AcDbArc
 50
16.95776330000403
 51
90.0
  0
ARC
  5
38F
100
AcDbEntity
  8
0
  6
CONTINUOUS
 62
             7
100
AcDbCircle
 10
-62.00000000000004
 20
27.25000000000005
 40
7.00000000000003
100
AcDbArc
 50
-16.95776330000403
 51
16.95776330000403
  0
ARC
  5
38E
100
AcDbEntity
  8
0
  6
CONTINUOUS
 62
             7
100
AcDbCircle
 10
-56.2608798583755
 20
25.50000000000005
 40
1.0
100
AcDbArc
 50
-90.0
 51
-16.95776330000403
  0
LINE
  5
38D
100
AcDbEntity
  8
1
  6
CONTINUOUS
 62
             7
100
AcDbLine
 10
-115.0
 20
69.0
 11
-109.3
 21
69.0
  0
LINE
  5
38C
100
AcDbEntity
  8
1
  6
CONTINUOUS
 62
             7
100
AcDbLine
 10
-115.0
 20
21.0
 11
-109.3
 21
21.0
  0
LINE
  5
38B
100
AcDbEntity
  8
1
  6
CONTINUOUS
 62
             7
100
AcDbLine
 10
-115.3
 20
21.3
 11
-115.3
 21
68.7
  0
LINE
  5
38A
100
AcDbEntity
  8
1
  6
CONTINUOUS
 62
             7
100
AcDbLine
 10
-59.40000000000001
 20
67.25
 11
-54.30000000000001
 21
67.25
  0
LINE
  5
389
100
AcDbEntity
  8
1
  6
CONTINUOUS
 62
             7
100
AcDbLine
 10
-59.40000000000001
 20
22.75
 11
-54.30000000000001
 21
22.75
  0
LINE
  5
388
100
AcDbEntity
  8
1
  6
CONTINUOUS
 62
             7
100
AcDbLine
 10
-59.40000000000001
 20
67.25
 11
-59.40000000000001
 21
22.75
  0
LINE
  5
387
100
AcDbEntity
  8
1
  6
CONTINUOUS
 62
             7
100
AcDbLine
 10
-54.30000000000001
 20
67.25
 11
-53.80000000000001
 21
67.25
  0
LINE
  5
386
100
AcDbEntity
  8
1
  6
CONTINUOUS
 62
             7
100
AcDbLine
 10
-54.30000000000001
 20
22.75
 11
-53.80000000000001
 21
22.75
  0
LINE
  5
385
100
AcDbEntity
  8
1
  6
CONTINUOUS
 62
             7
100
AcDbLine
 10
-109.3
 20
21.0
 11
-109.3
 21
69.0
  0
LINE
  5
384
100
AcDbEntity
  8
1
  6
CONTINUOUS
 62
             7
100
AcDbLine
 10
-54.30000000000001
 20
58.64999999999999
 11
-59.40000000000001
 21
58.64999999999998
  0
LINE
  5
383
100
AcDbEntity
  8
1
  6
CONTINUOUS
 62
             7
100
AcDbLine
 10
-54.30000000000001
 20
51.55
 11
-59.40000000000001
 21
51.54999999999999
  0
LINE
  5
382
100
AcDbEntity
  8
1
  6
CONTINUOUS
 62
             7
100
AcDbLine
 10
-54.30000000000001
 20
45.55
 11
-59.40000000000001
 21
45.54999999999999
  0
LINE
  5
381
100
AcDbEntity
  8
1
  6
CONTINUOUS
 62
             7
100
AcDbLine
 10
-54.30000000000001
 20
44.45
 11
-59.40000000000001
 21
44.45
  0
LINE
  5
380
100
AcDbEntity
  8
1
  6
CONTINUOUS
 62
             7
100
AcDbLine
 10
-54.30000000000001
 20
38.45
 11
-59.40000000000001
 21
38.45
  0
LINE
  5
37F
100
AcDbEntity
  8
1
  6
CONTINUOUS
 62
             7
100
AcDbLine
 10
-54.30000000000001
 20
37.35000000000001
 11
-59.40000000000001
 21
37.35000000000007
  0
LINE
  5
37E
100
AcDbEntity
  8
1
  6
CONTINUOUS
 62
             7
100
AcDbLine
 10
-54.30000000000001
 20
31.35000000000001
 11
-59.40000000000001
 21
31.35
  0
LINE
  5
37D
100
AcDbEntity
  8
1
  6
CONTINUOUS
 62
             7
100
AcDbLine
 10
-54.30000000000001
 20
30.25000000000001
 11
-59.40000000000001
 21
30.25000000000001
  0
LINE
  5
37C
100
AcDbEntity
  8
1
  6
CONTINUOUS
 62
             7
100
AcDbLine
 10
-54.30000000000001
 20
24.25000000000001
 11
-59.40000000000001
 21
24.25000000000001
  0
LINE
  5
37B
100
AcDbEntity
  8
1
  6
CONTINUOUS
 62
             7
100
AcDbLine
 10
-53.30000000000001
 20
23.95000000000001
 11
-53.30000000000001
 21
23.25
  0
LINE
  5
37A
100
AcDbEntity
  8
1
  6
CONTINUOUS
 62
             7
100
AcDbLine
 10
-53.30000000000001
 20
31.05000000000001
 11
-53.30000000000001
 21
30.55000000000002
  0
LINE
  5
379
100
AcDbEntity
  8
1
  6
CONTINUOUS
 62
             7
100
AcDbLine
 10
-53.30000000000001
 20
38.15000000000001
 11
-53.30000000000001
 21
37.65000000000001
  0
LINE
  5
378
100
AcDbEntity
  8
1
  6
CONTINUOUS
 62
             7
100
AcDbLine
 10
-53.30000000000001
 20
45.25
 11
-53.30000000000001
 21
44.75
  0
LINE
  5
377
100
AcDbEntity
  8
1
  6
CONTINUOUS
 62
             7
100
AcDbLine
 10
-53.30000000000001
 20
52.34999999999999
 11
-53.30000000000001
 21
51.84999999999999
  0
LINE
  5
376
100
AcDbEntity
  8
1
  6
CONTINUOUS
 62
             7
100
AcDbLine
 10
-53.30000000000001
 20
59.45
 11
-53.30000000000001
 21
58.94999999999999
  0
LINE
  5
375
100
AcDbEntity
  8
1
  6
CONTINUOUS
 62
             7
100
AcDbLine
 10
-53.30000000000001
 20
66.75
 11
-53.30000000000001
 21
66.04999999999998
  0
LINE
  5
374
100
AcDbEntity
  8
1
  6
CONTINUOUS
 62
             7
100
AcDbLine
 10
-53.80000000000001
 20
67.25
 11
-53.30000000000001
 21
66.75
  0
LINE
  5
373
100
AcDbEntity
  8
1
  6
CONTINUOUS
 62
             7
100
AcDbLine
 10
-53.80000000000001
 20
22.75
 11
-53.30000000000001
 21
23.25
  0
LINE
  5
372
100
AcDbEntity
  8
1
  6
CONTINUOUS
 62
             7
100
AcDbLine
 10
-54.30000000000001
 20
67.25
 11
-54.30000000000001
 21
65.74999999999999
  0
LINE
  5
371
100
AcDbEntity
  8
1
  6
CONTINUOUS
 62
             7
100
AcDbLine
 10
-107.8
 20
67.25
 11
-103.8
 21
67.25
  0
LINE
  5
370
100
AcDbEntity
  8
1
  6
CONTINUOUS
 62
             7
100
AcDbLine
 10
-53.60000000000002
 20
65.74999999999999
 11
-54.30000000000001
 21
65.74999999999999
  0
LINE
  5
36F
100
AcDbEntity
  8
1
  6
CONTINUOUS
 62
             7
100
AcDbLine
 10
-54.30000000000001
 20
58.64999999999999
 11
-54.30000000000001
 21
59.74999999999999
  0
LINE
  5
36E
100
AcDbEntity
  8
1
  6
CONTINUOUS
 62
             7
100
AcDbLine
 10
-53.60000000000002
 20
59.74999999999999
 11
-54.30000000000001
 21
59.74999999999999
  0
LINE
  5
36D
100
AcDbEntity
  8
1
  6
CONTINUOUS
 62
             7
100
AcDbLine
 10
-53.60000000000002
 20
58.64999999999999
 11
-54.30000000000001
 21
58.64999999999999
  0
LINE
  5
36C
100
AcDbEntity
  8
1
  6
CONTINUOUS
 62
             7
100
AcDbLine
 10
-54.30000000000001
 20
51.55
 11
-54.30000000000001
 21
52.64999999999999
  0
LINE
  5
36B
100
AcDbEntity
  8
1
  6
CONTINUOUS
 62
             7
100
AcDbLine
 10
-53.60000000000002
 20
52.64999999999999
 11
-54.30000000000001
 21
52.64999999999999
  0
LINE
  5
36A
100
AcDbEntity
  8
1
  6
CONTINUOUS
 62
             7
100
AcDbLine
 10
-53.60000000000002
 20
51.55
 11
-54.30000000000001
 21
51.55
  0
LINE
  5
369
100
AcDbEntity
  8
1
  6
CONTINUOUS
 62
             7
100
AcDbLine
 10
-54.30000000000001
 20
44.45
 11
-54.30000000000001
 21
45.55
  0
LINE
  5
368
100
AcDbEntity
  8
1
  6
CONTINUOUS
 62
             7
100
AcDbLine
 10
-53.60000000000002
 20
45.55
 11
-54.30000000000001
 21
45.55
  0
LINE
  5
367
100
AcDbEntity
  8
1
  6
CONTINUOUS
 62
             7
100
AcDbLine
 10
-53.60000000000002
 20
44.45
 11
-54.30000000000001
 21
44.45
  0
LINE
  5
366
100
AcDbEntity
  8
1
  6
CONTINUOUS
 62
             7
100
AcDbLine
 10
-54.30000000000001
 20
37.35000000000001
 11
-54.30000000000001
 21
38.45
  0
LINE
  5
365
100
AcDbEntity
  8
1
  6
CONTINUOUS
 62
             7
100
AcDbLine
 10
-53.60000000000002
 20
38.45
 11
-54.30000000000001
 21
38.45
  0
LINE
  5
364
100
AcDbEntity
  8
1
  6
CONTINUOUS
 62
             7
100
AcDbLine
 10
-53.60000000000002
 20
37.35000000000001
 11
-54.30000000000001
 21
37.35000000000001
  0
LINE
  5
363
100
AcDbEntity
  8
1
  6
CONTINUOUS
 62
             7
100
AcDbLine
 10
-54.30000000000001
 20
30.25000000000001
 11
-54.30000000000001
 21
31.35000000000001
  0
LINE
  5
362
100
AcDbEntity
  8
1
  6
CONTINUOUS
 62
             7
100
AcDbLine
 10
-53.60000000000002
 20
31.35000000000001
 11
-54.30000000000001
 21
31.35000000000001
  0
LINE
  5
361
100
AcDbEntity
  8
1
  6
CONTINUOUS
 62
             7
100
AcDbLine
 10
-53.60000000000002
 20
30.25000000000001
 11
-54.30000000000001
 21
30.25000000000001
  0
LINE
  5
360
100
AcDbEntity
  8
1
  6
CONTINUOUS
 62
             7
100
AcDbLine
 10
-54.30000000000001
 20
22.75
 11
-54.30000000000001
 21
24.25000000000001
  0
LINE
  5
35F
100
AcDbEntity
  8
1
  6
CONTINUOUS
 62
             7
100
AcDbLine
 10
-107.8
 20
22.75000000000001
 11
-103.8
 21
22.75000000000001
  0
LINE
  5
35E
100
AcDbEntity
  8
1
  6
CONTINUOUS
 62
             7
100
AcDbLine
 10
-53.60000000000002
 20
24.25000000000001
 11
-54.30000000000001
 21
24.25000000000001
  0
LINE
  5
35D
100
AcDbEntity
  8
1
  6
CONTINUOUS
 62
             7
100
AcDbLine
 10
-53.30000000000001
 20
66.04999999999998
 11
-53.60000000000002
 21
65.74999999999999
  0
LINE
  5
35C
100
AcDbEntity
  8
1
  6
CONTINUOUS
 62
             7
100
AcDbLine
 10
-53.30000000000001
 20
59.45
 11
-53.60000000000002
 21
59.74999999999999
  0
LINE
  5
35B
100
AcDbEntity
  8
1
  6
CONTINUOUS
 62
             7
100
AcDbLine
 10
-53.30000000000001
 20
58.94999999999999
 11
-53.60000000000002
 21
58.64999999999999
  0
LINE
  5
35A
100
AcDbEntity
  8
1
  6
CONTINUOUS
 62
             7
100
AcDbLine
 10
-53.30000000000001
 20
52.34999999999999
 11
-53.60000000000002
 21
52.64999999999999
  0
LINE
  5
359
100
AcDbEntity
  8
1
  6
CONTINUOUS
 62
             7
100
AcDbLine
 10
-53.30000000000001
 20
51.84999999999999
 11
-53.60000000000002
 21
51.55
  0
LINE
  5
358
100
AcDbEntity
  8
1
  6
CONTINUOUS
 62
             7
100
AcDbLine
 10
-53.30000000000001
 20
45.25
 11
-53.60000000000002
 21
45.55
  0
LINE
  5
357
100
AcDbEntity
  8
1
  6
CONTINUOUS
 62
             7
100
AcDbLine
 10
-53.30000000000001
 20
44.75
 11
-53.60000000000002
 21
44.45
  0
LINE
  5
356
100
AcDbEntity
  8
1
  6
CONTINUOUS
 62
             7
100
AcDbLine
 10
-53.30000000000001
 20
38.15000000000001
 11
-53.60000000000002
 21
38.45
  0
LINE
  5
355
100
AcDbEntity
  8
1
  6
CONTINUOUS
 62
             7
100
AcDbLine
 10
-53.30000000000001
 20
37.65000000000001
 11
-53.60000000000002
 21
37.35000000000001
  0
LINE
  5
354
100
AcDbEntity
  8
1
  6
CONTINUOUS
 62
             7
100
AcDbLine
 10
-53.30000000000001
 20
31.05000000000001
 11
-53.60000000000002
 21
31.35000000000001
  0
LINE
  5
353
100
AcDbEntity
  8
1
  6
CONTINUOUS
 62
             7
100
AcDbLine
 10
-53.30000000000001
 20
30.55000000000002
 11
-53.60000000000002
 21
30.25000000000001
  0
LINE
  5
352
100
AcDbEntity
  8
1
  6
CONTINUOUS
 62
             7
100
AcDbLine
 10
-53.30000000000001
 20
23.95000000000001
 11
-53.60000000000002
 21
24.25000000000001
  0
LINE
  5
351
100
AcDbEntity
  8
1
  6
CONTINUOUS
 62
             7
100
AcDbLine
 10
-54.30000000000001
 20
65.74999999999999
 11
-59.40000000000001
 21
65.74999999999997
  0
LINE
  5
350
100
AcDbEntity
  8
1
  6
CONTINUOUS
 62
             7
100
AcDbLine
 10
-54.30000000000001
 20
59.74999999999999
 11
-59.40000000000001
 21
59.75
  0
LINE
  5
34F
100
AcDbEntity
  8
1
  6
CONTINUOUS
 62
             7
100
AcDbLine
 10
-59.40000000000001
 20
38.45
 11
-59.40000000000001
 21
44.45
  0
LINE
  5
34E
100
AcDbEntity
  8
1
  6
CONTINUOUS
 62
             7
100
AcDbLine
 10
-59.40000000000001
 20
45.54999999999999
 11
-59.40000000000001
 21
51.54999999999999
  0
LINE
  5
34D
100
AcDbEntity
  8
1
  6
CONTINUOUS
 62
             7
100
AcDbLine
 10
-59.40000000000001
 20
52.64999999999998
 11
-59.40000000000001
 21
58.64999999999998
  0
LINE
  5
34C
100
AcDbEntity
  8
1
  6
CONTINUOUS
 62
             7
100
AcDbLine
 10
-59.40000000000001
 20
59.75
 11
-59.40000000000001
 21
65.74999999999997
  0
LINE
  5
34B
100
AcDbEntity
  8
1
  6
CONTINUOUS
 62
             7
100
AcDbLine
 10
-59.40000000000001
 20
31.35
 11
-59.40000000000001
 21
37.35000000000007
  0
LINE
  5
34A
100
AcDbEntity
  8
1
  6
CONTINUOUS
 62
             7
100
AcDbLine
 10
-59.40000000000001
 20
24.25000000000001
 11
-59.40000000000001
 21
30.25000000000001
  0
LINE
  5
349
100
AcDbEntity
  8
1
  6
CONTINUOUS
 62
             7
100
AcDbLine
 10
-93.8
 20
26.0
 11
-60.30000000000001
 21
26.0
  0
LINE
  5
348
100
AcDbEntity
  8
1
  6
CONTINUOUS
 62
             7
100
AcDbLine
 10
-60.30000000000001
 20
26.0
 11
-60.30000000000001
 21
64.0
  0
LINE
  5
347
100
AcDbEntity
  8
1
  6
CONTINUOUS
 62
             7
100
AcDbLine
 10
-94.8
 20
64.0
 11
-60.30000000000001
 21
64.0
  0
LINE
  5
346
100
AcDbEntity
  8
1
  6
CONTINUOUS
 62
             7
100
AcDbLine
 10
-94.8
 20
64.0
 11
-94.80000000000001
 21
27.0
  0
LINE
  5
345
100
AcDbEntity
  8
1
  6
CONTINUOUS
 62
             7
100
AcDbLine
 10
-94.80000000000001
 20
27.0
 11
-93.8
 21
26.0
  0
LINE
  5
344
100
AcDbEntity
  8
1
  6
CONTINUOUS
 62
             7
100
AcDbLine
 10
-178.80000000000001
 20
21.0
 11
-131.80000000000001
 21
21.0
  0
LINE
  5
343
100
AcDbEntity
  8
1
  6
CONTINUOUS
 62
             7
100
AcDbLine
 10
-131.30000000000001
 20
21.5
 11
-131.30000000000001
 21
68.5
  0
LINE
  5
342
100
AcDbEntity
  8
1
  6
CONTINUOUS
 62
             7
100
AcDbLine
 10
-131.80000000000001
 20
69.0
 11
-178.80000000000001
 21
69.0
  0
LINE
  5
341
100
AcDbEntity
  8
1
  6
CONTINUOUS
 62
             7
100
AcDbLine
 10
-179.30000000000001
 20
68.5
 11
-179.30000000000001
 21
21.5
  0
LINE
  5
340
100
AcDbEntity
  8
1
  6
CONTINUOUS
 62
             7
100
AcDbLine
 10
-95.8
 20
67.25
 11
-59.40000000000001
 21
67.25
  0
LINE
  5
33F
100
AcDbEntity
  8
1
  6
CONTINUOUS
 62
             7
100
AcDbLine
 10
-95.8
 20
22.75000000000001
 11
-59.40000000000001
 21
22.75
  0
LINE
  5
33E
100
AcDbEntity
  8
1
  6
CONTINUOUS
 62
             7
100
AcDbLine
 10
-54.30000000000001
 20
52.64999999999999
 11
-59.40000000000001
 21
52.64999999999998
  0
LINE
  5
33D
100
AcDbEntity
  8
1
  6
CONTINUOUS
 62
             7
100
AcDbLine
 10
-109.3
 20
69.0
 11
-107.8
 21
69.0
  0
LINE
  5
33C
100
AcDbEntity
  8
1
  6
CONTINUOUS
 62
             7
100
AcDbLine
 10
-107.8
 20
69.0
 11
-107.8
 21
21.0
  0
LINE
  5
33B
100
AcDbEntity
  8
1
  6
CONTINUOUS
 62
             7
100
AcDbLine
 10
-107.8
 20
21.0
 11
-109.3
 21
21.0
  0
LINE
  5
33A
100
AcDbEntity
  8
PV
  6
CONTINUOUS
 62
             7
100
AcDbLine
 10
-173.0
 20
61.2999
 11
-137.59999999999999
 21
61.2999
  0
LINE
  5
339
100
AcDbEntity
  8
1
  6
CONTINUOUS
 62
             7
100
AcDbLine
 10
-171.03720939308971
 20
45.20025
 11
-169.23033368551171
 21
45.20025
  0
LINE
  5
338
100
AcDbEntity
  8
1
  6
CONTINUOUS
 62
             7
100
AcDbLine
 10
-168.7322363364658
 20
44.65667212862616
 11
-168.85987937978871
 21
43.19770546736201
  0
LINE
  5
337
100
AcDbEntity
  8
1
  6
CONTINUOUS
 62
             7
100
AcDbLine
 10
-171.29445191618461
 20
45.12899967558215
 11
-170.90157522259881
 21
44.70025
  0
LINE
  5
336
100
AcDbEntity
  8
1
  6
CONTINUOUS
 62
             7
100
AcDbLine
 10
-170.90157522259881
 20
44.70025
 11
-169.37835240880401
 21
44.70025
  0
LINE
  5
335
100
AcDbEntity
  8
1
  6
CONTINUOUS
 62
             7
100
AcDbLine
 10
-171.04903068996089
 20
44.56513195847687
 11
-171.44190738354661
 21
44.99388163405902
  0
LINE
  5
334
100
AcDbEntity
  8
1
  6
CONTINUOUS
 62
             7
100
AcDbLine
 10
-169.37835240880401
 20
44.70025
 11
-168.9367020514527
 21
45.10494799045688
  0
LINE
  5
333
100
AcDbEntity
  8
1
  6
CONTINUOUS
 62
             7
100
AcDbLine
 10
-169.24323436728079
 20
44.55279453263798
 11
-168.8015840099296
 21
44.95749252309486
  0
LINE
  5
332
100
AcDbEntity
  8
1
  6
CONTINUOUS
 62
             7
100
AcDbLine
 10
-169.24323436728079
 20
44.55279453263798
 11
-169.3628686834584
 21
43.18536804152315
  0
LINE
  5
331
100
AcDbEntity
  8
1
  6
CONTINUOUS
 62
             7
100
AcDbLine
 10
-171.6716543098081
 20
43.18536804152315
 11
-171.4482241002554
 21
42.94153675444258
  0
LINE
  5
330
100
AcDbEntity
  8
1
  6
CONTINUOUS
 62
             7
100
AcDbLine
 10
-171.6716543098081
 20
43.18536804152315
 11
-171.53530674213559
 21
44.74382787137382
  0
LINE
  5
32F
100
AcDbEntity
  8
1
  6
CONTINUOUS
 62
             7
100
AcDbLine
 10
-171.4482241002554
 20
42.94153675444258
 11
-171.16866500613841
 21
43.19770546736203
  0
LINE
  5
32E
100
AcDbEntity
  8
1
  6
CONTINUOUS
 62
             7
100
AcDbLine
 10
-171.16866500613841
 20
43.19770546736203
 11
-171.04903068996089
 21
44.56513195847687
  0
LINE
  5
32D
100
AcDbEntity
  8
1
  6
CONTINUOUS
 62
             7
100
AcDbLine
 10
-171.03354696461531
 20
43.05025000000001
 11
-171.3131060587323
 21
42.79408128708056
  0
LINE
  5
32C
100
AcDbEntity
  8
1
  6
CONTINUOUS
 62
             7
100
AcDbLine
 10
-171.3131060587323
 20
42.79408128708056
 11
-171.0896758491796
 21
42.55025000000001
  0
LINE
  5
32B
100
AcDbEntity
  8
1
  6
CONTINUOUS
 62
             7
100
AcDbLine
 10
-171.0896758491796
 20
42.55025000000001
 11
-169.56645303538471
 21
42.55025000000001
  0
LINE
  5
32A
100
AcDbEntity
  8
1
  6
CONTINUOUS
 62
             7
100
AcDbLine
 10
-169.5103241508204
 20
43.05025000000001
 11
-169.28689394126769
 21
42.80641871291945
  0
LINE
  5
329
100
AcDbEntity
  8
1
  6
CONTINUOUS
 62
             7
100
AcDbLine
 10
-169.5103241508204
 20
43.05025000000001
 11
-171.03354696461531
 21
43.05025000000001
  0
LINE
  5
328
100
AcDbEntity
  8
1
  6
CONTINUOUS
 62
             7
100
AcDbLine
 10
-169.28689394126769
 20
42.80641871291945
 11
-169.56645303538471
 21
42.55025000000001
  0
LINE
  5
327
100
AcDbEntity
  8
1
  6
CONTINUOUS
 62
             7
100
AcDbLine
 10
-169.3628686834584
 20
43.18536804152315
 11
-169.1394384739057
 21
42.94153675444258
  0
LINE
  5
326
100
AcDbEntity
  8
1
  6
CONTINUOUS
 62
             7
100
AcDbLine
 10
-169.1394384739057
 20
42.94153675444258
 11
-168.85987937978871
 21
43.19770546736201
  0
LINE
  5
325
100
AcDbEntity
  8
1
  6
CONTINUOUS
 62
             7
100
AcDbLine
 10
-170.91624142248
 20
43.78817758189481
 11
-170.85394315828631
 21
44.50025000000001
  0
LINE
  5
324
100
AcDbEntity
  8
1
  6
CONTINUOUS
 62
             7
100
AcDbLine
 10
-170.85394315828631
 20
44.50025000000001
 11
-170.33367187781579
 21
43.56275000000001
  0
LINE
  5
323
100
AcDbEntity
  8
1
  6
CONTINUOUS
 62
             7
100
AcDbLine
 10
-170.33367187781579
 20
43.56275000000001
 11
-170.36101208516769
 21
43.25025000000001
  0
LINE
  5
322
100
AcDbEntity
  8
1
  6
CONTINUOUS
 62
             7
100
AcDbLine
 10
-170.36101208516769
 20
43.25025000000001
 11
-170.61771526585829
 21
43.25025000000001
  0
LINE
  5
321
100
AcDbEntity
  8
1
  6
CONTINUOUS
 62
             7
100
AcDbLine
 10
-170.61771526585829
 20
43.25025000000001
 11
-170.91624142248
 21
43.78817758189481
  0
LINE
  5
320
100
AcDbEntity
  8
1
  6
CONTINUOUS
 62
             7
100
AcDbLine
 10
-170.16024811765899
 20
43.25025000000001
 11
-170.1329079103071
 21
43.56275000000001
  0
LINE
  5
31F
100
AcDbEntity
  8
1
  6
CONTINUOUS
 62
             7
100
AcDbLine
 10
-170.1329079103071
 20
43.56275000000001
 11
-169.44859538572561
 21
44.50025000000001
  0
LINE
  5
31E
100
AcDbEntity
  8
1
  6
CONTINUOUS
 62
             7
100
AcDbLine
 10
-169.44859538572561
 20
44.50025000000001
 11
-169.5160356332145
 21
43.72940444389046
  0
LINE
  5
31D
100
AcDbEntity
  8
1
  6
CONTINUOUS
 62
             7
100
AcDbLine
 10
-169.5160356332145
 20
43.72940444389046
 11
-169.86578644618851
 21
43.25025000000001
  0
LINE
  5
31C
100
AcDbEntity
  8
1
  6
CONTINUOUS
 62
             7
100
AcDbLine
 10
-169.86578644618851
 20
43.25025000000001
 11
-170.16024811765899
 21
43.25025000000001
  0
LINE
  5
31B
100
AcDbEntity
  8
1
  6
CONTINUOUS
 62
             7
100
AcDbLine
 10
-170.73421355381149
 20
42.35025
 11
-170.439751882341
 21
42.35025
  0
LINE
  5
31A
100
AcDbEntity
  8
1
  6
CONTINUOUS
 62
             7
100
AcDbLine
 10
-171.08396436678549
 20
41.87109555610954
 11
-170.73421355381149
 21
42.35025
  0
LINE
  5
319
100
AcDbEntity
  8
1
  6
CONTINUOUS
 62
             7
100
AcDbLine
 10
-171.15140461427441
 20
41.10025
 11
-171.08396436678549
 21
41.87109555610954
  0
LINE
  5
318
100
AcDbEntity
  8
1
  6
CONTINUOUS
 62
             7
100
AcDbLine
 10
-170.46709208969281
 20
42.03775
 11
-171.15140461427441
 21
41.10025
  0
LINE
  5
317
100
AcDbEntity
  8
1
  6
CONTINUOUS
 62
             7
100
AcDbLine
 10
-170.439751882341
 20
42.35025
 11
-170.46709208969281
 21
42.03775
  0
LINE
  5
316
100
AcDbEntity
  8
1
  6
CONTINUOUS
 62
             7
100
AcDbLine
 10
-169.9822847341417
 20
42.35025
 11
-169.68375857752
 21
41.81232241810518
  0
LINE
  5
315
100
AcDbEntity
  8
1
  6
CONTINUOUS
 62
             7
100
AcDbLine
 10
-170.23898791483231
 20
42.35025
 11
-169.9822847341417
 21
42.35025
  0
LINE
  5
314
100
AcDbEntity
  8
1
  6
CONTINUOUS
 62
             7
100
AcDbLine
 10
-170.26632812218421
 20
42.03774999999999
 11
-170.23898791483231
 21
42.35025
  0
LINE
  5
313
100
AcDbEntity
  8
1
  6
CONTINUOUS
 62
             7
100
AcDbLine
 10
-169.74605684171371
 20
41.10025
 11
-170.26632812218421
 21
42.03774999999999
  0
LINE
  5
312
100
AcDbEntity
  8
1
  6
CONTINUOUS
 62
             7
100
AcDbLine
 10
-169.68375857752
 20
41.81232241810518
 11
-169.74605684171371
 21
41.10025
  0
LINE
  5
311
100
AcDbEntity
  8
1
  6
CONTINUOUS
 62
             7
100
AcDbLine
 10
-169.43133499386161
 20
42.40279453263797
 11
-169.55096931003911
 21
41.03536804152314
  0
LINE
  5
310
100
AcDbEntity
  8
1
  6
CONTINUOUS
 62
             7
100
AcDbLine
 10
-168.92834569019189
 20
42.41513195847686
 11
-169.06469325786441
 21
40.85667212862617
  0
LINE
  5
30F
100
AcDbEntity
  8
1
  6
CONTINUOUS
 62
             7
100
AcDbLine
 10
-171.3567656327192
 20
41.04770546736202
 11
-171.23713131654159
 21
42.41513195847686
  0
LINE
  5
30E
100
AcDbEntity
  8
1
  6
CONTINUOUS
 62
             7
100
AcDbLine
 10
-171.3567656327192
 20
41.04770546736202
 11
-171.7984159900704
 21
40.64300747690514
  0
LINE
  5
30D
100
AcDbEntity
  8
1
  6
CONTINUOUS
 62
             7
100
AcDbLine
 10
-171.2216475911961
 20
40.90025
 11
-171.6632979485473
 21
40.49555200954312
  0
LINE
  5
30C
100
AcDbEntity
  8
1
  6
CONTINUOUS
 62
             7
100
AcDbLine
 10
-169.55096931003911
 20
41.03536804152314
 11
-169.15809261645339
 21
40.60661836594099
  0
LINE
  5
30B
100
AcDbEntity
  8
1
  6
CONTINUOUS
 62
             7
100
AcDbLine
 10
-169.69842477740119
 20
40.90025
 11
-171.2216475911961
 21
40.90025
  0
LINE
  5
30A
100
AcDbEntity
  8
1
  6
CONTINUOUS
 62
             7
100
AcDbLine
 10
-169.30554808381541
 20
40.47150032441786
 11
-169.69842477740119
 21
40.90025
  0
LINE
  5
309
100
AcDbEntity
  8
1
  6
CONTINUOUS
 62
             7
100
AcDbLine
 10
-171.86776366353411
 20
40.94382787137384
 11
-171.74012062021129
 21
42.402794532638
  0
LINE
  5
308
100
AcDbEntity
  8
1
  6
CONTINUOUS
 62
             7
100
AcDbLine
 10
-169.5627906069102
 20
40.40025
 11
-171.36966631448831
 21
40.40025
  0
LINE
  5
307
100
AcDbEntity
  8
1
  6
CONTINUOUS
 62
             7
100
AcDbLine
 10
-169.15177589974459
 20
42.65896324555743
 11
-169.43133499386161
 21
42.40279453263797
  0
LINE
  5
306
100
AcDbEntity
  8
1
  6
CONTINUOUS
 62
             7
100
AcDbLine
 10
-168.92834569019189
 20
42.41513195847686
 11
-169.15177589974459
 21
42.65896324555743
  0
LINE
  5
305
100
AcDbEntity
  8
1
  6
CONTINUOUS
 62
             7
100
AcDbLine
 10
-171.4605615260943
 20
42.65896324555743
 11
-171.74012062021129
 21
42.402794532638
  0
LINE
  5
304
100
AcDbEntity
  8
1
  6
CONTINUOUS
 62
             7
100
AcDbLine
 10
-171.23713131654159
 20
42.41513195847686
 11
-171.4605615260943
 21
42.65896324555743
  0
LINE
  5
303
100
AcDbEntity
  8
1
  6
CONTINUOUS
 62
             7
100
AcDbLine
 10
-165.40000000000001
 20
43.79995
 11
-165.40000000000001
 21
42.99995
  0
LINE
  5
302
100
AcDbEntity
  8
1
  6
CONTINUOUS
 62
             7
100
AcDbLine
 10
-163.59999999999999
 20
43.79995
 11
-165.40000000000001
 21
43.79995
  0
LINE
  5
301
100
AcDbEntity
  8
1
  6
CONTINUOUS
 62
             7
100
AcDbLine
 10
-163.59999999999999
 20
42.99995
 11
-163.59999999999999
 21
43.79995
  0
LINE
  5
300
100
AcDbEntity
  8
1
  6
CONTINUOUS
 62
             7
100
AcDbLine
 10
-165.40000000000001
 20
42.99995
 11
-163.59999999999999
 21
42.99995
  0
LINE
  5
2FF
100
AcDbEntity
  8
1
  6
CONTINUOUS
 62
             7
100
AcDbLine
 10
-160.5596689160862
 20
42.18805644891104
 11
-160.05586268305211
 21
42.9001
  0
LINE
  5
2FE
100
AcDbEntity
  8
1
  6
CONTINUOUS
 62
             7
100
AcDbLine
 10
-159.0776385882877
 20
42.9001
 11
-158.65890345863679
 21
42.11384987606648
  0
LINE
  5
2FD
100
AcDbEntity
  8
1
  6
CONTINUOUS
 62
             7
100
AcDbLine
 10
-159.6724534783163
 20
42.57631904761905
 11
-160.64609078212371
 21
41.20025
  0
LINE
  5
2FC
100
AcDbEntity
  8
1
  6
CONTINUOUS
 62
             7
100
AcDbLine
 10
-160.64609078212371
 20
41.20025
 11
-160.5596689160862
 21
42.18805644891104
  0
LINE
  5
2FB
100
AcDbEntity
  8
1
  6
CONTINUOUS
 62
             7
100
AcDbLine
 10
-158.65890345863679
 20
42.11384987606648
 11
-158.7388330907913
 21
41.20025
  0
LINE
  5
2FA
100
AcDbEntity
  8
1
  6
CONTINUOUS
 62
             7
100
AcDbLine
 10
-158.7388330907913
 20
41.20025
 11
-159.47168951080761
 21
42.57631904761905
  0
LINE
  5
2F9
100
AcDbEntity
  8
1
  6
CONTINUOUS
 62
             7
100
AcDbLine
 10
-159.6441263155173
 20
42.9001
 11
-159.6724534783163
 21
42.57631904761905
  0
LINE
  5
2F8
100
AcDbEntity
  8
1
  6
CONTINUOUS
 62
             7
100
AcDbLine
 10
-160.05586268305211
 20
42.9001
 11
-159.6441263155173
 21
42.9001
  0
LINE
  5
2F7
100
AcDbEntity
  8
1
  6
CONTINUOUS
 62
             7
100
AcDbLine
 10
-159.47168951080761
 20
42.57631904761905
 11
-159.44336234800861
 21
42.9001
  0
LINE
  5
2F6
100
AcDbEntity
  8
1
  6
CONTINUOUS
 62
             7
100
AcDbLine
 10
-159.44336234800861
 20
42.9001
 11
-159.0776385882877
 21
42.9001
  0
LINE
  5
2F5
100
AcDbEntity
  8
1
  6
CONTINUOUS
 62
             7
100
AcDbLine
 10
-158.94413731694789
 20
43.9001
 11
-159.3558736844827
 21
43.9001
  0
LINE
  5
2F4
100
AcDbEntity
  8
1
  6
CONTINUOUS
 62
             7
100
AcDbLine
 10
-158.4403310839138
 20
44.61214355108895
 11
-158.94413731694789
 21
43.9001
  0
LINE
  5
2F3
100
AcDbEntity
  8
1
  6
CONTINUOUS
 62
             7
100
AcDbLine
 10
-158.35390921787629
 20
45.59994999999999
 11
-158.4403310839138
 21
44.61214355108895
  0
LINE
  5
2F2
100
AcDbEntity
  8
1
  6
CONTINUOUS
 62
             7
100
AcDbLine
 10
-159.32754652168379
 20
44.22388095238095
 11
-158.35390921787629
 21
45.59994999999999
  0
LINE
  5
2F1
100
AcDbEntity
  8
1
  6
CONTINUOUS
 62
             7
100
AcDbLine
 10
-159.3558736844827
 20
43.9001
 11
-159.32754652168379
 21
44.22388095238095
  0
LINE
  5
2F0
100
AcDbEntity
  8
1
  6
CONTINUOUS
 62
             7
100
AcDbLine
 10
-159.92236141171239
 20
43.9001
 11
-160.34109654136321
 21
44.68635012393351
  0
LINE
  5
2EF
100
AcDbEntity
  8
1
  6
CONTINUOUS
 62
             7
100
AcDbLine
 10
-159.55663765199139
 20
43.9001
 11
-159.92236141171239
 21
43.9001
  0
LINE
  5
2EE
100
AcDbEntity
  8
1
  6
CONTINUOUS
 62
             7
100
AcDbLine
 10
-159.52831048919239
 20
44.22388095238095
 11
-159.55663765199139
 21
43.9001
  0
LINE
  5
2ED
100
AcDbEntity
  8
1
  6
CONTINUOUS
 62
             7
100
AcDbLine
 10
-160.2611669092087
 20
45.59994999999999
 11
-159.52831048919239
 21
44.22388095238095
  0
LINE
  5
2EC
100
AcDbEntity
  8
1
  6
CONTINUOUS
 62
             7
100
AcDbLine
 10
-160.34109654136321
 20
44.68635012393351
 11
-160.2611669092087
 21
45.59994999999999
  0
LINE
  5
2EB
100
AcDbEntity
  8
1
  6
CONTINUOUS
 62
             7
100
AcDbLine
 10
-160.6924607091037
 20
42.96498195847686
 11
-160.96170747735729
 21
43.25881324555742
  0
LINE
  5
2EA
100
AcDbEntity
  8
1
  6
CONTINUOUS
 62
             7
100
AcDbLine
 10
-160.96170747735729
 20
43.25881324555742
 11
-161.29583199652771
 21
42.95264453263798
  0
LINE
  5
2E9
100
AcDbEntity
  8
1
  6
CONTINUOUS
 62
             7
100
AcDbLine
 10
-157.781383180228
 20
42.96498195847687
 11
-158.0506299484816
 21
43.25881324555742
  0
LINE
  5
2E8
100
AcDbEntity
  8
1
  6
CONTINUOUS
 62
             7
100
AcDbLine
 10
-158.0506299484816
 20
43.25881324555742
 11
-158.3847544676521
 21
42.95264453263798
  0
LINE
  5
2E7
100
AcDbEntity
  8
1
  6
CONTINUOUS
 62
             7
100
AcDbLine
 10
-160.61524553234801
 20
43.84755546736203
 11
-160.4562544408833
 21
45.66483195847687
  0
LINE
  5
2E6
100
AcDbEntity
  8
1
  6
CONTINUOUS
 62
             7
100
AcDbLine
 10
-160.9493700515184
 20
43.54138675444257
 11
-160.61524553234801
 21
43.84755546736203
  0
LINE
  5
2E5
100
AcDbEntity
  8
1
  6
CONTINUOUS
 62
             7
100
AcDbLine
 10
-161.218616819772
 20
43.83521804152312
 11
-160.9493700515184
 21
43.54138675444257
  0
LINE
  5
2E4
100
AcDbEntity
  8
1
  6
CONTINUOUS
 62
             7
100
AcDbLine
 10
-158.03829252264271
 20
43.54138675444257
 11
-157.70416800347229
 21
43.84755546736203
  0
LINE
  5
2E3
100
AcDbEntity
  8
1
  6
CONTINUOUS
 62
             7
100
AcDbLine
 10
-158.3075392908963
 20
43.83521804152312
 11
-158.03829252264271
 21
43.54138675444257
  0
LINE
  5
2E2
100
AcDbEntity
  8
1
  6
CONTINUOUS
 62
             7
100
AcDbLine
 10
-158.1857479900047
 20
43.40626871291944
 11
-158.5198725091752
 21
43.1001
  0
LINE
  5
2E1
100
AcDbEntity
  8
1
  6
CONTINUOUS
 62
             7
100
AcDbLine
 10
-158.45499475825829
 20
43.70009999999999
 11
-160.48012749082491
 21
43.70009999999999
  0
LINE
  5
2E0
100
AcDbEntity
  8
1
  6
CONTINUOUS
 62
             7
100
AcDbLine
 10
-158.45499475825829
 20
43.70009999999999
 11
-158.1857479900047
 21
43.40626871291944
  0
LINE
  5
2DF
100
AcDbEntity
  8
1
  6
CONTINUOUS
 62
             7
100
AcDbLine
 10
-160.8142520099953
 20
43.39393128708056
 11
-160.48012749082491
 21
43.70009999999999
  0
LINE
  5
2DE
100
AcDbEntity
  8
1
  6
CONTINUOUS
 62
             7
100
AcDbLine
 10
-160.54500524174171
 20
43.1001
 11
-158.5198725091752
 21
43.1001
  0
LINE
  5
2DD
100
AcDbEntity
  8
1
  6
CONTINUOUS
 62
             7
100
AcDbLine
 10
-160.54500524174171
 20
43.1001
 11
-160.8142520099953
 21
43.39393128708056
  0
LINE
  5
2DC
100
AcDbEntity
  8
1
  6
CONTINUOUS
 62
             7
100
AcDbLine
 10
-158.14854819943159
 20
45.65249453263799
 11
-158.3075392908963
 21
43.83521804152312
  0
LINE
  5
2DB
100
AcDbEntity
  8
1
  6
CONTINUOUS
 62
             7
100
AcDbLine
 10
-160.30879897352131
 20
45.79995
 11
-158.28366624095469
 21
45.79995
  0
LINE
  5
2DA
100
AcDbEntity
  8
1
  6
CONTINUOUS
 62
             7
100
AcDbLine
 10
-172.30000000000001
 20
53.89995
 11
-172.30000000000001
 21
52.89995
  0
LINE
  5
2D9
100
AcDbEntity
  8
1
  6
CONTINUOUS
 62
             7
100
AcDbLine
 10
-170.30000000000001
 20
53.89995
 11
-172.30000000000001
 21
53.89995
  0
LINE
  5
2D8
100
AcDbEntity
  8
1
  6
CONTINUOUS
 62
             7
100
AcDbLine
 10
-170.30000000000001
 20
52.89995
 11
-170.30000000000001
 21
53.89995
  0
LINE
  5
2D7
100
AcDbEntity
  8
1
  6
CONTINUOUS
 62
             7
100
AcDbLine
 10
-172.30000000000001
 20
52.89995
 11
-170.30000000000001
 21
52.89995
  0
LINE
  5
2D6
100
AcDbEntity
  8
1
  6
CONTINUOUS
 62
             7
100
AcDbLine
 10
-147.0655991504577
 20
58.39995
 11
-147.6166243926813
 21
59.00128853114234
  0
LINE
  5
2D5
100
AcDbEntity
  8
1
  6
CONTINUOUS
 62
             7
100
AcDbLine
 10
-147.6166243926813
 20
59.00128853114234
 11
-147.18156174266821
 21
59.39995
  0
LINE
  5
2D4
100
AcDbEntity
  8
1
  6
CONTINUOUS
 62
             7
100
AcDbLine
 10
-147.18156174266821
 20
59.39995
 11
-143.76857429502081
 21
59.39995
  0
LINE
  5
2D3
100
AcDbEntity
  8
1
  6
CONTINUOUS
 62
             7
100
AcDbLine
 10
-143.76857429502081
 20
59.39995
 11
-143.41174723915441
 21
59.01054160052152
  0
LINE
  5
2D2
100
AcDbEntity
  8
1
  6
CONTINUOUS
 62
             7
100
AcDbLine
 10
-143.41174723915441
 20
59.01054160052152
 11
-144.07809104348499
 21
58.39995
  0
LINE
  5
2D1
100
AcDbEntity
  8
1
  6
CONTINUOUS
 62
             7
100
AcDbLine
 10
-144.07809104348499
 20
58.39995
 11
-147.0655991504577
 21
58.39995
  0
LINE
  5
2D0
100
AcDbEntity
  8
1
  6
CONTINUOUS
 62
             7
100
AcDbLine
 10
-147.83780759372431
 20
58.79861146885765
 11
-148.2728702437374
 21
58.39995
  0
LINE
  5
2CF
100
AcDbEntity
  8
1
  6
CONTINUOUS
 62
             7
100
AcDbLine
 10
-147.83780759372431
 20
58.79861146885765
 11
-147.28678235150079
 21
58.1972729377153
  0
LINE
  5
2CE
100
AcDbEntity
  8
1
  6
CONTINUOUS
 62
             7
100
AcDbLine
 10
-143.8754139812003
 20
58.17876679895696
 11
-143.20907017686969
 21
58.78935839947848
  0
LINE
  5
2CD
100
AcDbEntity
  8
1
  6
CONTINUOUS
 62
             7
100
AcDbLine
 10
-143.20907017686969
 20
58.78935839947848
 11
-142.85224312100331
 21
58.39994999999999
  0
LINE
  5
2CC
100
AcDbEntity
  8
1
  6
CONTINUOUS
 62
             7
100
AcDbLine
 10
-148.2728702437374
 20
58.39995
 11
-148.64883728429751
 21
54.1026270622847
  0
LINE
  5
2CB
100
AcDbEntity
  8
1
  6
CONTINUOUS
 62
             7
100
AcDbLine
 10
-148.64883728429751
 20
54.1026270622847
 11
-148.1991505732162
 21
53.61188013166387
  0
LINE
  5
2CA
100
AcDbEntity
  8
1
  6
CONTINUOUS
 62
             7
100
AcDbLine
 10
-148.1991505732162
 20
53.61188013166387
 11
-147.64339836940709
 21
54.12113320104304
  0
LINE
  5
2C9
100
AcDbEntity
  8
1
  6
CONTINUOUS
 62
             7
100
AcDbLine
 10
-147.64339836940709
 20
54.12113320104304
 11
-147.28678235150079
 21
58.1972729377153
  0
LINE
  5
2C8
100
AcDbEntity
  8
1
  6
CONTINUOUS
 62
             7
100
AcDbLine
 10
-143.8754139812003
 20
58.17876679895696
 11
-144.23202999910669
 21
54.1026270622847
  0
LINE
  5
2C7
100
AcDbEntity
  8
1
  6
CONTINUOUS
 62
             7
100
AcDbLine
 10
-144.23202999910669
 20
54.1026270622847
 11
-143.78234328802549
 21
53.61188013166386
  0
LINE
  5
2C6
100
AcDbEntity
  8
1
  6
CONTINUOUS
 62
             7
100
AcDbLine
 10
-143.78234328802549
 20
53.61188013166386
 11
-143.22659108421641
 21
54.12113320104303
  0
LINE
  5
2C5
100
AcDbEntity
  8
1
  6
CONTINUOUS
 62
             7
100
AcDbLine
 10
-143.22659108421641
 20
54.12113320104303
 11
-142.85224312100331
 21
58.39994999999999
  0
LINE
  5
2C4
100
AcDbEntity
  8
1
  6
CONTINUOUS
 62
             7
100
AcDbLine
 10
-147.54678679985031
 20
52.89995
 11
-147.99647351093151
 21
53.39069693062084
  0
LINE
  5
2C3
100
AcDbEntity
  8
1
  6
CONTINUOUS
 62
             7
100
AcDbLine
 10
-147.99647351093151
 20
53.39069693062084
 11
-147.4407213071224
 21
53.89995
  0
LINE
  5
2C2
100
AcDbEntity
  8
1
  6
CONTINUOUS
 62
             7
100
AcDbLine
 10
-147.4407213071224
 20
53.89995
 11
-144.45321320014969
 21
53.89995
  0
LINE
  5
2C1
100
AcDbEntity
  8
1
  6
CONTINUOUS
 62
             7
100
AcDbLine
 10
-144.45321320014969
 20
53.89995
 11
-144.00352648906849
 21
53.40920306937916
  0
LINE
  5
2C0
100
AcDbEntity
  8
1
  6
CONTINUOUS
 62
             7
100
AcDbLine
 10
-144.00352648906849
 20
53.40920306937916
 11
-144.5592786928776
 21
52.89995
  0
LINE
  5
2BF
100
AcDbEntity
  8
1
  6
CONTINUOUS
 62
             7
100
AcDbLine
 10
-144.5592786928776
 20
52.89995
 11
-147.54678679985031
 21
52.89995
  0
LINE
  5
2BE
100
AcDbEntity
  8
1
  6
CONTINUOUS
 62
             7
100
AcDbLine
 10
-148.7734089157837
 20
52.67876679895697
 11
-149.14775687899669
 21
48.39995000000002
  0
LINE
  5
2BD
100
AcDbEntity
  8
1
  6
CONTINUOUS
 62
             7
100
AcDbLine
 10
-148.1245860187997
 20
48.62113320104305
 11
-147.76797000089331
 21
52.69727293771531
  0
LINE
  5
2BC
100
AcDbEntity
  8
1
  6
CONTINUOUS
 62
             7
100
AcDbLine
 10
-144.35660163059291
 20
52.67876679895697
 11
-144.7132176484993
 21
48.60262706228471
  0
LINE
  5
2BB
100
AcDbEntity
  8
1
  6
CONTINUOUS
 62
             7
100
AcDbLine
 10
-143.7271297562626
 20
48.39995000000002
 11
-143.3511627157026
 21
52.69727293771531
  0
LINE
  5
2BA
100
AcDbEntity
  8
1
  6
CONTINUOUS
 62
             7
100
AcDbLine
 10
-148.79092982313031
 20
48.01054160052154
 11
-149.14775687899669
 21
48.39995000000002
  0
LINE
  5
2B9
100
AcDbEntity
  8
1
  6
CONTINUOUS
 62
             7
100
AcDbLine
 10
-148.1245860187997
 20
48.62113320104305
 11
-148.79092982313031
 21
48.01054160052154
  0
LINE
  5
2B8
100
AcDbEntity
  8
1
  6
CONTINUOUS
 62
             7
100
AcDbLine
 10
-144.16219240627569
 20
48.00128853114235
 11
-144.7132176484993
 21
48.60262706228471
  0
LINE
  5
2B7
100
AcDbEntity
  8
1
  6
CONTINUOUS
 62
             7
100
AcDbLine
 10
-144.16219240627569
 20
48.00128853114235
 11
-143.7271297562626
 21
48.39995000000002
  0
LINE
  5
2B6
100
AcDbEntity
  8
1
  6
CONTINUOUS
 62
             7
100
AcDbLine
 10
-147.92190895651501
 20
48.39995000000002
 11
-144.9344008495423
 21
48.39995000000002
  0
LINE
  5
2B5
100
AcDbEntity
  8
1
  6
CONTINUOUS
 62
             7
100
AcDbLine
 10
-148.58825276084559
 20
47.78935839947849
 11
-147.92190895651501
 21
48.39995000000002
  0
LINE
  5
2B4
100
AcDbEntity
  8
1
  6
CONTINUOUS
 62
             7
100
AcDbLine
 10
-148.2314257049793
 20
47.39995000000002
 11
-148.58825276084559
 21
47.78935839947849
  0
LINE
  5
2B3
100
AcDbEntity
  8
1
  6
CONTINUOUS
 62
             7
100
AcDbLine
 10
-144.81843825733191
 20
47.39995000000002
 11
-148.2314257049793
 21
47.39995000000002
  0
LINE
  5
2B2
100
AcDbEntity
  8
1
  6
CONTINUOUS
 62
             7
100
AcDbLine
 10
-144.3833756073187
 20
47.79861146885766
 11
-144.81843825733191
 21
47.39995000000002
  0
LINE
  5
2B1
100
AcDbEntity
  8
1
  6
CONTINUOUS
 62
             7
100
AcDbLine
 10
-144.9344008495423
 20
48.39995000000002
 11
-144.3833756073187
 21
47.79861146885766
  0
LINE
  5
2B0
100
AcDbEntity
  8
1
  6
CONTINUOUS
 62
             7
100
AcDbLine
 10
-143.8008494267838
 20
53.18801986833614
 11
-144.35660163059291
 21
52.67876679895697
  0
LINE
  5
2AF
100
AcDbEntity
  8
1
  6
CONTINUOUS
 62
             7
100
AcDbLine
 10
-143.3511627157026
 20
52.69727293771531
 11
-143.8008494267838
 21
53.18801986833614
  0
LINE
  5
2AE
100
AcDbEntity
  8
1
  6
CONTINUOUS
 62
             7
100
AcDbLine
 10
-148.21765671197451
 20
53.18801986833614
 11
-148.7734089157837
 21
52.67876679895697
  0
LINE
  5
2AD
100
AcDbEntity
  8
1
  6
CONTINUOUS
 62
             7
100
AcDbLine
 10
-147.76797000089331
 20
52.69727293771531
 11
-148.21765671197451
 21
53.18801986833614
  0
LINE
  5
2AC
100
AcDbEntity
  8
1
  6
CONTINUOUS
 62
             7
100
AcDbLine
 10
-154.16797000089329
 20
52.69727293771531
 11
-154.6176567119746
 21
53.18801986833614
  0
LINE
  5
2AB
100
AcDbEntity
  8
1
  6
CONTINUOUS
 62
             7
100
AcDbLine
 10
-154.6176567119746
 20
53.18801986833614
 11
-155.17340891578371
 21
52.67876679895697
  0
LINE
  5
2AA
100
AcDbEntity
  8
1
  6
CONTINUOUS
 62
             7
100
AcDbLine
 10
-149.75116271570261
 20
52.69727293771531
 11
-150.2008494267838
 21
53.18801986833614
  0
LINE
  5
2A9
100
AcDbEntity
  8
1
  6
CONTINUOUS
 62
             7
100
AcDbLine
 10
-150.2008494267838
 20
53.18801986833614
 11
-150.75660163059291
 21
52.67876679895697
  0
LINE
  5
2A8
100
AcDbEntity
  8
1
  6
CONTINUOUS
 62
             7
100
AcDbLine
 10
-151.33440084954231
 20
48.39995000000002
 11
-150.7833756073187
 21
47.79861146885766
  0
LINE
  5
2A7
100
AcDbEntity
  8
1
  6
CONTINUOUS
 62
             7
100
AcDbLine
 10
-150.7833756073187
 20
47.79861146885766
 11
-151.21843825733191
 21
47.39995000000002
  0
LINE
  5
2A6
100
AcDbEntity
  8
1
  6
CONTINUOUS
 62
             7
100
AcDbLine
 10
-151.21843825733191
 20
47.39995000000002
 11
-154.63142570497931
 21
47.39995000000002
  0
LINE
  5
2A5
100
AcDbEntity
  8
1
  6
CONTINUOUS
 62
             7
100
AcDbLine
 10
-154.63142570497931
 20
47.39995000000002
 11
-154.9882527608456
 21
47.78935839947849
  0
LINE
  5
2A4
100
AcDbEntity
  8
1
  6
CONTINUOUS
 62
             7
100
AcDbLine
 10
-154.9882527608456
 20
47.78935839947849
 11
-154.32190895651499
 21
48.39995000000002
  0
LINE
  5
2A3
100
AcDbEntity
  8
1
  6
CONTINUOUS
 62
             7
100
AcDbLine
 10
-154.32190895651499
 20
48.39995000000002
 11
-151.33440084954231
 21
48.39995000000002
  0
LINE
  5
2A2
100
AcDbEntity
  8
1
  6
CONTINUOUS
 62
             7
100
AcDbLine
 10
-150.5621924062757
 20
48.00128853114235
 11
-150.1271297562626
 21
48.39995000000002
  0
LINE
  5
2A1
100
AcDbEntity
  8
1
  6
CONTINUOUS
 62
             7
100
AcDbLine
 10
-150.5621924062757
 20
48.00128853114235
 11
-151.1132176484993
 21
48.60262706228471
  0
LINE
  5
2A0
100
AcDbEntity
  8
1
  6
CONTINUOUS
 62
             7
100
AcDbLine
 10
-154.52458601879971
 20
48.62113320104305
 11
-155.19092982313029
 21
48.01054160052154
  0
LINE
  5
29F
100
AcDbEntity
  8
1
  6
CONTINUOUS
 62
             7
100
AcDbLine
 10
-155.19092982313029
 20
48.01054160052154
 11
-155.54775687899669
 21
48.39995000000002
  0
LINE
  5
29E
100
AcDbEntity
  8
1
  6
CONTINUOUS
 62
             7
100
AcDbLine
 10
-150.1271297562626
 20
48.39995000000002
 11
-149.75116271570261
 21
52.69727293771531
  0
LINE
  5
29D
100
AcDbEntity
  8
1
  6
CONTINUOUS
 62
             7
100
AcDbLine
 10
-150.75660163059291
 20
52.67876679895697
 11
-151.1132176484993
 21
48.60262706228471
  0
LINE
  5
29C
100
AcDbEntity
  8
1
  6
CONTINUOUS
 62
             7
100
AcDbLine
 10
-154.52458601879971
 20
48.62113320104305
 11
-154.16797000089329
 21
52.69727293771531
  0
LINE
  5
29B
100
AcDbEntity
  8
1
  6
CONTINUOUS
 62
             7
100
AcDbLine
 10
-155.17340891578371
 20
52.67876679895697
 11
-155.54775687899669
 21
48.39995000000002
  0
LINE
  5
29A
100
AcDbEntity
  8
1
  6
CONTINUOUS
 62
             7
100
AcDbLine
 10
-150.9592786928776
 20
52.89995
 11
-153.94678679985029
 21
52.89995
  0
LINE
  5
299
100
AcDbEntity
  8
1
  6
CONTINUOUS
 62
             7
100
AcDbLine
 10
-150.4035264890685
 20
53.40920306937916
 11
-150.9592786928776
 21
52.89995
  0
LINE
  5
298
100
AcDbEntity
  8
1
  6
CONTINUOUS
 62
             7
100
AcDbLine
 10
-150.8532132001497
 20
53.89995
 11
-150.4035264890685
 21
53.40920306937916
  0
LINE
  5
297
100
AcDbEntity
  8
1
  6
CONTINUOUS
 62
             7
100
AcDbLine
 10
-153.84072130712241
 20
53.89995
 11
-150.8532132001497
 21
53.89995
  0
LINE
  5
296
100
AcDbEntity
  8
1
  6
CONTINUOUS
 62
             7
100
AcDbLine
 10
-154.39647351093149
 20
53.39069693062084
 11
-153.84072130712241
 21
53.89995
  0
LINE
  5
295
100
AcDbEntity
  8
1
  6
CONTINUOUS
 62
             7
100
AcDbLine
 10
-153.94678679985029
 20
52.89995
 11
-154.39647351093149
 21
53.39069693062084
  0
LINE
  5
294
100
AcDbEntity
  8
1
  6
CONTINUOUS
 62
             7
100
AcDbLine
 10
-149.62659108421639
 20
54.12113320104303
 11
-149.2522431210034
 21
58.39994999999999
  0
LINE
  5
293
100
AcDbEntity
  8
1
  6
CONTINUOUS
 62
             7
100
AcDbLine
 10
-150.18234328802549
 20
53.61188013166386
 11
-149.62659108421639
 21
54.12113320104303
  0
LINE
  5
292
100
AcDbEntity
  8
1
  6
CONTINUOUS
 62
             7
100
AcDbLine
 10
-150.63202999910669
 20
54.1026270622847
 11
-150.18234328802549
 21
53.61188013166386
  0
LINE
  5
291
100
AcDbEntity
  8
1
  6
CONTINUOUS
 62
             7
100
AcDbLine
 10
-150.2754139812003
 20
58.17876679895696
 11
-150.63202999910669
 21
54.1026270622847
  0
LINE
  5
290
100
AcDbEntity
  8
1
  6
CONTINUOUS
 62
             7
100
AcDbLine
 10
-154.0433983694071
 20
54.12113320104304
 11
-153.68678235150071
 21
58.1972729377153
  0
LINE
  5
28F
100
AcDbEntity
  8
1
  6
CONTINUOUS
 62
             7
100
AcDbLine
 10
-154.59915057321621
 20
53.61188013166387
 11
-154.0433983694071
 21
54.12113320104304
  0
LINE
  5
28E
100
AcDbEntity
  8
1
  6
CONTINUOUS
 62
             7
100
AcDbLine
 10
-155.04883728429749
 20
54.1026270622847
 11
-154.59915057321621
 21
53.61188013166387
  0
LINE
  5
28D
100
AcDbEntity
  8
1
  6
CONTINUOUS
 62
             7
100
AcDbLine
 10
-154.67287024373749
 20
58.39995
 11
-155.04883728429749
 21
54.1026270622847
  0
LINE
  5
28C
100
AcDbEntity
  8
1
  6
CONTINUOUS
 62
             7
100
AcDbLine
 10
-149.60907017686969
 20
58.78935839947848
 11
-149.2522431210034
 21
58.39994999999999
  0
LINE
  5
28B
100
AcDbEntity
  8
1
  6
CONTINUOUS
 62
             7
100
AcDbLine
 10
-150.2754139812003
 20
58.17876679895696
 11
-149.60907017686969
 21
58.78935839947848
  0
LINE
  5
28A
100
AcDbEntity
  8
1
  6
CONTINUOUS
 62
             7
100
AcDbLine
 10
-154.23780759372431
 20
58.79861146885765
 11
-153.68678235150071
 21
58.1972729377153
  0
LINE
  5
289
100
AcDbEntity
  8
1
  6
CONTINUOUS
 62
             7
100
AcDbLine
 10
-154.23780759372431
 20
58.79861146885765
 11
-154.67287024373749
 21
58.39995
  0
LINE
  5
288
100
AcDbEntity
  8
1
  6
CONTINUOUS
 62
             7
100
AcDbLine
 10
-150.47809104348499
 20
58.39995
 11
-153.46559915045771
 21
58.39995
  0
LINE
  5
287
100
AcDbEntity
  8
1
  6
CONTINUOUS
 62
             7
100
AcDbLine
 10
-149.81174723915441
 20
59.01054160052152
 11
-150.47809104348499
 21
58.39995
  0
LINE
  5
286
100
AcDbEntity
  8
1
  6
CONTINUOUS
 62
             7
100
AcDbLine
 10
-150.16857429502079
 20
59.39995
 11
-149.81174723915441
 21
59.01054160052152
  0
LINE
  5
285
100
AcDbEntity
  8
1
  6
CONTINUOUS
 62
             7
100
AcDbLine
 10
-153.58156174266821
 20
59.39995
 11
-150.16857429502079
 21
59.39995
  0
LINE
  5
284
100
AcDbEntity
  8
1
  6
CONTINUOUS
 62
             7
100
AcDbLine
 10
-154.01662439268131
 20
59.00128853114234
 11
-153.58156174266821
 21
59.39995
  0
LINE
  5
283
100
AcDbEntity
  8
1
  6
CONTINUOUS
 62
             7
100
AcDbLine
 10
-153.46559915045771
 20
58.39995
 11
-154.01662439268131
 21
59.00128853114234
  0
LINE
  5
282
100
AcDbEntity
  8
1
  6
CONTINUOUS
 62
             7
100
AcDbLine
 10
-159.86559915045771
 20
58.39995
 11
-160.41662439268131
 21
59.00128853114234
  0
LINE
  5
281
100
AcDbEntity
  8
1
  6
CONTINUOUS
 62
             7
100
AcDbLine
 10
-160.41662439268131
 20
59.00128853114234
 11
-159.98156174266819
 21
59.39995
  0
LINE
  5
280
100
AcDbEntity
  8
1
  6
CONTINUOUS
 62
             7
100
AcDbLine
 10
-159.98156174266819
 20
59.39995
 11
-156.5685742950208
 21
59.39995
  0
LINE
  5
27F
100
AcDbEntity
  8
1
  6
CONTINUOUS
 62
             7
100
AcDbLine
 10
-156.5685742950208
 20
59.39995
 11
-156.21174723915439
 21
59.01054160052152
  0
LINE
  5
27E
100
AcDbEntity
  8
1
  6
CONTINUOUS
 62
             7
100
AcDbLine
 10
-156.21174723915439
 20
59.01054160052152
 11
-156.878091043485
 21
58.39995
  0
LINE
  5
27D
100
AcDbEntity
  8
1
  6
CONTINUOUS
 62
             7
100
AcDbLine
 10
-156.878091043485
 20
58.39995
 11
-159.86559915045771
 21
58.39995
  0
LINE
  5
27C
100
AcDbEntity
  8
1
  6
CONTINUOUS
 62
             7
100
AcDbLine
 10
-160.63780759372429
 20
58.79861146885765
 11
-161.07287024373741
 21
58.39995
  0
LINE
  5
27B
100
AcDbEntity
  8
1
  6
CONTINUOUS
 62
             7
100
AcDbLine
 10
-160.63780759372429
 20
58.79861146885765
 11
-160.0867823515008
 21
58.1972729377153
  0
LINE
  5
27A
100
AcDbEntity
  8
1
  6
CONTINUOUS
 62
             7
100
AcDbLine
 10
-156.67541398120031
 20
58.17876679895696
 11
-156.0090701768697
 21
58.78935839947848
  0
LINE
  5
279
100
AcDbEntity
  8
1
  6
CONTINUOUS
 62
             7
100
AcDbLine
 10
-156.0090701768697
 20
58.78935839947848
 11
-155.65224312100341
 21
58.39994999999999
  0
LINE
  5
278
100
AcDbEntity
  8
1
  6
CONTINUOUS
 62
             7
100
AcDbLine
 10
-161.07287024373741
 20
58.39995
 11
-161.44883728429741
 21
54.1026270622847
  0
LINE
  5
277
100
AcDbEntity
  8
1
  6
CONTINUOUS
 62
             7
100
AcDbLine
 10
-161.44883728429741
 20
54.1026270622847
 11
-160.99915057321621
 21
53.61188013166387
  0
LINE
  5
276
100
AcDbEntity
  8
1
  6
CONTINUOUS
 62
             7
100
AcDbLine
 10
-160.99915057321621
 20
53.61188013166387
 11
-160.44339836940711
 21
54.12113320104304
  0
LINE
  5
275
100
AcDbEntity
  8
1
  6
CONTINUOUS
 62
             7
100
AcDbLine
 10
-160.44339836940711
 20
54.12113320104304
 11
-160.0867823515008
 21
58.1972729377153
  0
LINE
  5
274
100
AcDbEntity
  8
1
  6
CONTINUOUS
 62
             7
100
AcDbLine
 10
-156.67541398120031
 20
58.17876679895696
 11
-157.0320299991067
 21
54.1026270622847
  0
LINE
  5
273
100
AcDbEntity
  8
1
  6
CONTINUOUS
 62
             7
100
AcDbLine
 10
-157.0320299991067
 20
54.1026270622847
 11
-156.5823432880255
 21
53.61188013166386
  0
LINE
  5
272
100
AcDbEntity
  8
1
  6
CONTINUOUS
 62
             7
100
AcDbLine
 10
-156.5823432880255
 20
53.61188013166386
 11
-156.02659108421639
 21
54.12113320104303
  0
LINE
  5
271
100
AcDbEntity
  8
1
  6
CONTINUOUS
 62
             7
100
AcDbLine
 10
-156.02659108421639
 20
54.12113320104303
 11
-155.65224312100341
 21
58.39994999999999
  0
LINE
  5
270
100
AcDbEntity
  8
1
  6
CONTINUOUS
 62
             7
100
AcDbLine
 10
-160.34678679985029
 20
52.89995
 11
-160.79647351093149
 21
53.39069693062084
  0
LINE
  5
26F
100
AcDbEntity
  8
1
  6
CONTINUOUS
 62
             7
100
AcDbLine
 10
-160.79647351093149
 20
53.39069693062084
 11
-160.24072130712241
 21
53.89995
  0
LINE
  5
26E
100
AcDbEntity
  8
1
  6
CONTINUOUS
 62
             7
100
AcDbLine
 10
-160.24072130712241
 20
53.89995
 11
-157.2532132001497
 21
53.89995
  0
LINE
  5
26D
100
AcDbEntity
  8
1
  6
CONTINUOUS
 62
             7
100
AcDbLine
 10
-157.2532132001497
 20
53.89995
 11
-156.8035264890685
 21
53.40920306937916
  0
LINE
  5
26C
100
AcDbEntity
  8
1
  6
CONTINUOUS
 62
             7
100
AcDbLine
 10
-156.8035264890685
 20
53.40920306937916
 11
-157.35927869287761
 21
52.89995
  0
LINE
  5
26B
100
AcDbEntity
  8
1
  6
CONTINUOUS
 62
             7
100
AcDbLine
 10
-157.35927869287761
 20
52.89995
 11
-160.34678679985029
 21
52.89995
  0
LINE
  5
26A
100
AcDbEntity
  8
1
  6
CONTINUOUS
 62
             7
100
AcDbLine
 10
-161.57340891578369
 20
52.67876679895697
 11
-161.9477568789967
 21
48.39995000000002
  0
LINE
  5
269
100
AcDbEntity
  8
1
  6
CONTINUOUS
 62
             7
100
AcDbLine
 10
-160.92458601879969
 20
48.62113320104305
 11
-160.56797000089341
 21
52.69727293771531
  0
LINE
  5
268
100
AcDbEntity
  8
1
  6
CONTINUOUS
 62
             7
100
AcDbLine
 10
-157.15660163059289
 20
52.67876679895697
 11
-157.51321764849931
 21
48.60262706228471
  0
LINE
  5
267
100
AcDbEntity
  8
1
  6
CONTINUOUS
 62
             7
100
AcDbLine
 10
-156.52712975626261
 20
48.39995000000002
 11
-156.15116271570261
 21
52.69727293771531
  0
LINE
  5
266
100
AcDbEntity
  8
1
  6
CONTINUOUS
 62
             7
100
AcDbLine
 10
-161.5909298231303
 20
48.01054160052154
 11
-161.9477568789967
 21
48.39995000000002
  0
LINE
  5
265
100
AcDbEntity
  8
1
  6
CONTINUOUS
 62
             7
100
AcDbLine
 10
-160.92458601879969
 20
48.62113320104305
 11
-161.5909298231303
 21
48.01054160052154
  0
LINE
  5
264
100
AcDbEntity
  8
1
  6
CONTINUOUS
 62
             7
100
AcDbLine
 10
-156.9621924062757
 20
48.00128853114235
 11
-157.51321764849931
 21
48.60262706228471
  0
LINE
  5
263
100
AcDbEntity
  8
1
  6
CONTINUOUS
 62
             7
100
AcDbLine
 10
-156.9621924062757
 20
48.00128853114235
 11
-156.52712975626261
 21
48.39995000000002
  0
LINE
  5
262
100
AcDbEntity
  8
1
  6
CONTINUOUS
 62
             7
100
AcDbLine
 10
-160.72190895651499
 20
48.39995000000002
 11
-157.73440084954231
 21
48.39995000000002
  0
LINE
  5
261
100
AcDbEntity
  8
1
  6
CONTINUOUS
 62
             7
100
AcDbLine
 10
-161.3882527608456
 20
47.78935839947849
 11
-160.72190895651499
 21
48.39995000000002
  0
LINE
  5
260
100
AcDbEntity
  8
1
  6
CONTINUOUS
 62
             7
100
AcDbLine
 10
-161.03142570497931
 20
47.39995000000002
 11
-161.3882527608456
 21
47.78935839947849
  0
LINE
  5
25F
100
AcDbEntity
  8
1
  6
CONTINUOUS
 62
             7
100
AcDbLine
 10
-157.61843825733189
 20
47.39995000000002
 11
-161.03142570497931
 21
47.39995000000002
  0
LINE
  5
25E
100
AcDbEntity
  8
1
  6
CONTINUOUS
 62
             7
100
AcDbLine
 10
-157.18337560731871
 20
47.79861146885766
 11
-157.61843825733189
 21
47.39995000000002
  0
LINE
  5
25D
100
AcDbEntity
  8
1
  6
CONTINUOUS
 62
             7
100
AcDbLine
 10
-157.73440084954231
 20
48.39995000000002
 11
-157.18337560731871
 21
47.79861146885766
  0
LINE
  5
25C
100
AcDbEntity
  8
1
  6
CONTINUOUS
 62
             7
100
AcDbLine
 10
-156.60084942678381
 20
53.18801986833614
 11
-157.15660163059289
 21
52.67876679895697
  0
LINE
  5
25B
100
AcDbEntity
  8
1
  6
CONTINUOUS
 62
             7
100
AcDbLine
 10
-156.15116271570261
 20
52.69727293771531
 11
-156.60084942678381
 21
53.18801986833614
  0
LINE
  5
25A
100
AcDbEntity
  8
1
  6
CONTINUOUS
 62
             7
100
AcDbLine
 10
-161.01765671197461
 20
53.18801986833614
 11
-161.57340891578369
 21
52.67876679895697
  0
LINE
  5
259
100
AcDbEntity
  8
1
  6
CONTINUOUS
 62
             7
100
AcDbLine
 10
-160.56797000089341
 20
52.69727293771531
 11
-161.01765671197461
 21
53.18801986833614
  0
LINE
  5
258
100
AcDbEntity
  8
1
  6
CONTINUOUS
 62
             7
100
AcDbLine
 10
-166.9679700008933
 20
52.69727293771531
 11
-167.41765671197459
 21
53.18801986833614
  0
LINE
  5
257
100
AcDbEntity
  8
1
  6
CONTINUOUS
 62
             7
100
AcDbLine
 10
-167.41765671197459
 20
53.18801986833614
 11
-167.97340891578369
 21
52.67876679895697
  0
LINE
  5
256
100
AcDbEntity
  8
1
  6
CONTINUOUS
 62
             7
100
AcDbLine
 10
-162.55116271570259
 20
52.69727293771531
 11
-163.00084942678379
 21
53.18801986833614
  0
LINE
  5
255
100
AcDbEntity
  8
1
  6
CONTINUOUS
 62
             7
100
AcDbLine
 10
-163.00084942678379
 20
53.18801986833614
 11
-163.55660163059289
 21
52.67876679895697
  0
LINE
  5
254
100
AcDbEntity
  8
1
  6
CONTINUOUS
 62
             7
100
AcDbLine
 10
-164.13440084954229
 20
48.39995000000002
 11
-163.58337560731869
 21
47.79861146885766
  0
LINE
  5
253
100
AcDbEntity
  8
1
  6
CONTINUOUS
 62
             7
100
AcDbLine
 10
-163.58337560731869
 20
47.79861146885766
 11
-164.01843825733189
 21
47.39995000000002
  0
LINE
  5
252
100
AcDbEntity
  8
1
  6
CONTINUOUS
 62
             7
100
AcDbLine
 10
-164.01843825733189
 20
47.39995000000002
 11
-167.43142570497929
 21
47.39995000000002
  0
LINE
  5
251
100
AcDbEntity
  8
1
  6
CONTINUOUS
 62
             7
100
AcDbLine
 10
-167.43142570497929
 20
47.39995000000002
 11
-167.78825276084561
 21
47.78935839947849
  0
LINE
  5
250
100
AcDbEntity
  8
1
  6
CONTINUOUS
 62
             7
100
AcDbLine
 10
-167.78825276084561
 20
47.78935839947849
 11
-167.121908956515
 21
48.39995000000002
  0
LINE
  5
24F
100
AcDbEntity
  8
1
  6
CONTINUOUS
 62
             7
100
AcDbLine
 10
-167.121908956515
 20
48.39995000000002
 11
-164.13440084954229
 21
48.39995000000002
  0
LINE
  5
24E
100
AcDbEntity
  8
1
  6
CONTINUOUS
 62
             7
100
AcDbLine
 10
-163.36219240627571
 20
48.00128853114235
 11
-162.92712975626259
 21
48.39995000000002
  0
LINE
  5
24D
100
AcDbEntity
  8
1
  6
CONTINUOUS
 62
             7
100
AcDbLine
 10
-163.36219240627571
 20
48.00128853114235
 11
-163.91321764849931
 21
48.60262706228471
  0
LINE
  5
24C
100
AcDbEntity
  8
1
  6
CONTINUOUS
 62
             7
100
AcDbLine
 10
-167.32458601879969
 20
48.62113320104305
 11
-167.9909298231303
 21
48.01054160052154
  0
LINE
  5
24B
100
AcDbEntity
  8
1
  6
CONTINUOUS
 62
             7
100
AcDbLine
 10
-167.9909298231303
 20
48.01054160052154
 11
-168.34775687899671
 21
48.39995000000002
  0
LINE
  5
24A
100
AcDbEntity
  8
1
  6
CONTINUOUS
 62
             7
100
AcDbLine
 10
-162.92712975626259
 20
48.39995000000002
 11
-162.55116271570259
 21
52.69727293771531
  0
LINE
  5
249
100
AcDbEntity
  8
1
  6
CONTINUOUS
 62
             7
100
AcDbLine
 10
-163.55660163059289
 20
52.67876679895697
 11
-163.91321764849931
 21
48.60262706228471
  0
LINE
  5
248
100
AcDbEntity
  8
1
  6
CONTINUOUS
 62
             7
100
AcDbLine
 10
-167.32458601879969
 20
48.62113320104305
 11
-166.9679700008933
 21
52.69727293771531
  0
LINE
  5
247
100
AcDbEntity
  8
1
  6
CONTINUOUS
 62
             7
100
AcDbLine
 10
-167.97340891578369
 20
52.67876679895697
 11
-168.34775687899671
 21
48.39995000000002
  0
LINE
  5
246
100
AcDbEntity
  8
1
  6
CONTINUOUS
 62
             7
100
AcDbLine
 10
-163.75927869287759
 20
52.89995
 11
-166.7467867998503
 21
52.89995
  0
LINE
  5
245
100
AcDbEntity
  8
1
  6
CONTINUOUS
 62
             7
100
AcDbLine
 10
-163.20352648906851
 20
53.40920306937916
 11
-163.75927869287759
 21
52.89995
  0
LINE
  5
244
100
AcDbEntity
  8
1
  6
CONTINUOUS
 62
             7
100
AcDbLine
 10
-163.65321320014971
 20
53.89995
 11
-163.20352648906851
 21
53.40920306937916
  0
LINE
  5
243
100
AcDbEntity
  8
1
  6
CONTINUOUS
 62
             7
100
AcDbLine
 10
-166.6407213071225
 20
53.89995
 11
-163.65321320014971
 21
53.89995
  0
LINE
  5
242
100
AcDbEntity
  8
1
  6
CONTINUOUS
 62
             7
100
AcDbLine
 10
-167.19647351093161
 20
53.39069693062084
 11
-166.6407213071225
 21
53.89995
  0
LINE
  5
241
100
AcDbEntity
  8
1
  6
CONTINUOUS
 62
             7
100
AcDbLine
 10
-166.7467867998503
 20
52.89995
 11
-167.19647351093161
 21
53.39069693062084
  0
LINE
  5
240
100
AcDbEntity
  8
1
  6
CONTINUOUS
 62
             7
100
AcDbLine
 10
-162.4265910842164
 20
54.12113320104303
 11
-162.05224312100339
 21
58.39994999999999
  0
LINE
  5
23F
100
AcDbEntity
  8
1
  6
CONTINUOUS
 62
             7
100
AcDbLine
 10
-162.9823432880255
 20
53.61188013166386
 11
-162.4265910842164
 21
54.12113320104303
  0
LINE
  5
23E
100
AcDbEntity
  8
1
  6
CONTINUOUS
 62
             7
100
AcDbLine
 10
-163.4320299991067
 20
54.1026270622847
 11
-162.9823432880255
 21
53.61188013166386
  0
LINE
  5
23D
100
AcDbEntity
  8
1
  6
CONTINUOUS
 62
             7
100
AcDbLine
 10
-163.07541398120031
 20
58.17876679895696
 11
-163.4320299991067
 21
54.1026270622847
  0
LINE
  5
23C
100
AcDbEntity
  8
1
  6
CONTINUOUS
 62
             7
100
AcDbLine
 10
-166.84339836940711
 20
54.12113320104304
 11
-166.48678235150081
 21
58.1972729377153
  0
LINE
  5
23B
100
AcDbEntity
  8
1
  6
CONTINUOUS
 62
             7
100
AcDbLine
 10
-167.39915057321619
 20
53.61188013166387
 11
-166.84339836940711
 21
54.12113320104304
  0
LINE
  5
23A
100
AcDbEntity
  8
1
  6
CONTINUOUS
 62
             7
100
AcDbLine
 10
-167.8488372842975
 20
54.1026270622847
 11
-167.39915057321619
 21
53.61188013166387
  0
LINE
  5
239
100
AcDbEntity
  8
1
  6
CONTINUOUS
 62
             7
100
AcDbLine
 10
-167.4728702437375
 20
58.39995
 11
-167.8488372842975
 21
54.1026270622847
  0
LINE
  5
238
100
AcDbEntity
  8
1
  6
CONTINUOUS
 62
             7
100
AcDbLine
 10
-162.4090701768697
 20
58.78935839947848
 11
-162.05224312100339
 21
58.39994999999999
  0
LINE
  5
237
100
AcDbEntity
  8
1
  6
CONTINUOUS
 62
             7
100
AcDbLine
 10
-163.07541398120031
 20
58.17876679895696
 11
-162.4090701768697
 21
58.78935839947848
  0
LINE
  5
236
100
AcDbEntity
  8
1
  6
CONTINUOUS
 62
             7
100
AcDbLine
 10
-167.03780759372441
 20
58.79861146885765
 11
-166.48678235150081
 21
58.1972729377153
  0
LINE
  5
235
100
AcDbEntity
  8
1
  6
CONTINUOUS
 62
             7
100
AcDbLine
 10
-167.03780759372441
 20
58.79861146885765
 11
-167.4728702437375
 21
58.39995
  0
LINE
  5
234
100
AcDbEntity
  8
1
  6
CONTINUOUS
 62
             7
100
AcDbLine
 10
-163.27809104348501
 20
58.39995
 11
-166.2655991504578
 21
58.39995
  0
LINE
  5
233
100
AcDbEntity
  8
1
  6
CONTINUOUS
 62
             7
100
AcDbLine
 10
-162.6117472391544
 20
59.01054160052152
 11
-163.27809104348501
 21
58.39995
  0
LINE
  5
232
100
AcDbEntity
  8
1
  6
CONTINUOUS
 62
             7
100
AcDbLine
 10
-162.9685742950208
 20
59.39995
 11
-162.6117472391544
 21
59.01054160052152
  0
LINE
  5
231
100
AcDbEntity
  8
1
  6
CONTINUOUS
 62
             7
100
AcDbLine
 10
-166.3815617426682
 20
59.39995
 11
-162.9685742950208
 21
59.39995
  0
LINE
  5
230
100
AcDbEntity
  8
1
  6
CONTINUOUS
 62
             7
100
AcDbLine
 10
-166.81662439268129
 20
59.00128853114234
 11
-166.3815617426682
 21
59.39995
  0
LINE
  5
22F
100
AcDbEntity
  8
1
  6
CONTINUOUS
 62
             7
100
AcDbLine
 10
-166.2655991504578
 20
58.39995
 11
-166.81662439268129
 21
59.00128853114234
  0
LINE
  5
22E
100
AcDbEntity
  8
1
  6
CONTINUOUS
 62
             7
100
AcDbLine
 10
-168.8265910842164
 20
54.12113320104303
 11
-168.45224312100339
 21
58.39994999999999
  0
LINE
  5
22D
100
AcDbEntity
  8
1
  6
CONTINUOUS
 62
             7
100
AcDbLine
 10
-169.4754139812004
 20
58.17876679895696
 11
-168.80907017686971
 21
58.78935839947848
  0
LINE
  5
22C
100
AcDbEntity
  8
1
  6
CONTINUOUS
 62
             7
100
AcDbLine
 10
-168.80907017686971
 20
58.78935839947848
 11
-168.45224312100339
 21
58.39994999999999
  0
LINE
  5
22B
100
AcDbEntity
  8
1
  6
CONTINUOUS
 62
             7
100
AcDbLine
 10
-169.83202999910671
 20
54.1026270622847
 11
-169.38234328802551
 21
53.61188013166386
  0
LINE
  5
22A
100
AcDbEntity
  8
1
  6
CONTINUOUS
 62
             7
100
AcDbLine
 10
-169.38234328802551
 20
53.61188013166386
 11
-168.8265910842164
 21
54.12113320104303
  0
LINE
  5
229
100
AcDbEntity
  8
1
  6
CONTINUOUS
 62
             7
100
AcDbLine
 10
-169.4754139812004
 20
58.17876679895696
 11
-169.83202999910671
 21
54.1026270622847
  0
LINE
  5
228
100
AcDbEntity
  8
1
  6
CONTINUOUS
 62
             7
100
AcDbLine
 10
-169.40084942678379
 20
53.18801986833614
 11
-169.9566016305929
 21
52.67876679895697
  0
LINE
  5
227
100
AcDbEntity
  8
1
  6
CONTINUOUS
 62
             7
100
AcDbLine
 10
-168.95116271570259
 20
52.69727293771531
 11
-169.40084942678379
 21
53.18801986833614
  0
LINE
  5
226
100
AcDbEntity
  8
1
  6
CONTINUOUS
 62
             7
100
AcDbLine
 10
-169.76219240627569
 20
48.00128853114235
 11
-170.31321764849929
 21
48.60262706228471
  0
LINE
  5
225
100
AcDbEntity
  8
1
  6
CONTINUOUS
 62
             7
100
AcDbLine
 10
-169.76219240627569
 20
48.00128853114235
 11
-169.32712975626259
 21
48.39995000000002
  0
LINE
  5
224
100
AcDbEntity
  8
1
  6
CONTINUOUS
 62
             7
100
AcDbLine
 10
-169.9566016305929
 20
52.67876679895697
 11
-170.31321764849929
 21
48.60262706228471
  0
LINE
  5
223
100
AcDbEntity
  8
1
  6
CONTINUOUS
 62
             7
100
AcDbLine
 10
-169.32712975626259
 20
48.39995000000002
 11
-168.95116271570259
 21
52.69727293771531
  0
LINE
  5
222
100
AcDbEntity
  8
1
  6
CONTINUOUS
 62
             7
100
AcDbLine
 10
-147.17789977799441
 20
55.99969247405156
 11
-146.9941510539889
 21
58.09994999999999
  0
LINE
  5
221
100
AcDbEntity
  8
1
  6
CONTINUOUS
 62
             7
100
AcDbLine
 10
-146.9941510539889
 20
58.09994999999999
 11
-146.01454221492349
 21
54.95478870967735
  0
LINE
  5
220
100
AcDbEntity
  8
1
  6
CONTINUOUS
 62
             7
100
AcDbLine
 10
-146.01454221492349
 20
54.95478870967735
 11
-146.0805820448108
 21
54.19995
  0
LINE
  5
21F
100
AcDbEntity
  8
1
  6
CONTINUOUS
 62
             7
100
AcDbLine
 10
-146.0805820448108
 20
54.19995
 11
-146.6173423143606
 21
54.19995
  0
LINE
  5
21E
100
AcDbEntity
  8
1
  6
CONTINUOUS
 62
             7
100
AcDbLine
 10
-146.6173423143606
 20
54.19995
 11
-147.17789977799441
 21
55.99969247405156
  0
LINE
  5
21D
100
AcDbEntity
  8
1
  6
CONTINUOUS
 62
             7
100
AcDbLine
 10
-145.77943609354779
 20
54.19995
 11
-145.71339626366051
 21
54.95478870967738
  0
LINE
  5
21C
100
AcDbEntity
  8
1
  6
CONTINUOUS
 62
             7
100
AcDbLine
 10
-145.71339626366051
 20
54.95478870967738
 11
-144.1834555088675
 21
58.09995
  0
LINE
  5
21B
100
AcDbEntity
  8
1
  6
CONTINUOUS
 62
             7
100
AcDbLine
 10
-144.1834555088675
 20
58.09995
 11
-144.37854693296961
 21
55.87004481869275
  0
LINE
  5
21A
100
AcDbEntity
  8
1
  6
CONTINUOUS
 62
             7
100
AcDbLine
 10
-144.37854693296961
 20
55.87004481869275
 11
-145.1909523683756
 21
54.19995
  0
LINE
  5
219
100
AcDbEntity
  8
1
  6
CONTINUOUS
 62
             7
100
AcDbLine
 10
-145.1909523683756
 20
54.19995
 11
-145.77943609354779
 21
54.19995
  0
LINE
  5
218
100
AcDbEntity
  8
1
  6
CONTINUOUS
 62
             7
100
AcDbLine
 10
-145.9194179551892
 20
52.59995000000001
 11
-145.3826576856394
 21
52.59995000000001
  0
LINE
  5
217
100
AcDbEntity
  8
1
  6
CONTINUOUS
 62
             7
100
AcDbLine
 10
-145.98545778507651
 20
51.84511129032265
 11
-145.9194179551892
 21
52.59995000000001
  0
LINE
  5
216
100
AcDbEntity
  8
1
  6
CONTINUOUS
 62
             7
100
AcDbLine
 10
-146.80904763162451
 20
52.59995000000001
 11
-146.22056390645221
 21
52.59995000000001
  0
LINE
  5
215
100
AcDbEntity
  8
1
  6
CONTINUOUS
 62
             7
100
AcDbLine
 10
-146.22056390645221
 20
52.59995000000001
 11
-146.28660373633949
 21
51.84511129032262
  0
LINE
  5
214
100
AcDbEntity
  8
1
  6
CONTINUOUS
 62
             7
100
AcDbLine
 10
-145.0058489460111
 20
48.69995
 11
-145.98545778507651
 21
51.84511129032265
  0
LINE
  5
213
100
AcDbEntity
  8
1
  6
CONTINUOUS
 62
             7
100
AcDbLine
 10
-144.82210022200559
 20
50.80020752594845
 11
-145.0058489460111
 21
48.69995
  0
LINE
  5
212
100
AcDbEntity
  8
1
  6
CONTINUOUS
 62
             7
100
AcDbLine
 10
-147.8165444911325
 20
48.69995
 11
-147.62145306703039
 21
50.92985518130726
  0
LINE
  5
211
100
AcDbEntity
  8
1
  6
CONTINUOUS
 62
             7
100
AcDbLine
 10
-146.28660373633949
 20
51.84511129032262
 11
-147.8165444911325
 21
48.69995
  0
LINE
  5
210
100
AcDbEntity
  8
1
  6
CONTINUOUS
 62
             7
100
AcDbLine
 10
-147.62145306703039
 20
50.92985518130726
 11
-146.80904763162451
 21
52.59995000000001
  0
LINE
  5
20F
100
AcDbEntity
  8
1
  6
CONTINUOUS
 62
             7
100
AcDbLine
 10
-145.3826576856394
 20
52.59995000000001
 11
-144.82210022200559
 21
50.80020752594845
  0
LINE
  5
20E
100
AcDbEntity
  8
1
  6
CONTINUOUS
 62
             7
100
AcDbLine
 10
-152.4805820448108
 20
54.19995
 11
-153.0173423143606
 21
54.19995
  0
LINE
  5
20D
100
AcDbEntity
  8
1
  6
CONTINUOUS
 62
             7
100
AcDbLine
 10
-152.4145422149235
 20
54.95478870967735
 11
-152.4805820448108
 21
54.19995
  0
LINE
  5
20C
100
AcDbEntity
  8
1
  6
CONTINUOUS
 62
             7
100
AcDbLine
 10
-158.88058204481081
 20
54.19995
 11
-159.41734231436061
 21
54.19995
  0
LINE
  5
20B
100
AcDbEntity
  8
1
  6
CONTINUOUS
 62
             7
100
AcDbLine
 10
-158.81454221492351
 20
54.95478870967735
 11
-158.88058204481081
 21
54.19995
  0
LINE
  5
20A
100
AcDbEntity
  8
1
  6
CONTINUOUS
 62
             7
100
AcDbLine
 10
-151.59095236837561
 20
54.19995
 11
-152.17943609354779
 21
54.19995
  0
LINE
  5
209
100
AcDbEntity
  8
1
  6
CONTINUOUS
 62
             7
100
AcDbLine
 10
-152.17943609354779
 20
54.19995
 11
-152.11339626366049
 21
54.95478870967738
  0
LINE
  5
208
100
AcDbEntity
  8
1
  6
CONTINUOUS
 62
             7
100
AcDbLine
 10
-157.99095236837559
 20
54.19995
 11
-158.5794360935478
 21
54.19995
  0
LINE
  5
207
100
AcDbEntity
  8
1
  6
CONTINUOUS
 62
             7
100
AcDbLine
 10
-158.5794360935478
 20
54.19995
 11
-158.5133962636605
 21
54.95478870967738
  0
LINE
  5
206
100
AcDbEntity
  8
1
  6
CONTINUOUS
 62
             7
100
AcDbLine
 10
-152.6205639064523
 20
52.59995000000001
 11
-152.68660373633961
 21
51.84511129032262
  0
LINE
  5
205
100
AcDbEntity
  8
1
  6
CONTINUOUS
 62
             7
100
AcDbLine
 10
-153.2090476316244
 20
52.59995000000001
 11
-152.6205639064523
 21
52.59995000000001
  0
LINE
  5
204
100
AcDbEntity
  8
1
  6
CONTINUOUS
 62
             7
100
AcDbLine
 10
-159.02056390645231
 20
52.59995000000001
 11
-159.08660373633961
 21
51.84511129032262
  0
LINE
  5
203
100
AcDbEntity
  8
1
  6
CONTINUOUS
 62
             7
100
AcDbLine
 10
-159.60904763162449
 20
52.59995000000001
 11
-159.02056390645231
 21
52.59995000000001
  0
LINE
  5
202
100
AcDbEntity
  8
1
  6
CONTINUOUS
 62
             7
100
AcDbLine
 10
-152.38545778507651
 20
51.84511129032265
 11
-152.31941795518929
 21
52.59995000000001
  0
LINE
  5
201
100
AcDbEntity
  8
1
  6
CONTINUOUS
 62
             7
100
AcDbLine
 10
-152.31941795518929
 20
52.59995000000001
 11
-151.78265768563941
 21
52.59995000000001
  0
LINE
  5
200
100
AcDbEntity
  8
1
  6
CONTINUOUS
 62
             7
100
AcDbLine
 10
-158.7854577850766
 20
51.84511129032265
 11
-158.7194179551893
 21
52.59995000000001
  0
LINE
  5
1FF
100
AcDbEntity
  8
1
  6
CONTINUOUS
 62
             7
100
AcDbLine
 10
-158.7194179551893
 20
52.59995000000001
 11
-158.18265768563941
 21
52.59995000000001
  0
LINE
  5
1FE
100
AcDbEntity
  8
1
  6
CONTINUOUS
 62
             7
100
AcDbLine
 10
-150.5834555088675
 20
58.09995
 11
-150.77854693296959
 21
55.87004481869275
  0
LINE
  5
1FD
100
AcDbEntity
  8
1
  6
CONTINUOUS
 62
             7
100
AcDbLine
 10
-152.11339626366049
 20
54.95478870967738
 11
-150.5834555088675
 21
58.09995
  0
LINE
  5
1FC
100
AcDbEntity
  8
1
  6
CONTINUOUS
 62
             7
100
AcDbLine
 10
-156.98345550886751
 20
58.09995
 11
-157.1785469329696
 21
55.87004481869275
  0
LINE
  5
1FB
100
AcDbEntity
  8
1
  6
CONTINUOUS
 62
             7
100
AcDbLine
 10
-158.5133962636605
 20
54.95478870967738
 11
-156.98345550886751
 21
58.09995
  0
LINE
  5
1FA
100
AcDbEntity
  8
1
  6
CONTINUOUS
 62
             7
100
AcDbLine
 10
-153.39415105398891
 20
58.09994999999999
 11
-152.4145422149235
 21
54.95478870967735
  0
LINE
  5
1F9
100
AcDbEntity
  8
1
  6
CONTINUOUS
 62
             7
100
AcDbLine
 10
-153.57789977799439
 20
55.99969247405156
 11
-153.39415105398891
 21
58.09994999999999
  0
LINE
  5
1F8
100
AcDbEntity
  8
1
  6
CONTINUOUS
 62
             7
100
AcDbLine
 10
-159.79415105398891
 20
58.09994999999999
 11
-158.81454221492351
 21
54.95478870967735
  0
LINE
  5
1F7
100
AcDbEntity
  8
1
  6
CONTINUOUS
 62
             7
100
AcDbLine
 10
-159.97789977799439
 20
55.99969247405156
 11
-159.79415105398891
 21
58.09994999999999
  0
LINE
  5
1F6
100
AcDbEntity
  8
1
  6
CONTINUOUS
 62
             7
100
AcDbLine
 10
-152.68660373633961
 20
51.84511129032262
 11
-154.21654449113251
 21
48.69995
  0
LINE
  5
1F5
100
AcDbEntity
  8
1
  6
CONTINUOUS
 62
             7
100
AcDbLine
 10
-154.21654449113251
 20
48.69995
 11
-154.02145306703039
 21
50.92985518130726
  0
LINE
  5
1F4
100
AcDbEntity
  8
1
  6
CONTINUOUS
 62
             7
100
AcDbLine
 10
-159.08660373633961
 20
51.84511129032262
 11
-160.61654449113249
 21
48.69995
  0
LINE
  5
1F3
100
AcDbEntity
  8
1
  6
CONTINUOUS
 62
             7
100
AcDbLine
 10
-160.61654449113249
 20
48.69995
 11
-160.42145306703051
 21
50.92985518130726
  0
LINE
  5
1F2
100
AcDbEntity
  8
1
  6
CONTINUOUS
 62
             7
100
AcDbLine
 10
-151.22210022200571
 20
50.80020752594845
 11
-151.40584894601119
 21
48.69994999999999
  0
LINE
  5
1F1
100
AcDbEntity
  8
1
  6
CONTINUOUS
 62
             7
100
AcDbLine
 10
-151.40584894601119
 20
48.69994999999999
 11
-152.38545778507651
 21
51.84511129032265
  0
LINE
  5
1F0
100
AcDbEntity
  8
1
  6
CONTINUOUS
 62
             7
100
AcDbLine
 10
-157.62210022200571
 20
50.80020752594845
 11
-157.80584894601111
 21
48.69994999999999
  0
LINE
  5
1EF
100
AcDbEntity
  8
1
  6
CONTINUOUS
 62
             7
100
AcDbLine
 10
-157.80584894601111
 20
48.69994999999999
 11
-158.7854577850766
 21
51.84511129032265
  0
LINE
  5
1EE
100
AcDbEntity
  8
1
  6
CONTINUOUS
 62
             7
100
AcDbLine
 10
-151.78265768563941
 20
52.59995000000001
 11
-151.22210022200571
 21
50.80020752594845
  0
LINE
  5
1ED
100
AcDbEntity
  8
1
  6
CONTINUOUS
 62
             7
100
AcDbLine
 10
-158.18265768563941
 20
52.59995000000001
 11
-157.62210022200571
 21
50.80020752594845
  0
LINE
  5
1EC
100
AcDbEntity
  8
1
  6
CONTINUOUS
 62
             7
100
AcDbLine
 10
-154.02145306703039
 20
50.92985518130726
 11
-153.2090476316244
 21
52.59995000000001
  0
LINE
  5
1EB
100
AcDbEntity
  8
1
  6
CONTINUOUS
 62
             7
100
AcDbLine
 10
-160.42145306703051
 20
50.92985518130726
 11
-159.60904763162449
 21
52.59995000000001
  0
LINE
  5
1EA
100
AcDbEntity
  8
1
  6
CONTINUOUS
 62
             7
100
AcDbLine
 10
-153.0173423143606
 20
54.19995
 11
-153.57789977799439
 21
55.99969247405156
  0
LINE
  5
1E9
100
AcDbEntity
  8
1
  6
CONTINUOUS
 62
             7
100
AcDbLine
 10
-159.41734231436061
 20
54.19995
 11
-159.97789977799439
 21
55.99969247405156
  0
LINE
  5
1E8
100
AcDbEntity
  8
1
  6
CONTINUOUS
 62
             7
100
AcDbLine
 10
-150.77854693296959
 20
55.87004481869275
 11
-151.59095236837561
 21
54.19995
  0
LINE
  5
1E7
100
AcDbEntity
  8
1
  6
CONTINUOUS
 62
             7
100
AcDbLine
 10
-157.1785469329696
 20
55.87004481869275
 11
-157.99095236837559
 21
54.19995
  0
LINE
  5
1E6
100
AcDbEntity
  8
1
  6
CONTINUOUS
 62
             7
100
AcDbLine
 10
-160.64560476253641
 20
46.16750902076154
 11
-160.39193994589661
 21
46.39995000000002
  0
LINE
  5
1E5
100
AcDbEntity
  8
1
  6
CONTINUOUS
 62
             7
100
AcDbLine
 10
-160.39193994589661
 20
46.39995000000002
 11
-158.08315431954691
 21
46.39994999999999
  0
LINE
  5
1E4
100
AcDbEntity
  8
1
  6
CONTINUOUS
 62
             7
100
AcDbLine
 10
-158.08315431954691
 20
46.39994999999999
 11
-157.8758139881032
 21
46.17367773368098
  0
LINE
  5
1E3
100
AcDbEntity
  8
1
  6
CONTINUOUS
 62
             7
100
AcDbLine
 10
-157.7406959465801
 20
46.02622226631898
 11
-157.53335561513649
 21
45.79995
  0
LINE
  5
1E2
100
AcDbEntity
  8
1
  6
CONTINUOUS
 62
             7
100
AcDbLine
 10
-157.53335561513649
 20
45.79995
 11
-157.70416800347229
 21
43.84755546736203
  0
LINE
  5
1E1
100
AcDbEntity
  8
1
  6
CONTINUOUS
 62
             7
100
AcDbLine
 10
-161.0467250465382
 20
45.79995
 11
-161.218616819772
 21
43.83521804152312
  0
LINE
  5
1E0
100
AcDbEntity
  8
1
  6
CONTINUOUS
 62
             7
100
AcDbLine
 10
-161.0467250465382
 20
45.79995
 11
-160.7930602298984
 21
46.03239097923841
  0
LINE
  5
1DF
100
AcDbEntity
  8
1
  6
CONTINUOUS
 62
             7
100
AcDbLine
 10
-160.7930602298984
 20
46.03239097923841
 11
-160.4562544408833
 21
45.66483195847687
  0
LINE
  5
1DE
100
AcDbEntity
  8
1
  6
CONTINUOUS
 62
             7
100
AcDbLine
 10
-160.30879897352131
 20
45.79995
 11
-160.64560476253641
 21
46.16750902076154
  0
LINE
  5
1DD
100
AcDbEntity
  8
1
  6
CONTINUOUS
 62
             7
100
AcDbLine
 10
-158.28366624095469
 20
45.79995
 11
-157.8758139881032
 21
46.17367773368098
  0
LINE
  5
1DC
100
AcDbEntity
  8
1
  6
CONTINUOUS
 62
             7
100
AcDbLine
 10
-157.7406959465801
 20
46.02622226631898
 11
-158.14854819943159
 21
45.65249453263799
  0
LINE
  5
1DB
100
AcDbEntity
  8
1
  6
CONTINUOUS
 62
             7
100
AcDbLine
 10
-157.95324870686281
 20
41.00055
 11
-158.20691352350261
 21
40.76810902076157
  0
LINE
  5
1DA
100
AcDbEntity
  8
1
  6
CONTINUOUS
 62
             7
100
AcDbLine
 10
-157.95324870686281
 20
41.00055
 11
-157.78135693362901
 21
42.96528195847687
  0
LINE
  5
1D9
100
AcDbEntity
  8
1
  6
CONTINUOUS
 62
             7
100
AcDbLine
 10
-158.20691352350261
 20
40.76810902076157
 11
-158.54371931251771
 21
41.13566804152313
  0
LINE
  5
1D8
100
AcDbEntity
  8
1
  6
CONTINUOUS
 62
             7
100
AcDbLine
 10
-158.384728221053
 20
42.95294453263797
 11
-158.54371931251771
 21
41.13566804152313
  0
LINE
  5
1D7
100
AcDbEntity
  8
1
  6
CONTINUOUS
 62
             7
100
AcDbLine
 10
-161.2592778068209
 20
40.77427773368102
 11
-160.85142555396939
 21
41.14800546736201
  0
LINE
  5
1D6
100
AcDbEntity
  8
1
  6
CONTINUOUS
 62
             7
100
AcDbLine
 10
-160.85142555396939
 20
41.14800546736201
 11
-160.69243446250471
 21
42.96528195847687
  0
LINE
  5
1D5
100
AcDbEntity
  8
1
  6
CONTINUOUS
 62
             7
100
AcDbLine
 10
-161.46661813826449
 20
41.00055
 11
-161.29580574992869
 21
42.95294453263797
  0
LINE
  5
1D4
100
AcDbEntity
  8
1
  6
CONTINUOUS
 62
             7
100
AcDbLine
 10
-161.2592778068209
 20
40.77427773368102
 11
-161.46661813826449
 21
41.00055
  0
LINE
  5
1D3
100
AcDbEntity
  8
1
  6
CONTINUOUS
 62
             7
100
AcDbLine
 10
-158.6911747798797
 20
41.00055
 11
-158.3543689908646
 21
40.63299097923844
  0
LINE
  5
1D2
100
AcDbEntity
  8
1
  6
CONTINUOUS
 62
             7
100
AcDbLine
 10
-158.3543689908646
 20
40.63299097923844
 11
-158.60803380750431
 21
40.40055
  0
LINE
  5
1D1
100
AcDbEntity
  8
1
  6
CONTINUOUS
 62
             7
100
AcDbLine
 10
-160.9168194338541
 20
40.40055
 11
-161.1241597652978
 21
40.62682226631901
  0
LINE
  5
1D0
100
AcDbEntity
  8
1
  6
CONTINUOUS
 62
             7
100
AcDbLine
 10
-158.60803380750431
 20
40.40055
 11
-160.9168194338541
 21
40.40055
  0
LINE
  5
1CF
100
AcDbEntity
  8
1
  6
CONTINUOUS
 62
             7
100
AcDbLine
 10
-160.71630751244629
 20
41.00055
 11
-161.1241597652978
 21
40.62682226631901
  0
LINE
  5
1CE
100
AcDbEntity
  8
1
  6
CONTINUOUS
 62
             7
100
AcDbLine
 10
-158.6911747798797
 20
41.00055
 11
-160.71630751244629
 21
41.00055
  0
LINE
  5
1CD
100
AcDbEntity
  8
1
  6
CONTINUOUS
 62
             7
100
AcDbLine
 10
-153.7911747798797
 20
41.00055
 11
-155.81630751244629
 21
41.00055
  0
LINE
  5
1CC
100
AcDbEntity
  8
1
  6
CONTINUOUS
 62
             7
100
AcDbLine
 10
-155.81630751244629
 20
41.00055
 11
-156.22415976529771
 21
40.62682226631901
  0
LINE
  5
1CB
100
AcDbEntity
  8
1
  6
CONTINUOUS
 62
             7
100
AcDbLine
 10
-153.70803380750431
 20
40.40055
 11
-156.0168194338541
 21
40.40055
  0
LINE
  5
1CA
100
AcDbEntity
  8
1
  6
CONTINUOUS
 62
             7
100
AcDbLine
 10
-156.0168194338541
 20
40.40055
 11
-156.22415976529771
 21
40.62682226631901
  0
LINE
  5
1C9
100
AcDbEntity
  8
1
  6
CONTINUOUS
 62
             7
100
AcDbLine
 10
-153.45436899086459
 20
40.63299097923844
 11
-153.70803380750431
 21
40.40055
  0
LINE
  5
1C8
100
AcDbEntity
  8
1
  6
CONTINUOUS
 62
             7
100
AcDbLine
 10
-153.7911747798797
 20
41.00055
 11
-153.45436899086459
 21
40.63299097923844
  0
LINE
  5
1C7
100
AcDbEntity
  8
1
  6
CONTINUOUS
 62
             7
100
AcDbLine
 10
-156.35927780682081
 20
40.77427773368102
 11
-156.56661813826449
 21
41.00055
  0
LINE
  5
1C6
100
AcDbEntity
  8
1
  6
CONTINUOUS
 62
             7
100
AcDbLine
 10
-156.56661813826449
 20
41.00055
 11
-156.39580574992871
 21
42.95294453263797
  0
LINE
  5
1C5
100
AcDbEntity
  8
1
  6
CONTINUOUS
 62
             7
100
AcDbLine
 10
-155.95142555396939
 20
41.14800546736201
 11
-155.7924344625047
 21
42.96528195847687
  0
LINE
  5
1C4
100
AcDbEntity
  8
1
  6
CONTINUOUS
 62
             7
100
AcDbLine
 10
-156.35927780682081
 20
40.77427773368102
 11
-155.95142555396939
 21
41.14800546736201
  0
LINE
  5
1C3
100
AcDbEntity
  8
1
  6
CONTINUOUS
 62
             7
100
AcDbLine
 10
-153.48472822105299
 20
42.95294453263797
 11
-153.6437193125177
 21
41.13566804152313
  0
LINE
  5
1C2
100
AcDbEntity
  8
1
  6
CONTINUOUS
 62
             7
100
AcDbLine
 10
-153.3069135235026
 20
40.76810902076157
 11
-153.6437193125177
 21
41.13566804152313
  0
LINE
  5
1C1
100
AcDbEntity
  8
1
  6
CONTINUOUS
 62
             7
100
AcDbLine
 10
-153.0532487068628
 20
41.00055
 11
-152.88135693362901
 21
42.96528195847687
  0
LINE
  5
1C0
100
AcDbEntity
  8
1
  6
CONTINUOUS
 62
             7
100
AcDbLine
 10
-153.0532487068628
 20
41.00055
 11
-153.3069135235026
 21
40.76810902076157
  0
LINE
  5
1BF
100
AcDbEntity
  8
1
  6
CONTINUOUS
 62
             7
100
AcDbLine
 10
-152.8406959465801
 20
46.02622226631898
 11
-153.24854819943161
 21
45.65249453263799
  0
LINE
  5
1BE
100
AcDbEntity
  8
1
  6
CONTINUOUS
 62
             7
100
AcDbLine
 10
-153.38366624095471
 20
45.79995
 11
-152.9758139881032
 21
46.17367773368098
  0
LINE
  5
1BD
100
AcDbEntity
  8
1
  6
CONTINUOUS
 62
             7
100
AcDbLine
 10
-155.4087989735213
 20
45.79995
 11
-155.7456047625364
 21
46.16750902076154
  0
LINE
  5
1BC
100
AcDbEntity
  8
1
  6
CONTINUOUS
 62
             7
100
AcDbLine
 10
-155.8930602298984
 20
46.03239097923841
 11
-155.55625444088329
 21
45.66483195847687
  0
LINE
  5
1BB
100
AcDbEntity
  8
1
  6
CONTINUOUS
 62
             7
100
AcDbLine
 10
-156.14672504653819
 20
45.79995
 11
-155.8930602298984
 21
46.03239097923841
  0
LINE
  5
1BA
100
AcDbEntity
  8
1
  6
CONTINUOUS
 62
             7
100
AcDbLine
 10
-156.14672504653819
 20
45.79995
 11
-156.31861681977199
 21
43.83521804152312
  0
LINE
  5
1B9
100
AcDbEntity
  8
1
  6
CONTINUOUS
 62
             7
100
AcDbLine
 10
-152.63335561513651
 20
45.79995
 11
-152.80416800347231
 21
43.84755546736203
  0
LINE
  5
1B8
100
AcDbEntity
  8
1
  6
CONTINUOUS
 62
             7
100
AcDbLine
 10
-152.8406959465801
 20
46.02622226631898
 11
-152.63335561513651
 21
45.79995
  0
LINE
  5
1B7
100
AcDbEntity
  8
1
  6
CONTINUOUS
 62
             7
100
AcDbLine
 10
-153.1831543195469
 20
46.39994999999999
 11
-152.9758139881032
 21
46.17367773368098
  0
LINE
  5
1B6
100
AcDbEntity
  8
1
  6
CONTINUOUS
 62
             7
100
AcDbLine
 10
-155.4919399458966
 20
46.39995000000002
 11
-153.1831543195469
 21
46.39994999999999
  0
LINE
  5
1B5
100
AcDbEntity
  8
1
  6
CONTINUOUS
 62
             7
100
AcDbLine
 10
-155.7456047625364
 20
46.16750902076154
 11
-155.4919399458966
 21
46.39995000000002
  0
LINE
  5
1B4
100
AcDbEntity
  8
1
  6
CONTINUOUS
 62
             7
100
AcDbLine
 10
-155.4087989735213
 20
45.79995
 11
-153.38366624095471
 21
45.79995
  0
LINE
  5
1B3
100
AcDbEntity
  8
1
  6
CONTINUOUS
 62
             7
100
AcDbLine
 10
-153.24854819943161
 20
45.65249453263799
 11
-153.4075392908963
 21
43.83521804152312
  0
LINE
  5
1B2
100
AcDbEntity
  8
1
  6
CONTINUOUS
 62
             7
100
AcDbLine
 10
-155.6450052417417
 20
43.1001
 11
-155.91425200999529
 21
43.39393128708056
  0
LINE
  5
1B1
100
AcDbEntity
  8
1
  6
CONTINUOUS
 62
             7
100
AcDbLine
 10
-155.6450052417417
 20
43.1001
 11
-153.6198725091752
 21
43.1001
  0
LINE
  5
1B0
100
AcDbEntity
  8
1
  6
CONTINUOUS
 62
             7
100
AcDbLine
 10
-155.91425200999529
 20
43.39393128708056
 11
-155.58012749082491
 21
43.70009999999999
  0
LINE
  5
1AF
100
AcDbEntity
  8
1
  6
CONTINUOUS
 62
             7
100
AcDbLine
 10
-153.55499475825829
 20
43.70009999999999
 11
-153.28574799000469
 21
43.40626871291944
  0
LINE
  5
1AE
100
AcDbEntity
  8
1
  6
CONTINUOUS
 62
             7
100
AcDbLine
 10
-153.55499475825829
 20
43.70009999999999
 11
-155.58012749082491
 21
43.70009999999999
  0
LINE
  5
1AD
100
AcDbEntity
  8
1
  6
CONTINUOUS
 62
             7
100
AcDbLine
 10
-153.28574799000469
 20
43.40626871291944
 11
-153.6198725091752
 21
43.1001
  0
LINE
  5
1AC
100
AcDbEntity
  8
1
  6
CONTINUOUS
 62
             7
100
AcDbLine
 10
-153.4075392908963
 20
43.83521804152312
 11
-153.1382925226427
 21
43.54138675444257
  0
LINE
  5
1AB
100
AcDbEntity
  8
1
  6
CONTINUOUS
 62
             7
100
AcDbLine
 10
-153.1382925226427
 20
43.54138675444257
 11
-152.80416800347231
 21
43.84755546736203
  0
LINE
  5
1AA
100
AcDbEntity
  8
1
  6
CONTINUOUS
 62
             7
100
AcDbLine
 10
-156.31861681977199
 20
43.83521804152312
 11
-156.04937005151839
 21
43.54138675444257
  0
LINE
  5
1A9
100
AcDbEntity
  8
1
  6
CONTINUOUS
 62
             7
100
AcDbLine
 10
-156.04937005151839
 20
43.54138675444257
 11
-155.71524553234801
 21
43.84755546736203
  0
LINE
  5
1A8
100
AcDbEntity
  8
1
  6
CONTINUOUS
 62
             7
100
AcDbLine
 10
-155.71524553234801
 20
43.84755546736203
 11
-155.55625444088329
 21
45.66483195847687
  0
LINE
  5
1A7
100
AcDbEntity
  8
1
  6
CONTINUOUS
 62
             7
100
AcDbLine
 10
-153.15062994848159
 20
43.25881324555742
 11
-153.4847544676521
 21
42.95264453263798
  0
LINE
  5
1A6
100
AcDbEntity
  8
1
  6
CONTINUOUS
 62
             7
100
AcDbLine
 10
-152.881383180228
 20
42.96498195847687
 11
-153.15062994848159
 21
43.25881324555742
  0
LINE
  5
1A5
100
AcDbEntity
  8
1
  6
CONTINUOUS
 62
             7
100
AcDbLine
 10
-156.06170747735729
 20
43.25881324555742
 11
-156.3958319965277
 21
42.95264453263798
  0
LINE
  5
1A4
100
AcDbEntity
  8
1
  6
CONTINUOUS
 62
             7
100
AcDbLine
 10
-155.79246070910369
 20
42.96498195847686
 11
-156.06170747735729
 21
43.25881324555742
  0
LINE
  5
1A3
100
AcDbEntity
  8
1
  6
CONTINUOUS
 62
             7
100
AcDbLine
 10
-155.44109654136321
 20
44.68635012393351
 11
-155.36116690920869
 21
45.59994999999999
  0
LINE
  5
1A2
100
AcDbEntity
  8
1
  6
CONTINUOUS
 62
             7
100
AcDbLine
 10
-155.36116690920869
 20
45.59994999999999
 11
-154.62831048919239
 21
44.22388095238095
  0
LINE
  5
1A1
100
AcDbEntity
  8
1
  6
CONTINUOUS
 62
             7
100
AcDbLine
 10
-154.62831048919239
 20
44.22388095238095
 11
-154.65663765199139
 21
43.9001
  0
LINE
  5
1A0
100
AcDbEntity
  8
1
  6
CONTINUOUS
 62
             7
100
AcDbLine
 10
-154.65663765199139
 20
43.9001
 11
-155.02236141171241
 21
43.9001
  0
LINE
  5
19F
100
AcDbEntity
  8
1
  6
CONTINUOUS
 62
             7
100
AcDbLine
 10
-155.02236141171241
 20
43.9001
 11
-155.44109654136321
 21
44.68635012393351
  0
LINE
  5
19E
100
AcDbEntity
  8
1
  6
CONTINUOUS
 62
             7
100
AcDbLine
 10
-154.4558736844827
 20
43.9001
 11
-154.42754652168381
 21
44.22388095238095
  0
LINE
  5
19D
100
AcDbEntity
  8
1
  6
CONTINUOUS
 62
             7
100
AcDbLine
 10
-154.42754652168381
 20
44.22388095238095
 11
-153.45390921787629
 21
45.59994999999999
  0
LINE
  5
19C
100
AcDbEntity
  8
1
  6
CONTINUOUS
 62
             7
100
AcDbLine
 10
-153.45390921787629
 20
45.59994999999999
 11
-153.5403310839138
 21
44.61214355108895
  0
LINE
  5
19B
100
AcDbEntity
  8
1
  6
CONTINUOUS
 62
             7
100
AcDbLine
 10
-153.5403310839138
 20
44.61214355108895
 11
-154.04413731694791
 21
43.9001
  0
LINE
  5
19A
100
AcDbEntity
  8
1
  6
CONTINUOUS
 62
             7
100
AcDbLine
 10
-154.04413731694791
 20
43.9001
 11
-154.4558736844827
 21
43.9001
  0
LINE
  5
199
100
AcDbEntity
  8
1
  6
CONTINUOUS
 62
             7
100
AcDbLine
 10
-154.5433623480086
 20
42.9001
 11
-154.17763858828769
 21
42.9001
  0
LINE
  5
198
100
AcDbEntity
  8
1
  6
CONTINUOUS
 62
             7
100
AcDbLine
 10
-154.5716895108076
 20
42.57631904761905
 11
-154.5433623480086
 21
42.9001
  0
LINE
  5
197
100
AcDbEntity
  8
1
  6
CONTINUOUS
 62
             7
100
AcDbLine
 10
-155.15586268305211
 20
42.9001
 11
-154.74412631551729
 21
42.9001
  0
LINE
  5
196
100
AcDbEntity
  8
1
  6
CONTINUOUS
 62
             7
100
AcDbLine
 10
-154.74412631551729
 20
42.9001
 11
-154.77245347831629
 21
42.57631904761905
  0
LINE
  5
195
100
AcDbEntity
  8
1
  6
CONTINUOUS
 62
             7
100
AcDbLine
 10
-153.8388330907913
 20
41.20025
 11
-154.5716895108076
 21
42.57631904761905
  0
LINE
  5
194
100
AcDbEntity
  8
1
  6
CONTINUOUS
 62
             7
100
AcDbLine
 10
-153.75890345863681
 20
42.11384987606648
 11
-153.8388330907913
 21
41.20025
  0
LINE
  5
193
100
AcDbEntity
  8
1
  6
CONTINUOUS
 62
             7
100
AcDbLine
 10
-155.7460907821237
 20
41.20025
 11
-155.65966891608619
 21
42.18805644891104
  0
LINE
  5
192
100
AcDbEntity
  8
1
  6
CONTINUOUS
 62
             7
100
AcDbLine
 10
-154.77245347831629
 20
42.57631904761905
 11
-155.7460907821237
 21
41.20025
  0
LINE
  5
191
100
AcDbEntity
  8
1
  6
CONTINUOUS
 62
             7
100
AcDbLine
 10
-154.17763858828769
 20
42.9001
 11
-153.75890345863681
 21
42.11384987606648
  0
LINE
  5
190
100
AcDbEntity
  8
1
  6
CONTINUOUS
 62
             7
100
AcDbLine
 10
-155.65966891608619
 20
42.18805644891104
 11
-155.15586268305211
 21
42.9001
  0
LINE
  5
18F
100
AcDbEntity
  8
1
  6
CONTINUOUS
 62
             7
100
AcDbLine
 10
-148.89117477987969
 20
41.00055
 11
-150.91630751244631
 21
41.00055
  0
LINE
  5
18E
100
AcDbEntity
  8
1
  6
CONTINUOUS
 62
             7
100
AcDbLine
 10
-150.91630751244631
 20
41.00055
 11
-151.32415976529771
 21
40.62682226631901
  0
LINE
  5
18D
100
AcDbEntity
  8
1
  6
CONTINUOUS
 62
             7
100
AcDbLine
 10
-148.8080338075043
 20
40.40055
 11
-151.11681943385409
 21
40.40055
  0
LINE
  5
18C
100
AcDbEntity
  8
1
  6
CONTINUOUS
 62
             7
100
AcDbLine
 10
-151.11681943385409
 20
40.40055
 11
-151.32415976529771
 21
40.62682226631901
  0
LINE
  5
18B
100
AcDbEntity
  8
1
  6
CONTINUOUS
 62
             7
100
AcDbLine
 10
-148.55436899086459
 20
40.63299097923844
 11
-148.8080338075043
 21
40.40055
  0
LINE
  5
18A
100
AcDbEntity
  8
1
  6
CONTINUOUS
 62
             7
100
AcDbLine
 10
-148.89117477987969
 20
41.00055
 11
-148.55436899086459
 21
40.63299097923844
  0
LINE
  5
189
100
AcDbEntity
  8
1
  6
CONTINUOUS
 62
             7
100
AcDbLine
 10
-151.45927780682081
 20
40.77427773368102
 11
-151.66661813826451
 21
41.00055
  0
LINE
  5
188
100
AcDbEntity
  8
1
  6
CONTINUOUS
 62
             7
100
AcDbLine
 10
-151.66661813826451
 20
41.00055
 11
-151.49580574992871
 21
42.95294453263797
  0
LINE
  5
187
100
AcDbEntity
  8
1
  6
CONTINUOUS
 62
             7
100
AcDbLine
 10
-151.05142555396941
 20
41.14800546736201
 11
-150.8924344625047
 21
42.96528195847687
  0
LINE
  5
186
100
AcDbEntity
  8
1
  6
CONTINUOUS
 62
             7
100
AcDbLine
 10
-151.45927780682081
 20
40.77427773368102
 11
-151.05142555396941
 21
41.14800546736201
  0
LINE
  5
185
100
AcDbEntity
  8
1
  6
CONTINUOUS
 62
             7
100
AcDbLine
 10
-148.58472822105301
 20
42.95294453263797
 11
-148.7437193125177
 21
41.13566804152313
  0
LINE
  5
184
100
AcDbEntity
  8
1
  6
CONTINUOUS
 62
             7
100
AcDbLine
 10
-148.40691352350251
 20
40.76810902076157
 11
-148.7437193125177
 21
41.13566804152313
  0
LINE
  5
183
100
AcDbEntity
  8
1
  6
CONTINUOUS
 62
             7
100
AcDbLine
 10
-148.1532487068628
 20
41.00055
 11
-147.981356933629
 21
42.96528195847687
  0
LINE
  5
182
100
AcDbEntity
  8
1
  6
CONTINUOUS
 62
             7
100
AcDbLine
 10
-148.1532487068628
 20
41.00055
 11
-148.40691352350251
 21
40.76810902076157
  0
LINE
  5
181
100
AcDbEntity
  8
1
  6
CONTINUOUS
 62
             7
100
AcDbLine
 10
-147.94069594658009
 20
46.02622226631898
 11
-148.3485481994316
 21
45.65249453263799
  0
LINE
  5
180
100
AcDbEntity
  8
1
  6
CONTINUOUS
 62
             7
100
AcDbLine
 10
-148.4836662409547
 20
45.79995
 11
-148.07581398810319
 21
46.17367773368098
  0
LINE
  5
17F
100
AcDbEntity
  8
1
  6
CONTINUOUS
 62
             7
100
AcDbLine
 10
-150.50879897352129
 20
45.79995
 11
-150.8456047625364
 21
46.16750902076154
  0
LINE
  5
17E
100
AcDbEntity
  8
1
  6
CONTINUOUS
 62
             7
100
AcDbLine
 10
-150.99306022989839
 20
46.03239097923841
 11
-150.65625444088329
 21
45.66483195847687
  0
LINE
  5
17D
100
AcDbEntity
  8
1
  6
CONTINUOUS
 62
             7
100
AcDbLine
 10
-151.24672504653819
 20
45.79995
 11
-150.99306022989839
 21
46.03239097923841
  0
LINE
  5
17C
100
AcDbEntity
  8
1
  6
CONTINUOUS
 62
             7
100
AcDbLine
 10
-151.24672504653819
 20
45.79995
 11
-151.41861681977201
 21
43.83521804152312
  0
LINE
  5
17B
100
AcDbEntity
  8
1
  6
CONTINUOUS
 62
             7
100
AcDbLine
 10
-147.7333556151365
 20
45.79995
 11
-147.90416800347231
 21
43.84755546736203
  0
LINE
  5
17A
100
AcDbEntity
  8
1
  6
CONTINUOUS
 62
             7
100
AcDbLine
 10
-147.94069594658009
 20
46.02622226631898
 11
-147.7333556151365
 21
45.79995
  0
LINE
  5
179
100
AcDbEntity
  8
1
  6
CONTINUOUS
 62
             7
100
AcDbLine
 10
-148.2831543195469
 20
46.39994999999999
 11
-148.07581398810319
 21
46.17367773368098
  0
LINE
  5
178
100
AcDbEntity
  8
1
  6
CONTINUOUS
 62
             7
100
AcDbLine
 10
-150.5919399458966
 20
46.39995000000002
 11
-148.2831543195469
 21
46.39994999999999
  0
LINE
  5
177
100
AcDbEntity
  8
1
  6
CONTINUOUS
 62
             7
100
AcDbLine
 10
-150.8456047625364
 20
46.16750902076154
 11
-150.5919399458966
 21
46.39995000000002
  0
LINE
  5
176
100
AcDbEntity
  8
1
  6
CONTINUOUS
 62
             7
100
AcDbLine
 10
-150.50879897352129
 20
45.79995
 11
-148.4836662409547
 21
45.79995
  0
LINE
  5
175
100
AcDbEntity
  8
1
  6
CONTINUOUS
 62
             7
100
AcDbLine
 10
-148.3485481994316
 20
45.65249453263799
 11
-148.50753929089629
 21
43.83521804152312
  0
LINE
  5
174
100
AcDbEntity
  8
1
  6
CONTINUOUS
 62
             7
100
AcDbLine
 10
-150.74500524174169
 20
43.1001
 11
-151.01425200999529
 21
43.39393128708056
  0
LINE
  5
173
100
AcDbEntity
  8
1
  6
CONTINUOUS
 62
             7
100
AcDbLine
 10
-150.74500524174169
 20
43.1001
 11
-148.71987250917519
 21
43.1001
  0
LINE
  5
172
100
AcDbEntity
  8
1
  6
CONTINUOUS
 62
             7
100
AcDbLine
 10
-151.01425200999529
 20
43.39393128708056
 11
-150.6801274908249
 21
43.70009999999999
  0
LINE
  5
171
100
AcDbEntity
  8
1
  6
CONTINUOUS
 62
             7
100
AcDbLine
 10
-148.65499475825831
 20
43.70009999999999
 11
-148.38574799000469
 21
43.40626871291944
  0
LINE
  5
170
100
AcDbEntity
  8
1
  6
CONTINUOUS
 62
             7
100
AcDbLine
 10
-148.65499475825831
 20
43.70009999999999
 11
-150.6801274908249
 21
43.70009999999999
  0
LINE
  5
16F
100
AcDbEntity
  8
1
  6
CONTINUOUS
 62
             7
100
AcDbLine
 10
-148.38574799000469
 20
43.40626871291944
 11
-148.71987250917519
 21
43.1001
  0
LINE
  5
16E
100
AcDbEntity
  8
1
  6
CONTINUOUS
 62
             7
100
AcDbLine
 10
-148.50753929089629
 20
43.83521804152312
 11
-148.23829252264269
 21
43.54138675444257
  0
LINE
  5
16D
100
AcDbEntity
  8
1
  6
CONTINUOUS
 62
             7
100
AcDbLine
 10
-148.23829252264269
 20
43.54138675444257
 11
-147.90416800347231
 21
43.84755546736203
  0
LINE
  5
16C
100
AcDbEntity
  8
1
  6
CONTINUOUS
 62
             7
100
AcDbLine
 10
-151.41861681977201
 20
43.83521804152312
 11
-151.14937005151839
 21
43.54138675444257
  0
LINE
  5
16B
100
AcDbEntity
  8
1
  6
CONTINUOUS
 62
             7
100
AcDbLine
 10
-151.14937005151839
 20
43.54138675444257
 11
-150.815245532348
 21
43.84755546736203
  0
LINE
  5
16A
100
AcDbEntity
  8
1
  6
CONTINUOUS
 62
             7
100
AcDbLine
 10
-150.815245532348
 20
43.84755546736203
 11
-150.65625444088329
 21
45.66483195847687
  0
LINE
  5
169
100
AcDbEntity
  8
1
  6
CONTINUOUS
 62
             7
100
AcDbLine
 10
-148.25062994848159
 20
43.25881324555742
 11
-148.58475446765209
 21
42.95264453263798
  0
LINE
  5
168
100
AcDbEntity
  8
1
  6
CONTINUOUS
 62
             7
100
AcDbLine
 10
-147.98138318022799
 20
42.96498195847687
 11
-148.25062994848159
 21
43.25881324555742
  0
LINE
  5
167
100
AcDbEntity
  8
1
  6
CONTINUOUS
 62
             7
100
AcDbLine
 10
-151.16170747735731
 20
43.25881324555742
 11
-151.4958319965277
 21
42.95264453263798
  0
LINE
  5
166
100
AcDbEntity
  8
1
  6
CONTINUOUS
 62
             7
100
AcDbLine
 10
-150.89246070910369
 20
42.96498195847686
 11
-151.16170747735731
 21
43.25881324555742
  0
LINE
  5
165
100
AcDbEntity
  8
1
  6
CONTINUOUS
 62
             7
100
AcDbLine
 10
-150.5410965413632
 20
44.68635012393351
 11
-150.46116690920871
 21
45.59994999999999
  0
LINE
  5
164
100
AcDbEntity
  8
1
  6
CONTINUOUS
 62
             7
100
AcDbLine
 10
-150.46116690920871
 20
45.59994999999999
 11
-149.72831048919241
 21
44.22388095238095
  0
LINE
  5
163
100
AcDbEntity
  8
1
  6
CONTINUOUS
 62
             7
100
AcDbLine
 10
-149.72831048919241
 20
44.22388095238095
 11
-149.75663765199141
 21
43.9001
  0
LINE
  5
162
100
AcDbEntity
  8
1
  6
CONTINUOUS
 62
             7
100
AcDbLine
 10
-149.75663765199141
 20
43.9001
 11
-150.1223614117124
 21
43.9001
  0
LINE
  5
161
100
AcDbEntity
  8
1
  6
CONTINUOUS
 62
             7
100
AcDbLine
 10
-150.1223614117124
 20
43.9001
 11
-150.5410965413632
 21
44.68635012393351
  0
LINE
  5
160
100
AcDbEntity
  8
1
  6
CONTINUOUS
 62
             7
100
AcDbLine
 10
-149.55587368448269
 20
43.9001
 11
-149.5275465216838
 21
44.22388095238095
  0
LINE
  5
15F
100
AcDbEntity
  8
1
  6
CONTINUOUS
 62
             7
100
AcDbLine
 10
-149.5275465216838
 20
44.22388095238095
 11
-148.55390921787631
 21
45.59994999999999
  0
LINE
  5
15E
100
AcDbEntity
  8
1
  6
CONTINUOUS
 62
             7
100
AcDbLine
 10
-148.55390921787631
 20
45.59994999999999
 11
-148.64033108391379
 21
44.61214355108895
  0
LINE
  5
15D
100
AcDbEntity
  8
1
  6
CONTINUOUS
 62
             7
100
AcDbLine
 10
-148.64033108391379
 20
44.61214355108895
 11
-149.1441373169479
 21
43.9001
  0
LINE
  5
15C
100
AcDbEntity
  8
1
  6
CONTINUOUS
 62
             7
100
AcDbLine
 10
-149.1441373169479
 20
43.9001
 11
-149.55587368448269
 21
43.9001
  0
LINE
  5
15B
100
AcDbEntity
  8
1
  6
CONTINUOUS
 62
             7
100
AcDbLine
 10
-149.64336234800859
 20
42.9001
 11
-149.27763858828769
 21
42.9001
  0
LINE
  5
15A
100
AcDbEntity
  8
1
  6
CONTINUOUS
 62
             7
100
AcDbLine
 10
-149.6716895108076
 20
42.57631904761905
 11
-149.64336234800859
 21
42.9001
  0
LINE
  5
159
100
AcDbEntity
  8
1
  6
CONTINUOUS
 62
             7
100
AcDbLine
 10
-150.2558626830521
 20
42.9001
 11
-149.84412631551729
 21
42.9001
  0
LINE
  5
158
100
AcDbEntity
  8
1
  6
CONTINUOUS
 62
             7
100
AcDbLine
 10
-149.84412631551729
 20
42.9001
 11
-149.87245347831629
 21
42.57631904761905
  0
LINE
  5
157
100
AcDbEntity
  8
1
  6
CONTINUOUS
 62
             7
100
AcDbLine
 10
-148.93883309079129
 20
41.20025
 11
-149.6716895108076
 21
42.57631904761905
  0
LINE
  5
156
100
AcDbEntity
  8
1
  6
CONTINUOUS
 62
             7
100
AcDbLine
 10
-148.8589034586368
 20
42.11384987606648
 11
-148.93883309079129
 21
41.20025
  0
LINE
  5
155
100
AcDbEntity
  8
1
  6
CONTINUOUS
 62
             7
100
AcDbLine
 10
-150.8460907821237
 20
41.20025
 11
-150.75966891608621
 21
42.18805644891104
  0
LINE
  5
154
100
AcDbEntity
  8
1
  6
CONTINUOUS
 62
             7
100
AcDbLine
 10
-149.87245347831629
 20
42.57631904761905
 11
-150.8460907821237
 21
41.20025
  0
LINE
  5
153
100
AcDbEntity
  8
1
  6
CONTINUOUS
 62
             7
100
AcDbLine
 10
-149.27763858828769
 20
42.9001
 11
-148.8589034586368
 21
42.11384987606648
  0
LINE
  5
152
100
AcDbEntity
  8
1
  6
CONTINUOUS
 62
             7
100
AcDbLine
 10
-150.75966891608621
 20
42.18805644891104
 11
-150.2558626830521
 21
42.9001
  0
LINE
  5
151
100
AcDbEntity
  8
1
  6
CONTINUOUS
 62
             7
100
AcDbLine
 10
-143.99117477987971
 20
41.00055
 11
-146.0163075124463
 21
41.00055
  0
LINE
  5
150
100
AcDbEntity
  8
1
  6
CONTINUOUS
 62
             7
100
AcDbLine
 10
-146.0163075124463
 20
41.00055
 11
-146.4241597652977
 21
40.62682226631901
  0
LINE
  5
14F
100
AcDbEntity
  8
1
  6
CONTINUOUS
 62
             7
100
AcDbLine
 10
-143.9080338075043
 20
40.40055
 11
-146.21681943385411
 21
40.40055
  0
LINE
  5
14E
100
AcDbEntity
  8
1
  6
CONTINUOUS
 62
             7
100
AcDbLine
 10
-146.21681943385411
 20
40.40055
 11
-146.4241597652977
 21
40.62682226631901
  0
LINE
  5
14D
100
AcDbEntity
  8
1
  6
CONTINUOUS
 62
             7
100
AcDbLine
 10
-143.65436899086461
 20
40.63299097923844
 11
-143.9080338075043
 21
40.40055
  0
LINE
  5
14C
100
AcDbEntity
  8
1
  6
CONTINUOUS
 62
             7
100
AcDbLine
 10
-143.99117477987971
 20
41.00055
 11
-143.65436899086461
 21
40.63299097923844
  0
LINE
  5
14B
100
AcDbEntity
  8
1
  6
CONTINUOUS
 62
             7
100
AcDbLine
 10
-146.55927780682089
 20
40.77427773368102
 11
-146.7666181382645
 21
41.00055
  0
LINE
  5
14A
100
AcDbEntity
  8
1
  6
CONTINUOUS
 62
             7
100
AcDbLine
 10
-146.7666181382645
 20
41.00055
 11
-146.5958057499287
 21
42.95294453263797
  0
LINE
  5
149
100
AcDbEntity
  8
1
  6
CONTINUOUS
 62
             7
100
AcDbLine
 10
-146.1514255539694
 20
41.14800546736201
 11
-145.99243446250469
 21
42.96528195847687
  0
LINE
  5
148
100
AcDbEntity
  8
1
  6
CONTINUOUS
 62
             7
100
AcDbLine
 10
-146.55927780682089
 20
40.77427773368102
 11
-146.1514255539694
 21
41.14800546736201
  0
LINE
  5
147
100
AcDbEntity
  8
1
  6
CONTINUOUS
 62
             7
100
AcDbLine
 10
-143.68472822105301
 20
42.95294453263797
 11
-143.84371931251769
 21
41.13566804152313
  0
LINE
  5
146
100
AcDbEntity
  8
1
  6
CONTINUOUS
 62
             7
100
AcDbLine
 10
-143.50691352350259
 20
40.76810902076157
 11
-143.84371931251769
 21
41.13566804152313
  0
LINE
  5
145
100
AcDbEntity
  8
1
  6
CONTINUOUS
 62
             7
100
AcDbLine
 10
-143.25324870686279
 20
41.00055
 11
-143.081356933629
 21
42.96528195847687
  0
LINE
  5
144
100
AcDbEntity
  8
1
  6
CONTINUOUS
 62
             7
100
AcDbLine
 10
-143.25324870686279
 20
41.00055
 11
-143.50691352350259
 21
40.76810902076157
  0
LINE
  5
143
100
AcDbEntity
  8
1
  6
CONTINUOUS
 62
             7
100
AcDbLine
 10
-143.04069594658009
 20
46.02622226631898
 11
-143.4485481994316
 21
45.65249453263799
  0
LINE
  5
142
100
AcDbEntity
  8
1
  6
CONTINUOUS
 62
             7
100
AcDbLine
 10
-143.5836662409547
 20
45.79995
 11
-143.17581398810319
 21
46.17367773368098
  0
LINE
  5
141
100
AcDbEntity
  8
1
  6
CONTINUOUS
 62
             7
100
AcDbLine
 10
-145.60879897352129
 20
45.79995
 11
-145.94560476253639
 21
46.16750902076154
  0
LINE
  5
140
100
AcDbEntity
  8
1
  6
CONTINUOUS
 62
             7
100
AcDbLine
 10
-146.09306022989841
 20
46.03239097923841
 11
-145.75625444088331
 21
45.66483195847687
  0
LINE
  5
13F
100
AcDbEntity
  8
1
  6
CONTINUOUS
 62
             7
100
AcDbLine
 10
-146.34672504653821
 20
45.79995
 11
-146.09306022989841
 21
46.03239097923841
  0
LINE
  5
13E
100
AcDbEntity
  8
1
  6
CONTINUOUS
 62
             7
100
AcDbLine
 10
-146.34672504653821
 20
45.79995
 11
-146.51861681977201
 21
43.83521804152312
  0
LINE
  5
13D
100
AcDbEntity
  8
1
  6
CONTINUOUS
 62
             7
100
AcDbLine
 10
-142.83335561513641
 20
45.79995
 11
-143.0041680034723
 21
43.84755546736203
  0
LINE
  5
13C
100
AcDbEntity
  8
1
  6
CONTINUOUS
 62
             7
100
AcDbLine
 10
-143.04069594658009
 20
46.02622226631898
 11
-142.83335561513641
 21
45.79995
  0
LINE
  5
13B
100
AcDbEntity
  8
1
  6
CONTINUOUS
 62
             7
100
AcDbLine
 10
-143.38315431954689
 20
46.39994999999999
 11
-143.17581398810319
 21
46.17367773368098
  0
LINE
  5
13A
100
AcDbEntity
  8
1
  6
CONTINUOUS
 62
             7
100
AcDbLine
 10
-145.69193994589659
 20
46.39995000000002
 11
-143.38315431954689
 21
46.39994999999999
  0
LINE
  5
139
100
AcDbEntity
  8
1
  6
CONTINUOUS
 62
             7
100
AcDbLine
 10
-145.94560476253639
 20
46.16750902076154
 11
-145.69193994589659
 21
46.39995000000002
  0
LINE
  5
138
100
AcDbEntity
  8
1
  6
CONTINUOUS
 62
             7
100
AcDbLine
 10
-145.60879897352129
 20
45.79995
 11
-143.5836662409547
 21
45.79995
  0
LINE
  5
137
100
AcDbEntity
  8
1
  6
CONTINUOUS
 62
             7
100
AcDbLine
 10
-143.4485481994316
 20
45.65249453263799
 11
-143.60753929089631
 21
43.83521804152312
  0
LINE
  5
136
100
AcDbEntity
  8
1
  6
CONTINUOUS
 62
             7
100
AcDbLine
 10
-145.84500524174169
 20
43.1001
 11
-146.11425200999531
 21
43.39393128708056
  0
LINE
  5
135
100
AcDbEntity
  8
1
  6
CONTINUOUS
 62
             7
100
AcDbLine
 10
-145.84500524174169
 20
43.1001
 11
-143.81987250917521
 21
43.1001
  0
LINE
  5
134
100
AcDbEntity
  8
1
  6
CONTINUOUS
 62
             7
100
AcDbLine
 10
-146.11425200999531
 20
43.39393128708056
 11
-145.7801274908249
 21
43.70009999999999
  0
LINE
  5
133
100
AcDbEntity
  8
1
  6
CONTINUOUS
 62
             7
100
AcDbLine
 10
-143.75499475825831
 20
43.70009999999999
 11
-143.48574799000471
 21
43.40626871291944
  0
LINE
  5
132
100
AcDbEntity
  8
1
  6
CONTINUOUS
 62
             7
100
AcDbLine
 10
-143.75499475825831
 20
43.70009999999999
 11
-145.7801274908249
 21
43.70009999999999
  0
LINE
  5
131
100
AcDbEntity
  8
1
  6
CONTINUOUS
 62
             7
100
AcDbLine
 10
-143.48574799000471
 20
43.40626871291944
 11
-143.81987250917521
 21
43.1001
  0
LINE
  5
130
100
AcDbEntity
  8
1
  6
CONTINUOUS
 62
             7
100
AcDbLine
 10
-143.60753929089631
 20
43.83521804152312
 11
-143.33829252264269
 21
43.54138675444257
  0
LINE
  5
12F
100
AcDbEntity
  8
1
  6
CONTINUOUS
 62
             7
100
AcDbLine
 10
-143.33829252264269
 20
43.54138675444257
 11
-143.0041680034723
 21
43.84755546736203
  0
LINE
  5
12E
100
AcDbEntity
  8
1
  6
CONTINUOUS
 62
             7
100
AcDbLine
 10
-146.51861681977201
 20
43.83521804152312
 11
-146.24937005151841
 21
43.54138675444257
  0
LINE
  5
12D
100
AcDbEntity
  8
1
  6
CONTINUOUS
 62
             7
100
AcDbLine
 10
-146.24937005151841
 20
43.54138675444257
 11
-145.915245532348
 21
43.84755546736203
  0
LINE
  5
12C
100
AcDbEntity
  8
1
  6
CONTINUOUS
 62
             7
100
AcDbLine
 10
-145.915245532348
 20
43.84755546736203
 11
-145.75625444088331
 21
45.66483195847687
  0
LINE
  5
12B
100
AcDbEntity
  8
1
  6
CONTINUOUS
 62
             7
100
AcDbLine
 10
-143.35062994848161
 20
43.25881324555742
 11
-143.68475446765211
 21
42.95264453263798
  0
LINE
  5
12A
100
AcDbEntity
  8
1
  6
CONTINUOUS
 62
             7
100
AcDbLine
 10
-143.08138318022799
 20
42.96498195847687
 11
-143.35062994848161
 21
43.25881324555742
  0
LINE
  5
129
100
AcDbEntity
  8
1
  6
CONTINUOUS
 62
             7
100
AcDbLine
 10
-146.26170747735731
 20
43.25881324555742
 11
-146.59583199652769
 21
42.95264453263798
  0
LINE
  5
128
100
AcDbEntity
  8
1
  6
CONTINUOUS
 62
             7
100
AcDbLine
 10
-145.99246070910371
 20
42.96498195847686
 11
-146.26170747735731
 21
43.25881324555742
  0
LINE
  5
127
100
AcDbEntity
  8
1
  6
CONTINUOUS
 62
             7
100
AcDbLine
 10
-145.6410965413632
 20
44.68635012393351
 11
-145.56116690920871
 21
45.59994999999999
  0
LINE
  5
126
100
AcDbEntity
  8
1
  6
CONTINUOUS
 62
             7
100
AcDbLine
 10
-145.56116690920871
 20
45.59994999999999
 11
-144.8283104891924
 21
44.22388095238095
  0
LINE
  5
125
100
AcDbEntity
  8
1
  6
CONTINUOUS
 62
             7
100
AcDbLine
 10
-144.8283104891924
 20
44.22388095238095
 11
-144.85663765199141
 21
43.9001
  0
LINE
  5
124
100
AcDbEntity
  8
1
  6
CONTINUOUS
 62
             7
100
AcDbLine
 10
-144.85663765199141
 20
43.9001
 11
-145.2223614117124
 21
43.9001
  0
LINE
  5
123
100
AcDbEntity
  8
1
  6
CONTINUOUS
 62
             7
100
AcDbLine
 10
-145.2223614117124
 20
43.9001
 11
-145.6410965413632
 21
44.68635012393351
  0
LINE
  5
122
100
AcDbEntity
  8
1
  6
CONTINUOUS
 62
             7
100
AcDbLine
 10
-144.65587368448271
 20
43.9001
 11
-144.6275465216838
 21
44.22388095238095
  0
LINE
  5
121
100
AcDbEntity
  8
1
  6
CONTINUOUS
 62
             7
100
AcDbLine
 10
-144.6275465216838
 20
44.22388095238095
 11
-143.6539092178763
 21
45.59994999999999
  0
LINE
  5
120
100
AcDbEntity
  8
1
  6
CONTINUOUS
 62
             7
100
AcDbLine
 10
-143.6539092178763
 20
45.59994999999999
 11
-143.74033108391379
 21
44.61214355108895
  0
LINE
  5
11F
100
AcDbEntity
  8
1
  6
CONTINUOUS
 62
             7
100
AcDbLine
 10
-143.74033108391379
 20
44.61214355108895
 11
-144.2441373169479
 21
43.9001
  0
LINE
  5
11E
100
AcDbEntity
  8
1
  6
CONTINUOUS
 62
             7
100
AcDbLine
 10
-144.2441373169479
 20
43.9001
 11
-144.65587368448271
 21
43.9001
  0
LINE
  5
11D
100
AcDbEntity
  8
1
  6
CONTINUOUS
 62
             7
100
AcDbLine
 10
-144.74336234800859
 20
42.9001
 11
-144.37763858828771
 21
42.9001
  0
LINE
  5
11C
100
AcDbEntity
  8
1
  6
CONTINUOUS
 62
             7
100
AcDbLine
 10
-144.77168951080759
 20
42.57631904761905
 11
-144.74336234800859
 21
42.9001
  0
LINE
  5
11B
100
AcDbEntity
  8
1
  6
CONTINUOUS
 62
             7
100
AcDbLine
 10
-145.3558626830521
 20
42.9001
 11
-144.94412631551731
 21
42.9001
  0
LINE
  5
11A
100
AcDbEntity
  8
1
  6
CONTINUOUS
 62
             7
100
AcDbLine
 10
-144.94412631551731
 20
42.9001
 11
-144.97245347831631
 21
42.57631904761905
  0
LINE
  5
119
100
AcDbEntity
  8
1
  6
CONTINUOUS
 62
             7
100
AcDbLine
 10
-144.03883309079129
 20
41.20025
 11
-144.77168951080759
 21
42.57631904761905
  0
LINE
  5
118
100
AcDbEntity
  8
1
  6
CONTINUOUS
 62
             7
100
AcDbLine
 10
-143.9589034586368
 20
42.11384987606648
 11
-144.03883309079129
 21
41.20025
  0
LINE
  5
117
100
AcDbEntity
  8
1
  6
CONTINUOUS
 62
             7
100
AcDbLine
 10
-145.94609078212369
 20
41.20025
 11
-145.85966891608621
 21
42.18805644891104
  0
LINE
  5
116
100
AcDbEntity
  8
1
  6
CONTINUOUS
 62
             7
100
AcDbLine
 10
-144.97245347831631
 20
42.57631904761905
 11
-145.94609078212369
 21
41.20025
  0
LINE
  5
115
100
AcDbEntity
  8
1
  6
CONTINUOUS
 62
             7
100
AcDbLine
 10
-144.37763858828771
 20
42.9001
 11
-143.9589034586368
 21
42.11384987606648
  0
LINE
  5
114
100
AcDbEntity
  8
1
  6
CONTINUOUS
 62
             7
100
AcDbLine
 10
-145.85966891608621
 20
42.18805644891104
 11
-145.3558626830521
 21
42.9001
  0
LINE
  5
113
100
AcDbEntity
  8
1
  6
CONTINUOUS
 62
             7
100
AcDbLine
 10
-162.64069594658011
 20
46.02622226631898
 11
-163.04854819943159
 21
45.65249453263799
  0
LINE
  5
112
100
AcDbEntity
  8
1
  6
CONTINUOUS
 62
             7
100
AcDbLine
 10
-163.04854819943159
 20
45.65249453263799
 11
-163.20753929089631
 21
43.83521804152312
  0
LINE
  5
111
100
AcDbEntity
  8
1
  6
CONTINUOUS
 62
             7
100
AcDbLine
 10
-162.43335561513641
 20
45.79995
 11
-162.6041680034723
 21
43.84755546736203
  0
LINE
  5
110
100
AcDbEntity
  8
1
  6
CONTINUOUS
 62
             7
100
AcDbLine
 10
-162.64069594658011
 20
46.02622226631898
 11
-162.43335561513641
 21
45.79995
  0
LINE
  5
10F
100
AcDbEntity
  8
1
  6
CONTINUOUS
 62
             7
100
AcDbLine
 10
-163.20753929089631
 20
43.83521804152312
 11
-162.93829252264271
 21
43.54138675444257
  0
LINE
  5
10E
100
AcDbEntity
  8
1
  6
CONTINUOUS
 62
             7
100
AcDbLine
 10
-162.93829252264271
 20
43.54138675444257
 11
-162.6041680034723
 21
43.84755546736203
  0
LINE
  5
10D
100
AcDbEntity
  8
1
  6
CONTINUOUS
 62
             7
100
AcDbLine
 10
-162.95062994848161
 20
43.25881324555742
 11
-163.28475446765211
 21
42.95264453263798
  0
LINE
  5
10C
100
AcDbEntity
  8
1
  6
CONTINUOUS
 62
             7
100
AcDbLine
 10
-162.68138318022801
 20
42.96498195847687
 11
-162.95062994848161
 21
43.25881324555742
  0
LINE
  5
10B
100
AcDbEntity
  8
1
  6
CONTINUOUS
 62
             7
100
AcDbLine
 10
-163.28472822105289
 20
42.95294453263797
 11
-163.44371931251769
 21
41.13566804152313
  0
LINE
  5
10A
100
AcDbEntity
  8
1
  6
CONTINUOUS
 62
             7
100
AcDbLine
 10
-163.1069135235025
 20
40.76810902076157
 11
-163.44371931251769
 21
41.13566804152313
  0
LINE
  5
109
100
AcDbEntity
  8
1
  6
CONTINUOUS
 62
             7
100
AcDbLine
 10
-162.85324870686279
 20
41.00055
 11
-162.68135693362899
 21
42.96528195847687
  0
LINE
  5
108
100
AcDbEntity
  8
1
  6
CONTINUOUS
 62
             7
100
AcDbLine
 10
-162.85324870686279
 20
41.00055
 11
-163.1069135235025
 21
40.76810902076157
  0
LINE
  5
107
100
AcDbEntity
  8
1
  6
CONTINUOUS
 62
             7
100
AcDbLine
 10
-166.3778997779944
 20
55.99969247405156
 11
-166.19415105398889
 21
58.09994999999999
  0
LINE
  5
106
100
AcDbEntity
  8
1
  6
CONTINUOUS
 62
             7
100
AcDbLine
 10
-166.19415105398889
 20
58.09994999999999
 11
-165.21454221492351
 21
54.95478870967735
  0
LINE
  5
105
100
AcDbEntity
  8
1
  6
CONTINUOUS
 62
             7
100
AcDbLine
 10
-164.9133962636605
 20
54.95478870967738
 11
-163.38345550886751
 21
58.09995
  0
LINE
  5
104
100
AcDbEntity
  8
1
  6
CONTINUOUS
 62
             7
100
AcDbLine
 10
-163.38345550886751
 20
58.09995
 11
-163.5785469329696
 21
55.87004481869275
  0
LINE
  5
103
100
AcDbEntity
  8
1
  6
CONTINUOUS
 62
             7
100
AcDbLine
 10
-165.81734231436059
 20
54.19995
 11
-166.3778997779944
 21
55.99969247405156
  0
LINE
  5
102
100
AcDbEntity
  8
1
  6
CONTINUOUS
 62
             7
100
AcDbLine
 10
-165.28058204481081
 20
54.19995
 11
-165.81734231436059
 21
54.19995
  0
LINE
  5
101
100
AcDbEntity
  8
1
  6
CONTINUOUS
 62
             7
100
AcDbLine
 10
-165.21454221492351
 20
54.95478870967735
 11
-165.28058204481081
 21
54.19995
  0
LINE
  5
100
100
AcDbEntity
  8
1
  6
CONTINUOUS
 62
             7
100
AcDbLine
 10
-164.9794360935478
 20
54.19995
 11
-164.9133962636605
 21
54.95478870967738
  0
LINE
  5
FF
100
AcDbEntity
  8
1
  6
CONTINUOUS
 62
             7
100
AcDbLine
 10
-164.39095236837559
 20
54.19995
 11
-164.9794360935478
 21
54.19995
  0
LINE
  5
FE
100
AcDbEntity
  8
1
  6
CONTINUOUS
 62
             7
100
AcDbLine
 10
-163.5785469329696
 20
55.87004481869275
 11
-164.39095236837559
 21
54.19995
  0
LINE
  5
FD
100
AcDbEntity
  8
1
  6
CONTINUOUS
 62
             7
100
AcDbLine
 10
-166.00904763162441
 20
52.59995000000001
 11
-165.4205639064522
 21
52.59995000000001
  0
LINE
  5
FC
100
AcDbEntity
  8
1
  6
CONTINUOUS
 62
             7
100
AcDbLine
 10
-165.4205639064522
 20
52.59995000000001
 11
-165.48660373633959
 21
51.84511129032262
  0
LINE
  5
FB
100
AcDbEntity
  8
1
  6
CONTINUOUS
 62
             7
100
AcDbLine
 10
-165.11941795518931
 20
52.59995000000001
 11
-164.58265768563939
 21
52.59995000000001
  0
LINE
  5
FA
100
AcDbEntity
  8
1
  6
CONTINUOUS
 62
             7
100
AcDbLine
 10
-165.18545778507661
 20
51.84511129032265
 11
-165.11941795518931
 21
52.59995000000001
  0
LINE
  5
F9
100
AcDbEntity
  8
1
  6
CONTINUOUS
 62
             7
100
AcDbLine
 10
-167.01654449113261
 20
48.69995
 11
-166.82145306703049
 21
50.92985518130726
  0
LINE
  5
F8
100
AcDbEntity
  8
1
  6
CONTINUOUS
 62
             7
100
AcDbLine
 10
-165.48660373633959
 20
51.84511129032262
 11
-167.01654449113261
 21
48.69995
  0
LINE
  5
F7
100
AcDbEntity
  8
1
  6
CONTINUOUS
 62
             7
100
AcDbLine
 10
-164.2058489460112
 20
48.69994999999999
 11
-165.18545778507661
 21
51.84511129032265
  0
LINE
  5
F6
100
AcDbEntity
  8
1
  6
CONTINUOUS
 62
             7
100
AcDbLine
 10
-164.02210022200569
 20
50.80020752594845
 11
-164.2058489460112
 21
48.69994999999999
  0
LINE
  5
F5
100
AcDbEntity
  8
1
  6
CONTINUOUS
 62
             7
100
AcDbLine
 10
-164.58265768563939
 20
52.59995000000001
 11
-164.02210022200569
 21
50.80020752594845
  0
LINE
  5
F4
100
AcDbEntity
  8
1
  6
CONTINUOUS
 62
             7
100
AcDbLine
 10
-166.82145306703049
 20
50.92985518130726
 11
-166.00904763162441
 21
52.59995000000001
  0
LINE
  5
F3
100
AcDbEntity
  8
1
  6
CONTINUOUS
 62
             7
100
AcDbLine
 10
-148.80000000000001
 20
29.60010000000003
 11
-148.80000000000001
 21
29.10010000000003
  0
LINE
  5
F2
100
AcDbEntity
  8
1
  6
CONTINUOUS
 62
             7
100
AcDbLine
 10
-178.15000000000001
 20
67.34990000000001
 11
-178.15000000000001
 21
22.65009999999999
  0
LINE
  5
F1
100
AcDbEntity
  8
1
  6
CONTINUOUS
 62
             7
100
AcDbLine
 10
-132.94999999999999
 20
67.84990000000001
 11
-177.65000000000001
 21
67.84990000000001
  0
LINE
  5
F0
100
AcDbEntity
  8
1
  6
CONTINUOUS
 62
             7
100
AcDbLine
 10
-132.44999999999999
 20
22.65009999999999
 11
-132.44999999999999
 21
67.34990000000001
  0
LINE
  5
EF
100
AcDbEntity
  8
1
  6
CONTINUOUS
 62
             7
100
AcDbLine
 10
-177.65000000000001
 20
22.15009999999998
 11
-132.94999999999999
 21
22.15009999999999
  0
LINE
  5
EE
100
AcDbEntity
  8
PV
  6
CONTINUOUS
 62
             7
100
AcDbLine
 10
-174.19999999999999
 20
60.0999
 11
-174.19999999999999
 21
39.7001
  0
LINE
  5
ED
100
AcDbEntity
  8
PV
  6
CONTINUOUS
 62
             7
100
AcDbLine
 10
-173.0
 20
38.5001
 11
-137.59999999999999
 21
38.5001
  0
LINE
  5
EC
100
AcDbEntity
  8
PV
  6
CONTINUOUS
 62
             7
100
AcDbLine
 10
-136.40000000000001
 20
60.0999
 11
-136.40000000000001
 21
39.70010000000001
  0
LINE
  5
EB
100
AcDbEntity
  8
1
  6
CONTINUOUS
 62
             7
100
AcDbLine
 10
-157.80000000000001
 20
32.10010000000003
 11
-160.80000000000001
 21
28.5248392222174
  0
LINE
  5
EA
100
AcDbEntity
  8
1
  6
CONTINUOUS
 62
             7
100
AcDbLine
 10
-160.80000000000001
 20
28.5248392222174
 11
-163.80000000000001
 21
32.10010000000003
  0
LINE
  5
E9
100
AcDbEntity
  8
1
  6
CONTINUOUS
 62
             7
100
AcDbLine
 10
-163.80000000000001
 20
32.10010000000003
 11
-157.80000000000001
 21
32.10010000000003
  0
LINE
  5
E8
100
AcDbEntity
  8
1
  6
CONTINUOUS
 62
             7
100
AcDbLine
 10
-168.80000000000001
 20
29.10010000000003
 11
-174.80000000000001
 21
29.10010000000003
  0
LINE
  5
E7
100
AcDbEntity
  8
1
  6
CONTINUOUS
 62
             7
100
AcDbLine
 10
-171.80000000000001
 20
32.67536077778266
 11
-168.80000000000001
 21
29.10010000000003
  0
LINE
  5
E6
100
AcDbEntity
  8
1
  6
CONTINUOUS
 62
             7
100
AcDbLine
 10
-174.80000000000001
 20
29.10010000000003
 11
-171.80000000000001
 21
32.67536077778266
  0
LINE
  5
E5
100
AcDbEntity
  8
1
  6
CONTINUOUS
 62
             7
100
AcDbLine
 10
-176.80000000000001
 20
62.19990000000002
 11
-176.80000000000001
 21
28.50010000000003
  0
LINE
  5
E4
100
AcDbEntity
  8
1
  6
CONTINUOUS
 62
             7
100
AcDbLine
 10
-136.30000000000001
 20
64.69990000000001
 11
-174.30000000000001
 21
64.69990000000001
  0
LINE
  5
E3
100
AcDbEntity
  8
1
  6
CONTINUOUS
 62
             7
100
AcDbLine
 10
-133.80000000000001
 20
28.50010000000003
 11
-133.80000000000001
 21
62.19990000000002
  0
LINE
  5
E2
100
AcDbEntity
  8
1
  6
CONTINUOUS
 62
             7
100
AcDbLine
 10
-174.30000000000001
 20
26.00010000000003
 11
-136.30000000000001
 21
26.00010000000003
  0
LINE
  5
E1
100
AcDbEntity
  8
1
  6
CONTINUOUS
 62
             7
100
AcDbLine
 10
-175.30000000000001
 20
62.19990000000002
 11
-175.30000000000001
 21
36.00010000000003
  0
LINE
  5
E0
100
AcDbEntity
  8
1
  6
CONTINUOUS
 62
             7
100
AcDbLine
 10
-136.30000000000001
 20
63.19990000000001
 11
-174.30000000000001
 21
63.19990000000001
  0
LINE
  5
DF
100
AcDbEntity
  8
1
  6
CONTINUOUS
 62
             7
100
AcDbLine
 10
-135.30000000000001
 20
36.00010000000003
 11
-135.30000000000001
 21
62.19990000000002
  0
LINE
  5
DE
100
AcDbEntity
  8
1
  6
CONTINUOUS
 62
             7
100
AcDbLine
 10
-174.30000000000001
 20
35.00010000000003
 11
-136.30000000000001
 21
35.00010000000003
  0
LINE
  5
DD
100
AcDbEntity
  8
1
  6
CONTINUOUS
 62
             7
100
AcDbLine
 10
-148.80000000000001
 20
32.10010000000003
 11
-150.80000000000001
 21
32.10010000000003
  0
LINE
  5
DC
100
AcDbEntity
  8
1
  6
CONTINUOUS
 62
             7
100
AcDbLine
 10
-150.80000000000001
 20
29.10010000000003
 11
-149.80000000000001
 21
29.10010000000003
  0
LINE
  5
DB
100
AcDbEntity
  8
1
  6
CONTINUOUS
 62
             7
100
AcDbLine
 10
-149.80000000000001
 20
29.10010000000003
 11
-150.30000000000001
 21
28.60010000000003
  0
LINE
  5
DA
100
AcDbEntity
  8
1
  6
CONTINUOUS
 62
             7
100
AcDbLine
 10
-150.30000000000001
 20
28.60010000000003
 11
-151.30000000000001
 21
28.60010000000003
  0
LINE
  5
D9
100
AcDbEntity
  8
1
  6
CONTINUOUS
 62
             7
100
AcDbLine
 10
-151.30000000000001
 20
32.60010000000003
 11
-148.30000000000001
 21
32.60010000000003
  0
LINE
  5
D8
100
AcDbEntity
  8
1
  6
CONTINUOUS
 62
             7
100
AcDbLine
 10
-148.30000000000001
 20
28.60010000000003
 11
-149.80000000000001
 21
28.60010000000003
  0
LINE
  5
D7
100
AcDbEntity
  8
1
  6
CONTINUOUS
 62
             7
100
AcDbLine
 10
-149.80000000000001
 20
28.60010000000003
 11
-148.80000000000001
 21
29.60010000000003
  0
LINE
  5
D6
100
AcDbEntity
  8
1
  6
CONTINUOUS
 62
             7
100
AcDbLine
 10
-139.05000000000001
 20
29.10010000000003
 11
-138.55000000000001
 21
29.10010000000003
  0
LINE
  5
D5
100
AcDbEntity
  8
1
  6
CONTINUOUS
 62
             7
100
AcDbLine
 10
-138.55000000000001
 20
29.10010000000003
 11
-138.55000000000001
 21
32.10010000000003
  0
LINE
  5
D4
100
AcDbEntity
  8
1
  6
CONTINUOUS
 62
             7
100
AcDbLine
 10
-138.55000000000001
 20
32.10010000000003
 11
-139.05000000000001
 21
32.10010000000003
  0
LINE
  5
D3
100
AcDbEntity
  8
1
  6
CONTINUOUS
 62
             7
100
AcDbLine
 10
-139.05000000000001
 20
32.10010000000003
 11
-139.05000000000001
 21
29.10010000000003
  0
LINE
  5
D2
100
AcDbEntity
  8
1
  6
CONTINUOUS
 62
             7
100
AcDbLine
 10
-95.8
 20
20.69999999999998
 11
-95.80000000000003
 21
69.30000000000003
  0
LINE
  5
D1
100
AcDbEntity
  8
1
  6
CONTINUOUS
 62
             7
100
AcDbLine
 10
-103.8
 20
20.69999999999998
 11
-95.8
 21
20.69999999999998
  0
LINE
  5
D0
100
AcDbEntity
  8
1
  6
CONTINUOUS
 62
             7
100
AcDbLine
 10
-103.8
 20
69.30000000000003
 11
-95.80000000000003
 21
69.30000000000003
  0
LINE
  5
CF
100
AcDbEntity
  8
1
  6
CONTINUOUS
 62
             7
100
AcDbLine
 10
-100.3
 20
71.30000000000003
 11
-106.8
 21
71.30000000000003
  0
LINE
  5
CE
100
AcDbEntity
  8
1
  6
CONTINUOUS
 62
             7
100
AcDbLine
 10
-106.8
 20
71.30000000000003
 11
-106.8
 21
74.80000000000003
  0
LINE
  5
CD
100
AcDbEntity
  8
1
  6
CONTINUOUS
 62
             7
100
AcDbLine
 10
-106.8
 20
74.80000000000003
 11
-95.8
 21
74.80000000000003
  0
LINE
  5
CC
100
AcDbEntity
  8
1
  6
CONTINUOUS
 62
             7
100
AcDbLine
 10
-101.8
 20
71.30000000000003
 11
-101.8
 21
74.80000000000003
  0
LINE
  5
CB
100
AcDbEntity
  8
1
  6
CONTINUOUS
 62
             7
100
AcDbLine
 10
-101.8
 20
15.59999999999999
 11
-101.8
 21
19.09999999999999
  0
LINE
  5
CA
100
AcDbEntity
  8
1
  6
CONTINUOUS
 62
             7
100
AcDbLine
 10
-95.8
 20
15.59999999999999
 11
-106.8
 21
15.59999999999999
  0
LINE
  5
C9
100
AcDbEntity
  8
1
  6
CONTINUOUS
 62
             7
100
AcDbLine
 10
-106.8
 20
15.59999999999999
 11
-106.8
 21
19.09999999999999
  0
LINE
  5
C8
100
AcDbEntity
  8
1
  6
CONTINUOUS
 62
             7
100
AcDbLine
 10
-106.8
 20
19.09999999999999
 11
-100.3
 21
19.09999999999999
  0
LINE
  5
C7
100
AcDbEntity
  8
1
  6
CONTINUOUS
 62
             7
100
AcDbLine
 10
-103.8
 20
19.09999999999999
 11
-103.8
 21
71.30000000000001
  0
LINE
  5
C6
100
AcDbEntity
  8
1
  6
CONTINUOUS
 62
             7
100
AcDbLine
 10
-95.80000000000003
 20
69.30000000000003
 11
-95.8
 21
74.80000000000003
  0
LINE
  5
C5
100
AcDbEntity
  8
1
  6
CONTINUOUS
 62
             7
100
AcDbLine
 10
-95.8
 20
20.69999999999998
 11
-95.8
 21
15.59999999999999
  0
LINE
  5
C4
100
AcDbEntity
  8
1
  6
CONTINUOUS
 62
             7
100
AcDbLine
 10
-91.80000000000003
 20
68.75000000000001
 11
-91.80000000000003
 21
74.25000000000001
  0
LINE
  5
C3
100
AcDbEntity
  8
1
  6
CONTINUOUS
 62
             7
100
AcDbLine
 10
-91.80000000000003
 20
73.00000000000001
 11
-95.80000000000001
 21
73.00000000000001
  0
LINE
  5
C2
100
AcDbEntity
  8
1
  6
CONTINUOUS
 62
             7
100
AcDbLine
 10
-95.80000000000001
 20
70.00000000000001
 11
-91.80000000000003
 21
70.00000000000001
  0
LINE
  5
C1
100
AcDbEntity
  8
1
  6
CONTINUOUS
 62
             7
100
AcDbLine
 10
-91.80000000000003
 20
74.25000000000001
 11
-91.06087985837553
 21
74.25000000000001
  0
LINE
  5
C0
100
AcDbEntity
  8
1
  6
CONTINUOUS
 62
             7
100
AcDbLine
 10
-91.06087985837553
 20
68.75000000000001
 11
-91.80000000000003
 21
68.75000000000001
  0
LINE
  5
BF
100
AcDbEntity
  8
1
  6
CONTINUOUS
 62
             7
100
AcDbLine
 10
-95.80000000000001
 20
70.50000000000001
 11
-91.80000000000003
 21
70.50000000000001
  0
LINE
  5
BE
100
AcDbEntity
  8
1
  6
CONTINUOUS
 62
             7
100
AcDbLine
 10
-91.80000000000003
 20
72.50000000000001
 11
-95.80000000000001
 21
72.50000000000001
  0
LINE
  5
BD
100
AcDbEntity
  8
1
  6
CONTINUOUS
 62
             7
100
AcDbLine
 10
-91.06087985837553
 20
15.74999999999998
 11
-91.80000000000003
 21
15.74999999999998
  0
LINE
  5
BC
100
AcDbEntity
  8
1
  6
CONTINUOUS
 62
             7
100
AcDbLine
 10
-91.80000000000003
 20
21.24999999999998
 11
-91.06087985837553
 21
21.24999999999998
  0
LINE
  5
BB
100
AcDbEntity
  8
1
  6
CONTINUOUS
 62
             7
100
AcDbLine
 10
-91.80000000000003
 20
15.74999999999998
 11
-91.80000000000003
 21
21.24999999999998
  0
LINE
  5
BA
100
AcDbEntity
  8
1
  6
CONTINUOUS
 62
             7
100
AcDbLine
 10
-91.80000000000003
 20
19.99999999999998
 11
-95.80000000000001
 21
19.99999999999998
  0
LINE
  5
B9
100
AcDbEntity
  8
1
  6
CONTINUOUS
 62
             7
100
AcDbLine
 10
-91.80000000000003
 20
19.49999999999998
 11
-95.80000000000001
 21
19.49999999999998
  0
LINE
  5
B8
100
AcDbEntity
  8
1
  6
CONTINUOUS
 62
             7
100
AcDbLine
 10
-95.80000000000001
 20
17.49999999999998
 11
-91.80000000000003
 21
17.49999999999998
  0
LINE
  5
B7
100
AcDbEntity
  8
1
  6
CONTINUOUS
 62
             7
100
AcDbLine
 10
-95.80000000000001
 20
16.99999999999998
 11
-91.80000000000003
 21
16.99999999999998
  0
LINE
  5
B6
100
AcDbEntity
  8
0
  6
CONTINUOUS
 62
             7
100
AcDbLine
 10
-57.00000000000004
 20
59.84999999999999
 11
-57.00000000000004
 21
61.86139990636706
  0
LINE
  5
B5
100
AcDbEntity
  8
0
  6
CONTINUOUS
 62
             7
100
AcDbLine
 10
-58.00000000000004
 20
60.99999999999999
 11
-58.00000000000004
 21
61.86139990636706
  0
LINE
  5
B4
100
AcDbEntity
  8
0
  6
CONTINUOUS
 62
             7
100
AcDbLine
 10
-58.00000000000004
 20
63.63860009363292
 11
-58.00000000000004
 21
64.49999999999999
  0
LINE
  5
B3
100
AcDbEntity
  8
0
  6
CONTINUOUS
 62
             7
100
AcDbLine
 10
-57.00000000000004
 20
59.84999999999999
 11
-57.40000000000001
 21
59.84999999999999
  0
LINE
  5
B2
100
AcDbEntity
  8
0
  6
CONTINUOUS
 62
             7
100
AcDbLine
 10
-57.00000000000004
 20
65.64999999999999
 11
-57.40000000000001
 21
65.64999999999998
  0
LINE
  5
B1
100
AcDbEntity
  8
0
  6
CONTINUOUS
 62
             7
100
AcDbLine
 10
-58.00000000000004
 20
60.99999999999999
 11
-58.40000000000001
 21
59.84999999999999
  0
LINE
  5
B0
100
AcDbEntity
  8
0
  6
CONTINUOUS
 62
             7
100
AcDbLine
 10
-57.00000000000004
 20
60.99999999999999
 11
-57.40000000000001
 21
59.84999999999999
  0
LINE
  5
AF
100
AcDbEntity
  8
0
  6
CONTINUOUS
 62
             7
100
AcDbLine
 10
-57.00000000000004
 20
65.64999999999999
 11
-57.00000000000004
 21
63.63860009363292
  0
LINE
  5
AE
100
AcDbEntity
  8
0
  6
CONTINUOUS
 62
             7
100
AcDbLine
 10
-58.40000000000001
 20
62.14999999999999
 11
-58.12977531168233
 21
62.04866574188087
  0
LINE
  5
AD
100
AcDbEntity
  8
0
  6
CONTINUOUS
 62
             7
100
AcDbLine
 10
-58.40000000000001
 20
63.34999999999998
 11
-58.12977531168233
 21
63.4513342581191
  0
LINE
  5
AC
100
AcDbEntity
  8
0
  6
CONTINUOUS
 62
             7
100
AcDbLine
 10
-57.40000000000001
 20
62.14999999999999
 11
-57.12977531168233
 21
62.04866574188087
  0
LINE
  5
AB
100
AcDbEntity
  8
0
  6
CONTINUOUS
 62
             7
100
AcDbLine
 10
-57.40000000000001
 20
63.34999999999998
 11
-57.40000000000001
 21
62.14999999999999
  0
LINE
  5
AA
100
AcDbEntity
  8
0
  6
CONTINUOUS
 62
             7
100
AcDbLine
 10
-57.40000000000001
 20
63.34999999999998
 11
-57.12977531168233
 21
63.4513342581191
  0
LINE
  5
A9
100
AcDbEntity
  8
0
  6
CONTINUOUS
 62
             7
100
AcDbLine
 10
-58.40000000000001
 20
65.64999999999998
 11
-58.00000000000004
 21
64.49999999999999
  0
LINE
  5
A8
100
AcDbEntity
  8
0
  6
CONTINUOUS
 62
             7
100
AcDbLine
 10
-57.40000000000001
 20
65.64999999999998
 11
-57.00000000000004
 21
64.49999999999999
  0
LINE
  5
A7
100
AcDbEntity
  8
0
  6
CONTINUOUS
 62
             7
100
AcDbLine
 10
-57.40000000000001
 20
59.84999999999999
 11
-58.40000000000001
 21
59.84999999999999
  0
LINE
  5
A6
100
AcDbEntity
  8
0
  6
CONTINUOUS
 62
             7
100
AcDbLine
 10
-57.40000000000001
 20
65.64999999999998
 11
-58.40000000000001
 21
65.64999999999998
  0
LINE
  5
A5
100
AcDbEntity
  8
0
  6
CONTINUOUS
 62
             7
100
AcDbLine
 10
-56.2608798583755
 20
59.99999999999999
 11
-57.00000000000004
 21
59.99999999999999
  0
LINE
  5
A4
100
AcDbEntity
  8
0
  6
CONTINUOUS
 62
             7
100
AcDbLine
 10
-57.00000000000004
 20
65.49999999999999
 11
-56.2608798583755
 21
65.49999999999999
  0
LINE
  5
A3
100
AcDbEntity
  8
0
  6
CONTINUOUS
 62
             7
100
AcDbLine
 10
-57.00000000000004
 20
63.63860009363292
 11
-57.00000000000004
 21
61.86139990636706
  0
LINE
  5
A2
100
AcDbEntity
  8
1
  6
CONTINUOUS
 62
             7
100
AcDbLine
 10
-58.40000000000001
 20
59.75
 11
-58.40000000000001
 21
65.74999999999999
  0
LINE
  5
A1
100
AcDbEntity
  8
1
  6
CONTINUOUS
 62
             7
100
AcDbLine
 10
-58.40000000000001
 20
52.65000000000001
 11
-58.40000000000001
 21
58.65
  0
LINE
  5
A0
100
AcDbEntity
  8
0
  6
CONTINUOUS
 62
             7
100
AcDbLine
 10
-57.00000000000004
 20
56.53860009363293
 11
-57.00000000000004
 21
54.76139990636707
  0
LINE
  5
9F
100
AcDbEntity
  8
0
  6
CONTINUOUS
 62
             7
100
AcDbLine
 10
-57.00000000000004
 20
58.4
 11
-56.2608798583755
 21
58.4
  0
LINE
  5
9E
100
AcDbEntity
  8
0
  6
CONTINUOUS
 62
             7
100
AcDbLine
 10
-56.2608798583755
 20
52.9
 11
-57.00000000000004
 21
52.9
  0
LINE
  5
9D
100
AcDbEntity
  8
0
  6
CONTINUOUS
 62
             7
100
AcDbLine
 10
-57.40000000000001
 20
58.54999999999999
 11
-58.40000000000001
 21
58.54999999999999
  0
LINE
  5
9C
100
AcDbEntity
  8
0
  6
CONTINUOUS
 62
             7
100
AcDbLine
 10
-57.40000000000001
 20
52.75000000000001
 11
-58.40000000000001
 21
52.75000000000001
  0
LINE
  5
9B
100
AcDbEntity
  8
0
  6
CONTINUOUS
 62
             7
100
AcDbLine
 10
-57.40000000000001
 20
58.54999999999999
 11
-57.00000000000004
 21
57.4
  0
LINE
  5
9A
100
AcDbEntity
  8
0
  6
CONTINUOUS
 62
             7
100
AcDbLine
 10
-58.40000000000001
 20
58.54999999999999
 11
-58.00000000000004
 21
57.4
  0
LINE
  5
99
100
AcDbEntity
  8
0
  6
CONTINUOUS
 62
             7
100
AcDbLine
 10
-57.40000000000001
 20
56.24999999999999
 11
-57.12977531168233
 21
56.35133425811912
  0
LINE
  5
98
100
AcDbEntity
  8
0
  6
CONTINUOUS
 62
             7
100
AcDbLine
 10
-57.40000000000001
 20
56.24999999999999
 11
-57.40000000000001
 21
55.05
  0
LINE
  5
97
100
AcDbEntity
  8
0
  6
CONTINUOUS
 62
             7
100
AcDbLine
 10
-57.40000000000001
 20
55.05
 11
-57.12977531168233
 21
54.94866574188088
  0
LINE
  5
96
100
AcDbEntity
  8
0
  6
CONTINUOUS
 62
             7
100
AcDbLine
 10
-58.40000000000001
 20
56.24999999999999
 11
-58.12977531168233
 21
56.35133425811912
  0
LINE
  5
95
100
AcDbEntity
  8
0
  6
CONTINUOUS
 62
             7
100
AcDbLine
 10
-58.40000000000001
 20
55.05
 11
-58.12977531168233
 21
54.94866574188088
  0
LINE
  5
94
100
AcDbEntity
  8
0
  6
CONTINUOUS
 62
             7
100
AcDbLine
 10
-57.00000000000004
 20
58.55
 11
-57.00000000000004
 21
56.53860009363293
  0
LINE
  5
93
100
AcDbEntity
  8
0
  6
CONTINUOUS
 62
             7
100
AcDbLine
 10
-57.00000000000004
 20
53.9
 11
-57.40000000000001
 21
52.75000000000001
  0
LINE
  5
92
100
AcDbEntity
  8
0
  6
CONTINUOUS
 62
             7
100
AcDbLine
 10
-58.00000000000004
 20
53.9
 11
-58.40000000000001
 21
52.75000000000001
  0
LINE
  5
91
100
AcDbEntity
  8
0
  6
CONTINUOUS
 62
             7
100
AcDbLine
 10
-57.00000000000004
 20
58.55
 11
-57.40000000000001
 21
58.54999999999999
  0
LINE
  5
90
100
AcDbEntity
  8
0
  6
CONTINUOUS
 62
             7
100
AcDbLine
 10
-57.00000000000004
 20
52.75
 11
-57.40000000000001
 21
52.75000000000001
  0
LINE
  5
8F
100
AcDbEntity
  8
0
  6
CONTINUOUS
 62
             7
100
AcDbLine
 10
-58.00000000000004
 20
56.53860009363293
 11
-58.00000000000004
 21
57.4
  0
LINE
  5
8E
100
AcDbEntity
  8
0
  6
CONTINUOUS
 62
             7
100
AcDbLine
 10
-58.00000000000004
 20
53.9
 11
-58.00000000000004
 21
54.76139990636707
  0
LINE
  5
8D
100
AcDbEntity
  8
0
  6
CONTINUOUS
 62
             7
100
AcDbLine
 10
-57.00000000000004
 20
52.75
 11
-57.00000000000004
 21
54.76139990636707
  0
LINE
  5
8C
100
AcDbEntity
  8
1
  6
CONTINUOUS
 62
             7
100
AcDbLine
 10
-58.40000000000001
 20
45.55000000000003
 11
-58.40000000000001
 21
51.55000000000001
  0
LINE
  5
8B
100
AcDbEntity
  8
0
  6
CONTINUOUS
 62
             7
100
AcDbLine
 10
-57.00000000000004
 20
49.43860009363294
 11
-57.00000000000004
 21
47.66139990636708
  0
LINE
  5
8A
100
AcDbEntity
  8
0
  6
CONTINUOUS
 62
             7
100
AcDbLine
 10
-57.00000000000004
 20
51.30000000000001
 11
-56.2608798583755
 21
51.30000000000001
  0
LINE
  5
89
100
AcDbEntity
  8
0
  6
CONTINUOUS
 62
             7
100
AcDbLine
 10
-56.2608798583755
 20
45.80000000000001
 11
-57.00000000000004
 21
45.80000000000001
  0
LINE
  5
88
100
AcDbEntity
  8
0
  6
CONTINUOUS
 62
             7
100
AcDbLine
 10
-57.40000000000001
 20
51.45
 11
-58.40000000000001
 21
51.45
  0
LINE
  5
87
100
AcDbEntity
  8
0
  6
CONTINUOUS
 62
             7
100
AcDbLine
 10
-57.40000000000001
 20
45.65000000000002
 11
-58.40000000000001
 21
45.65000000000002
  0
LINE
  5
86
100
AcDbEntity
  8
0
  6
CONTINUOUS
 62
             7
100
AcDbLine
 10
-57.40000000000001
 20
51.45
 11
-57.00000000000004
 21
50.30000000000001
  0
LINE
  5
85
100
AcDbEntity
  8
0
  6
CONTINUOUS
 62
             7
100
AcDbLine
 10
-58.40000000000001
 20
51.45
 11
-58.00000000000004
 21
50.30000000000001
  0
LINE
  5
84
100
AcDbEntity
  8
0
  6
CONTINUOUS
 62
             7
100
AcDbLine
 10
-57.40000000000001
 20
49.15000000000001
 11
-57.12977531168233
 21
49.25133425811913
  0
LINE
  5
83
100
AcDbEntity
  8
0
  6
CONTINUOUS
 62
             7
100
AcDbLine
 10
-57.40000000000001
 20
49.15000000000001
 11
-57.40000000000001
 21
47.95000000000002
  0
LINE
  5
82
100
AcDbEntity
  8
0
  6
CONTINUOUS
 62
             7
100
AcDbLine
 10
-57.40000000000001
 20
47.95000000000002
 11
-57.12977531168233
 21
47.84866574188089
  0
LINE
  5
81
100
AcDbEntity
  8
0
  6
CONTINUOUS
 62
             7
100
AcDbLine
 10
-58.40000000000001
 20
49.15000000000001
 11
-58.12977531168233
 21
49.25133425811913
  0
LINE
  5
80
100
AcDbEntity
  8
0
  6
CONTINUOUS
 62
             7
100
AcDbLine
 10
-58.40000000000001
 20
47.95000000000002
 11
-58.12977531168233
 21
47.84866574188089
  0
LINE
  5
7F
100
AcDbEntity
  8
0
  6
CONTINUOUS
 62
             7
100
AcDbLine
 10
-57.00000000000004
 20
51.45000000000002
 11
-57.00000000000004
 21
49.43860009363294
  0
LINE
  5
7E
100
AcDbEntity
  8
0
  6
CONTINUOUS
 62
             7
100
AcDbLine
 10
-57.00000000000004
 20
46.80000000000001
 11
-57.40000000000001
 21
45.65000000000002
  0
LINE
  5
7D
100
AcDbEntity
  8
0
  6
CONTINUOUS
 62
             7
100
AcDbLine
 10
-58.00000000000004
 20
46.80000000000001
 11
-58.40000000000001
 21
45.65000000000002
  0
LINE
  5
7C
100
AcDbEntity
  8
0
  6
CONTINUOUS
 62
             7
100
AcDbLine
 10
-57.00000000000004
 20
51.45000000000002
 11
-57.40000000000001
 21
51.45
  0
LINE
  5
7B
100
AcDbEntity
  8
0
  6
CONTINUOUS
 62
             7
100
AcDbLine
 10
-57.00000000000004
 20
45.65000000000001
 11
-57.40000000000001
 21
45.65000000000002
  0
LINE
  5
7A
100
AcDbEntity
  8
0
  6
CONTINUOUS
 62
             7
100
AcDbLine
 10
-58.00000000000004
 20
49.43860009363294
 11
-58.00000000000004
 21
50.30000000000001
  0
LINE
  5
79
100
AcDbEntity
  8
0
  6
CONTINUOUS
 62
             7
100
AcDbLine
 10
-58.00000000000004
 20
46.80000000000001
 11
-58.00000000000004
 21
47.66139990636708
  0
LINE
  5
78
100
AcDbEntity
  8
0
  6
CONTINUOUS
 62
             7
100
AcDbLine
 10
-57.00000000000004
 20
45.65000000000001
 11
-57.00000000000004
 21
47.66139990636708
  0
LINE
  5
77
100
AcDbEntity
  8
1
  6
CONTINUOUS
 62
             7
100
AcDbLine
 10
-58.40000000000001
 20
38.45000000000004
 11
-58.40000000000001
 21
44.45000000000002
  0
LINE
  5
76
100
AcDbEntity
  8
0
  6
CONTINUOUS
 62
             7
100
AcDbLine
 10
-57.00000000000004
 20
42.33860009363296
 11
-57.00000000000004
 21
40.56139990636709
  0
LINE
  5
75
100
AcDbEntity
  8
0
  6
CONTINUOUS
 62
             7
100
AcDbLine
 10
-57.00000000000004
 20
44.20000000000002
 11
-56.2608798583755
 21
44.20000000000002
  0
LINE
  5
74
100
AcDbEntity
  8
0
  6
CONTINUOUS
 62
             7
100
AcDbLine
 10
-56.2608798583755
 20
38.70000000000002
 11
-57.00000000000004
 21
38.70000000000002
  0
LINE
  5
73
100
AcDbEntity
  8
0
  6
CONTINUOUS
 62
             7
100
AcDbLine
 10
-57.40000000000001
 20
44.35000000000002
 11
-58.40000000000001
 21
44.35000000000002
  0
LINE
  5
72
100
AcDbEntity
  8
0
  6
CONTINUOUS
 62
             7
100
AcDbLine
 10
-57.40000000000001
 20
38.55000000000003
 11
-58.40000000000001
 21
38.55000000000003
  0
LINE
  5
71
100
AcDbEntity
  8
0
  6
CONTINUOUS
 62
             7
100
AcDbLine
 10
-57.40000000000001
 20
44.35000000000002
 11
-57.00000000000004
 21
43.20000000000002
  0
LINE
  5
70
100
AcDbEntity
  8
0
  6
CONTINUOUS
 62
             7
100
AcDbLine
 10
-58.40000000000001
 20
44.35000000000002
 11
-58.00000000000004
 21
43.20000000000002
  0
LINE
  5
6F
100
AcDbEntity
  8
0
  6
CONTINUOUS
 62
             7
100
AcDbLine
 10
-57.40000000000001
 20
42.05000000000002
 11
-57.12977531168233
 21
42.15133425811914
  0
LINE
  5
6E
100
AcDbEntity
  8
0
  6
CONTINUOUS
 62
             7
100
AcDbLine
 10
-57.40000000000001
 20
42.05000000000002
 11
-57.40000000000001
 21
40.85000000000003
  0
LINE
  5
6D
100
AcDbEntity
  8
0
  6
CONTINUOUS
 62
             7
100
AcDbLine
 10
-57.40000000000001
 20
40.85000000000003
 11
-57.12977531168233
 21
40.74866574188091
  0
LINE
  5
6C
100
AcDbEntity
  8
0
  6
CONTINUOUS
 62
             7
100
AcDbLine
 10
-58.40000000000001
 20
42.05000000000002
 11
-58.12977531168233
 21
42.15133425811914
  0
LINE
  5
6B
100
AcDbEntity
  8
0
  6
CONTINUOUS
 62
             7
100
AcDbLine
 10
-58.40000000000001
 20
40.85000000000003
 11
-58.12977531168233
 21
40.74866574188091
  0
LINE
  5
6A
100
AcDbEntity
  8
0
  6
CONTINUOUS
 62
             7
100
AcDbLine
 10
-57.00000000000004
 20
44.35000000000003
 11
-57.00000000000004
 21
42.33860009363296
  0
LINE
  5
69
100
AcDbEntity
  8
0
  6
CONTINUOUS
 62
             7
100
AcDbLine
 10
-57.00000000000004
 20
39.70000000000002
 11
-57.40000000000001
 21
38.55000000000003
  0
LINE
  5
68
100
AcDbEntity
  8
0
  6
CONTINUOUS
 62
             7
100
AcDbLine
 10
-58.00000000000004
 20
39.70000000000002
 11
-58.40000000000001
 21
38.55000000000003
  0
LINE
  5
67
100
AcDbEntity
  8
0
  6
CONTINUOUS
 62
             7
100
AcDbLine
 10
-57.00000000000004
 20
44.35000000000003
 11
-57.40000000000001
 21
44.35000000000002
  0
LINE
  5
66
100
AcDbEntity
  8
0
  6
CONTINUOUS
 62
             7
100
AcDbLine
 10
-57.00000000000004
 20
38.55000000000003
 11
-57.40000000000001
 21
38.55000000000003
  0
LINE
  5
65
100
AcDbEntity
  8
0
  6
CONTINUOUS
 62
             7
100
AcDbLine
 10
-58.00000000000004
 20
42.33860009363296
 11
-58.00000000000004
 21
43.20000000000002
  0
LINE
  5
64
100
AcDbEntity
  8
0
  6
CONTINUOUS
 62
             7
100
AcDbLine
 10
-58.00000000000004
 20
39.70000000000002
 11
-58.00000000000004
 21
40.56139990636709
  0
LINE
  5
63
100
AcDbEntity
  8
0
  6
CONTINUOUS
 62
             7
100
AcDbLine
 10
-57.00000000000004
 20
38.55000000000003
 11
-57.00000000000004
 21
40.56139990636709
  0
LINE
  5
62
100
AcDbEntity
  8
1
  6
CONTINUOUS
 62
             7
100
AcDbLine
 10
-58.40000000000001
 20
31.35000000000005
 11
-58.40000000000001
 21
37.35000000000004
  0
LINE
  5
61
100
AcDbEntity
  8
0
  6
CONTINUOUS
 62
             7
100
AcDbLine
 10
-57.00000000000004
 20
35.23860009363297
 11
-57.00000000000004
 21
33.46139990636711
  0
LINE
  5
60
100
AcDbEntity
  8
0
  6
CONTINUOUS
 62
             7
100
AcDbLine
 10
-57.00000000000004
 20
37.10000000000004
 11
-56.2608798583755
 21
37.10000000000004
  0
LINE
  5
5F
100
AcDbEntity
  8
0
  6
CONTINUOUS
 62
             7
100
AcDbLine
 10
-56.2608798583755
 20
31.60000000000004
 11
-57.00000000000004
 21
31.60000000000004
  0
LINE
  5
5E
100
AcDbEntity
  8
0
  6
CONTINUOUS
 62
             7
100
AcDbLine
 10
-57.40000000000001
 20
37.25000000000003
 11
-58.40000000000001
 21
37.25000000000003
  0
LINE
  5
5D
100
AcDbEntity
  8
0
  6
CONTINUOUS
 62
             7
100
AcDbLine
 10
-57.40000000000001
 20
31.45000000000005
 11
-58.40000000000001
 21
31.45000000000005
  0
LINE
  5
5C
100
AcDbEntity
  8
0
  6
CONTINUOUS
 62
             7
100
AcDbLine
 10
-57.40000000000001
 20
37.25000000000003
 11
-57.00000000000004
 21
36.10000000000004
  0
LINE
  5
5B
100
AcDbEntity
  8
0
  6
CONTINUOUS
 62
             7
100
AcDbLine
 10
-58.40000000000001
 20
37.25000000000003
 11
-58.00000000000004
 21
36.10000000000004
  0
LINE
  5
5A
100
AcDbEntity
  8
0
  6
CONTINUOUS
 62
             7
100
AcDbLine
 10
-57.40000000000001
 20
34.95000000000003
 11
-57.12977531168233
 21
35.05133425811916
  0
LINE
  5
59
100
AcDbEntity
  8
0
  6
CONTINUOUS
 62
             7
100
AcDbLine
 10
-57.40000000000001
 20
34.95000000000003
 11
-57.40000000000001
 21
33.75000000000004
  0
LINE
  5
58
100
AcDbEntity
  8
0
  6
CONTINUOUS
 62
             7
100
AcDbLine
 10
-57.40000000000001
 20
33.75000000000004
 11
-57.12977531168233
 21
33.64866574188092
  0
LINE
  5
57
100
AcDbEntity
  8
0
  6
CONTINUOUS
 62
             7
100
AcDbLine
 10
-58.40000000000001
 20
34.95000000000003
 11
-58.12977531168233
 21
35.05133425811916
  0
LINE
  5
56
100
AcDbEntity
  8
0
  6
CONTINUOUS
 62
             7
100
AcDbLine
 10
-58.40000000000001
 20
33.75000000000004
 11
-58.12977531168233
 21
33.64866574188092
  0
LINE
  5
55
100
AcDbEntity
  8
0
  6
CONTINUOUS
 62
             7
100
AcDbLine
 10
-57.00000000000004
 20
37.25000000000004
 11
-57.00000000000004
 21
35.23860009363297
  0
LINE
  5
54
100
AcDbEntity
  8
0
  6
CONTINUOUS
 62
             7
100
AcDbLine
 10
-57.00000000000004
 20
32.60000000000004
 11
-57.40000000000001
 21
31.45000000000005
  0
LINE
  5
53
100
AcDbEntity
  8
0
  6
CONTINUOUS
 62
             7
100
AcDbLine
 10
-58.00000000000004
 20
32.60000000000004
 11
-58.40000000000001
 21
31.45000000000005
  0
LINE
  5
52
100
AcDbEntity
  8
0
  6
CONTINUOUS
 62
             7
100
AcDbLine
 10
-57.00000000000004
 20
37.25000000000004
 11
-57.40000000000001
 21
37.25000000000003
  0
LINE
  5
51
100
AcDbEntity
  8
0
  6
CONTINUOUS
 62
             7
100
AcDbLine
 10
-57.00000000000004
 20
31.45000000000004
 11
-57.40000000000001
 21
31.45000000000005
  0
LINE
  5
50
100
AcDbEntity
  8
0
  6
CONTINUOUS
 62
             7
100
AcDbLine
 10
-58.00000000000004
 20
35.23860009363297
 11
-58.00000000000004
 21
36.10000000000004
  0
LINE
  5
4F
100
AcDbEntity
  8
0
  6
CONTINUOUS
 62
             7
100
AcDbLine
 10
-58.00000000000004
 20
32.60000000000004
 11
-58.00000000000004
 21
33.46139990636711
  0
LINE
  5
4E
100
AcDbEntity
  8
0
  6
CONTINUOUS
 62
             7
100
AcDbLine
 10
-57.00000000000004
 20
31.45000000000004
 11
-57.00000000000004
 21
33.46139990636711
  0
LINE
  5
4D
100
AcDbEntity
  8
1
  6
CONTINUOUS
 62
             7
100
AcDbLine
 10
-58.40000000000001
 20
24.25000000000006
 11
-58.40000000000001
 21
30.25000000000005
  0
LINE
  5
4C
100
AcDbEntity
  8
0
  6
CONTINUOUS
 62
             7
100
AcDbLine
 10
-57.00000000000004
 20
28.13860009363298
 11
-57.00000000000004
 21
26.36139990636712
  0
LINE
  5
4B
100
AcDbEntity
  8
0
  6
CONTINUOUS
 62
             7
100
AcDbLine
 10
-57.00000000000004
 20
30.00000000000005
 11
-56.2608798583755
 21
30.00000000000005
  0
LINE
  5
4A
100
AcDbEntity
  8
0
  6
CONTINUOUS
 62
             7
100
AcDbLine
 10
-56.2608798583755
 20
24.50000000000005
 11
-57.00000000000004
 21
24.50000000000005
  0
LINE
  5
49
100
AcDbEntity
  8
0
  6
CONTINUOUS
 62
             7
100
AcDbLine
 10
-57.40000000000001
 20
30.15000000000004
 11
-58.40000000000001
 21
30.15000000000004
  0
LINE
  5
48
100
AcDbEntity
  8
0
  6
CONTINUOUS
 62
             7
100
AcDbLine
 10
-57.40000000000001
 20
24.35000000000006
 11
-58.40000000000001
 21
24.35000000000006
  0
LINE
  5
47
100
AcDbEntity
  8
0
  6
CONTINUOUS
 62
             7
100
AcDbLine
 10
-57.40000000000001
 20
30.15000000000004
 11
-57.00000000000004
 21
29.00000000000005
  0
LINE
  5
46
100
AcDbEntity
  8
0
  6
CONTINUOUS
 62
             7
100
AcDbLine
 10
-58.40000000000001
 20
30.15000000000004
 11
-58.00000000000004
 21
29.00000000000005
  0
LINE
  5
45
100
AcDbEntity
  8
0
  6
CONTINUOUS
 62
             7
100
AcDbLine
 10
-57.40000000000001
 20
27.85000000000004
 11
-57.12977531168233
 21
27.95133425811917
  0
LINE
  5
44
100
AcDbEntity
  8
0
  6
CONTINUOUS
 62
             7
100
AcDbLine
 10
-57.40000000000001
 20
27.85000000000004
 11
-57.40000000000001
 21
26.65000000000006
  0
LINE
  5
43
100
AcDbEntity
  8
0
  6
CONTINUOUS
 62
             7
100
AcDbLine
 10
-57.40000000000001
 20
26.65000000000006
 11
-57.12977531168233
 21
26.54866574188093
  0
LINE
  5
42
100
AcDbEntity
  8
0
  6
CONTINUOUS
 62
             7
100
AcDbLine
 10
-58.40000000000001
 20
27.85000000000004
 11
-58.12977531168233
 21
27.95133425811917
  0
LINE
  5
41
100
AcDbEntity
  8
0
  6
CONTINUOUS
 62
             7
100
AcDbLine
 10
-58.40000000000001
 20
26.65000000000006
 11
-58.12977531168233
 21
26.54866574188093
  0
LINE
  5
40
100
AcDbEntity
  8
0
  6
CONTINUOUS
 62
             7
100
AcDbLine
 10
-57.00000000000004
 20
30.15000000000006
 11
-57.00000000000004
 21
28.13860009363298
  0
LINE
  5
3F
100
AcDbEntity
  8
0
  6
CONTINUOUS
 62
             7
100
AcDbLine
 10
-57.00000000000004
 20
25.50000000000005
 11
-57.40000000000001
 21
24.35000000000006
  0
LINE
  5
3E
100
AcDbEntity
  8
0
  6
CONTINUOUS
 62
             7
100
AcDbLine
 10
-58.00000000000004
 20
25.50000000000005
 11
-58.40000000000001
 21
24.35000000000006
  0
LINE
  5
3D
100
AcDbEntity
  8
0
  6
CONTINUOUS
 62
             7
100
AcDbLine
 10
-57.00000000000004
 20
30.15000000000006
 11
-57.40000000000001
 21
30.15000000000004
  0
LINE
  5
3C
100
AcDbEntity
  8
0
  6
CONTINUOUS
 62
             7
100
AcDbLine
 10
-57.00000000000004
 20
24.35000000000005
 11
-57.40000000000001
 21
24.35000000000006
  0
LINE
  5
3B
100
AcDbEntity
  8
0
  6
CONTINUOUS
 62
             7
100
AcDbLine
 10
-58.00000000000004
 20
28.13860009363298
 11
-58.00000000000004
 21
29.00000000000005
  0
LINE
  5
3A
100
AcDbEntity
  8
0
  6
CONTINUOUS
 62
             7
100
AcDbLine
 10
-58.00000000000004
 20
25.50000000000005
 11
-58.00000000000004
 21
26.36139990636712
  0
LINE
  5
39
100
AcDbEntity
  8
0
  6
CONTINUOUS
 62
             7
100
AcDbLine
 10
-57.00000000000004
 20
24.35000000000005
 11
-57.00000000000004
 21
26.36139990636712
  0
INSERT
  5
30
100
AcDbEntity
  8
PV
100
AcDbBlockReference
  2
PP4
 10
-96.98179999999999
 20
156.27625
  0
INSERT
  5
31
100
AcDbEntity
  8
0
100
AcDbBlockReference
  2
TOP__1
 10
-83.15677413524784
 20
80.54220542612708
  0
INSERT
  5
32
100
AcDbEntity
  8
0
100
AcDbBlockReference
  2
TOP__2
 10
-183.80000000000001
 20
45.0
  0
INSERT
  5
33
100
AcDbEntity
  8
0
100
AcDbBlockReference
  2
TOP__3
 10
-83.30000000000001
 20
46.0
  0
ENDSEC
  0
SECTION
  2
OBJECTS
  0
DICTIONARY
  5
19
100
AcDbDictionary
  3
ACAD_GROUP
350
1A
  3
ACAD_MLINESTYLE
350
1B
  0
DICTIONARY
  5
1A
102
{ACAD_REACTORS
330
19
102
}
100
AcDbDictionary
  0
DICTIONARY
  5
1B
102
{ACAD_REACTORS
330
19
102
}
100
AcDbDictionary
  3
STANDARD
350
1C
  0
MLINESTYLE
  5
1C
102
{ACAD_REACTORS
330
1B
102
}
100
AcDbMlineStyle
  2
STANDARD
 70
             0
  3

 62
             0
 51
90.0
 52
90.0
 71
             2
 49
0.5
 62
           256
  6
BYLAYER
 49
-0.5
 62
           256
  6
BYLAYER
  0
ENDSEC
  0
EOF
