  0
SECTION
  2
HEADER
  9
$ACADVER
  1
AC1014
  9
$ACADMAINTVER
 70
             0
  9
$DWGCODEPAGE
  3
ANSI_1252
  9
$INSBASE
 10
0.0
 20
0.0
 30
0.0
  9
$EXTMIN
 10
1.00000000000000E+20
 20
1.00000000000000E+20
 30
1.00000000000000E+20
  9
$EXTMAX
 10
-1.00000000000000E+20
 20
-1.00000000000000E+20
 30
-1.00000000000000E+20
  9
$LIMMIN
 10
0.0
 20
0.0
  9
$LIMMAX
 10
0.0
 20
0.0
  9
$ORTHOMODE
 70
             0
  9
$REGENMODE
 70
             1
  9
$FILLMODE
 70
             1
  9
$QTEXTMODE
 70
             0
  9
$MIRRTEXT
 70
             1
  9
$DRAGMODE
 70
             2
  9
$LTSCALE
 40
1.0
  9
$OSMODE
 70
             0
  9
$ATTMODE
 70
             1
  9
$TEXTSIZE
 40
0.2
  9
$TRACEWID
 40
0.05
  9
$TEXTSTYLE
  7
STANDARD
  9
$CLAYER
  8
0
  9
$CELTYPE
  6
CONTINUOUS
  9
$CECOLOR
 62
           256
  9
$CELTSCALE
 40
1.0
  9
$DELOBJ
 70
             1
  9
$DISPSILH
 70
             0
  9
$DIMSCALE
 40
1.0
  9
$DIMASZ
 40
0.18
  9
$DIMEXO
 40
0.0625
  9
$DIMDLI
 40
0.38
  9
$DIMRND
 40
0.0
  9
$DIMDLE
 40
0.0
  9
$DIMEXE
 40
0.18
  9
$DIMTP
 40
0.0
  9
$DIMTM
 40
0.0
  9
$DIMTXT
 40
0.18
  9
$DIMCEN
 40
0.09
  9
$DIMTSZ
 40
0.0
  9
$DIMTOL
 70
             0
  9
$DIMLIM
 70
             0
  9
$DIMTIH
 70
             1
  9
$DIMTOH
 70
             1
  9
$DIMSE1
 70
             0
  9
$DIMSE2
 70
             0
  9
$DIMTAD
 70
             0
  9
$DIMZIN
 70
             0
  9
$DIMBLK
  1

  9
$DIMASO
 70
             1
  9
$DIMSHO
 70
             1
  9
$DIMPOST
  1

  9
$DIMAPOST
  1

  9
$DIMALT
 70
             0
  9
$DIMALTD
 70
             2
  9
$DIMALTF
 40
25.4
  9
$DIMLFAC
 40
1.0
  9
$DIMTOFL
 70
             0
  9
$DIMTVP
 40
0.0
  9
$DIMTIX
 70
             0
  9
$DIMSOXD
 70
             0
  9
$DIMSAH
 70
             0
  9
$DIMBLK1
  1

  9
$DIMBLK2
  1

  9
$DIMSTYLE
  2
STANDARD
  9
$DIMCLRD
 70
             0
  9
$DIMCLRE
 70
             0
  9
$DIMCLRT
 70
             0
  9
$DIMTFAC
 40
1.0
  9
$DIMGAP
 40
0.09
  9
$DIMJUST
 70
             0
  9
$DIMSD1
 70
             0
  9
$DIMSD2
 70
             0
  9
$DIMTOLJ
 70
             1
  9
$DIMTZIN
 70
             0
  9
$DIMALTZ
 70
             0
  9
$DIMALTTZ
 70
             0
  9
$DIMFIT
 70
             3
  9
$DIMUPT
 70
             0
  9
$DIMUNIT
 70
             2
  9
$DIMDEC
 70
             4
  9
$DIMTDEC
 70
             4
  9
$DIMALTU
 70
             2
  9
$DIMALTTD
 70
             2
  9
$DIMTXSTY
  7
STANDARD
  9
$DIMAUNIT
 70
             0
  9
$LUNITS
 70
             2
  9
$LUPREC
 70
             4
  9
$SKETCHINC
 40
0.1
  9
$FILLETRAD
 40
0.0
  9
$AUNITS
 70
             0
  9
$AUPREC
 70
             0
  9
$MENU
  1
acad
  9
$ELEVATION
 40
0.0
  9
$PELEVATION
 40
0.0
  9
$THICKNESS
 40
0.0
  9
$LIMCHECK
 70
             0
  9
$BLIPMODE
 70
             1
  9
$CHAMFERA
 40
0.0
  9
$CHAMFERB
 40
0.0
  9
$CHAMFERC
 40
0.0
  9
$CHAMFERD
 40
0.0
  9
$SKPOLY
 70
             0
  9
$TDCREATE
 40
0.000000000
  9
$TDUPDATE
 40
0.000000000
  9
$TDINDWG
 40
0.0000000000
  9
$TDUSRTIMER
 40
0.0000000000
  9
$USRTIMER
 70
             1
  9
$ANGBASE
 50
0.0
  9
$ANGDIR
 70
             0
  9
$PDMODE
 70
             0
  9
$PDSIZE
 40
0.0
  9
$PLINEWID
 40
0.0
  9
$COORDS
 70
             0
  9
$SPLFRAME
 70
             0
  9
$SPLINETYPE
 70
             6
  9
$SPLINESEGS
 70
             8
  9
$ATTDIA
 70
             0
  9
$ATTREQ
 70
             1
  9
$HANDLING
 70
             1
  9
$HANDSEED
  5
5D6
  9
$SURFTAB1
 70
             6
  9
$SURFTAB2
 70
             6
  9
$SURFTYPE
 70
             6
  9
$SURFU
 70
             6
  9
$SURFV
 70
             6
  9
$UCSNAME
  2

  9
$UCSORG
 10
0.0
 20
0.0
 30
0.0
  9
$UCSXDIR
 10
1.0
 20
0.0
 30
0.0
  9
$UCSYDIR
 10
0.0
 20
1.0
 30
0.0
  9
$PUCSNAME
  2

  9
$PUCSORG
 10
0.0
 20
0.0
 30
0.0
  9
$PUCSXDIR
 10
1.0
 20
0.0
 30
0.0
  9
$PUCSYDIR
 10
0.0
 20
1.0
 30
0.0
  9
$USERI1
 70
             0
  9
$USERI2
 70
             0
  9
$USERI3
 70
             0
  9
$USERI4
 70
             0
  9
$USERI5
 70
             0
  9
$USERR1
 40
11.6
  9
$USERR2
 40
0.0
  9
$USERR3
 40
0.0
  9
$USERR4
 40
0.0
  9
$USERR5
 40
0.0
  9
$WORLDVIEW
 70
             1
  9
$SHADEDGE
 70
             3
  9
$SHADEDIF
 70
            70
  9
$TILEMODE
 70
             1
  9
$MAXACTVP
 70
            16
  9
$PINSBASE
 10
0.0
 20
0.0
 30
0.0
  9
$PLIMCHECK
 70
             0
  9
$PEXTMIN
 10
1.00000000000000E+20
 20
1.00000000000000E+20
 30
1.00000000000000E+20
  9
$PEXTMAX
 10
-1.00000000000000E+20
 20
-1.00000000000000E+20
 30
-1.00000000000000E+20
  9
$PLIMMIN
 10
0.0
 20
0.0
  9
$PLIMMAX
 10
12.0
 20
9.0
  9
$UNITMODE
 70
             0
  9
$VISRETAIN
 70
             0
  9
$PLINEGEN
 70
             1
  9
$PSLTSCALE
 70
             0
  9
$TREEDEPTH
 70
          3020
  9
$PICKSTYLE
 70
             1
  9
$CMLSTYLE
  2
STANDARD
  9
$CMLJUST
 70
             0
  9
$CMLSCALE
 40
1.0
  9
$PROXYGRAPHICS
 70
             0
  9
$MEASUREMENT
 70
             1
  0
ENDSEC
  0
SECTION
  2
CLASSES
  0
CLASS
  1
LWPOLYLINE
  2
AcDbPolyline
  3
"AutoCAD"
 90
        0
280
             0
281
             1
  0
CLASS
  1
IMAGE
  2
AcDbRasterImage
  3
ISM
 90
      127
280
             0
281
             1
  0
CLASS
  1
OLE2FRAME
  2
AcDbOle2Frame
  3
""
 90
        0
280
             0
281
             1
  0
CLASS
  1
HATCH
  2
AcDbHatch
  3
"ACAD_SEDONA"
 90
        0
280
             0
281
             1
  0
CLASS
  1
DICTIONARYVAR
  2
AcDbDictionaryVar
  3
"AutoCAD"
 90
        0
280
             0
281
             0
  0
CLASS
  1
RASTERVARIABLES
  2
AcDbRasterVariables
  3
ISM
 90
        0
280
             0
281
             0
  0
CLASS
  1
IMAGEDEF
  2
AcDbRasterImageDef
  3
ISM
 90
        0
280
             0
281
             0
  0
CLASS
  1
IMAGEDEF_REACTOR
  2
AcDbRasterImageDefReactor
  3
ISM
 90
        1
280
             0
281
             0
  0
CLASS
  1
IDBUFFER
  2
AcDbIdBuffer
  3
"Acad"
 90
        0
280
             0
281
             0
  0
CLASS
  1
SPATIAL_FILTER
  2
AcDbSpatialFilter
  3
"Acad"
 90
        0
280
             0
281
             0
  0
CLASS
  1
XRECORD
  2
AcDbXrecord
  3
"<Built In>"
 90
        0
280
             0
281
             0
  0
CLASS
  1
SORTENTSTABLE
  2
AcDbSortentsTable
  3
"AutoCAD"
 90
        0
280
             0
281
             0
  0
CLASS
  1
LAYER_INDEX
  2
AcDbLayerIndex
  3
"Acad"
 90
        0
280
             0
281
             0
  0
CLASS
  1
SPATIAL_INDEX
  2
AcDbSpatialIndex
  3
"Acad"
 90
        0
280
             0
281
             0
  0
CLASS
  1
OBJECT_PTR
  2
CAseDLPNTableRecord
  3
"ASE-LPNTableRecord"
 90
        1
280
             0
281
             0
  0
CLASS
  1
LAYOUT
  2
AcDbLayout
  3
"AutoCAD 2000"
 90
        1
280
             0
281
             0
  0
CLASS
  1
PLOTSETTINGS
  2
AcDbPlotSettings
  3
"AutoCAD 2000"
 90
        1
280
             0
281
             0
  0
CLASS
  1
ACDBDICTIONARYWDFLT
  2
AcDbDictionaryWithDefault
  3
"AutoCAD 2000"
 90
        1
280
             0
281
             0
  0
CLASS
  1
ACDBPLACEHOLDER
  2
AcDbPlaceHolder
  3
"AutoCAD 2000"
 90
        1
280
             0
281
             0
  0
ENDSEC
  0
SECTION
  2
TABLES
  0
TABLE
  2
VPORT
  5
7
100
AcDbSymbolTable
 70
             1
  0
VPORT
  5
15
100
AcDbSymbolTableRecord
100
AcDbViewportTableRecord
  2
*ACTIVE
 70
             0
 10
0.0
 20
0.0
 11
1.0
 21
1.0
 12
77.49999999999994
 22
-8.99999999999999
 13
0.0
 23
0.0
 14
1.0
 24
1.0
 15
0.0
 25
0.0
 16
0.0
 26
0.0
 36
1.0
 17
0.0
 27
0.0
 37
0.0
 40
131.09303621169931
 41
1.60267857142857
 42
50.0
 43
0.0
 44
0.0
 50
0.0
 51
0.0
 71
             0
 72
           100
 73
             1
 74
             1
 75
             0
 76
             0
 77
             0
 78
             0
  0
ENDTAB
  0
TABLE
  2
LTYPE
  5
4
100
AcDbSymbolTable
 70
            10
  0
LTYPE
  5
11
100
AcDbSymbolTableRecord
100
AcDbLinetypeTableRecord
  2
BYBLOCK
 70
            64
  3

 72
            65
 73
             0
 40
0.0
  0
LTYPE
  5
12
100
AcDbSymbolTableRecord
100
AcDbLinetypeTableRecord
  2
BYLAYER
 70
            64
  3

 72
            65
 73
             0
 40
0.0
  0
LTYPE
  5
13
100
AcDbSymbolTableRecord
100
AcDbLinetypeTableRecord
  2
CONTINUOUS
 70
            64
  3
Solid line
 72
            65
 73
             0
 40
0.0
  0
LTYPE
  5
1D
100
AcDbSymbolTableRecord
100
AcDbLinetypeTableRecord
  2
DASHED
 70
            64
  3
Dashed
 72
            65
 73
             2
 40
15.0
 49
12.0
 74
             0
 49
-3.0
 74
             0
  0
LTYPE
  5
1E
100
AcDbSymbolTableRecord
100
AcDbLinetypeTableRecord
  2
DOTTED
 70
            64
  3
Dotted
 72
            65
 73
             2
 40
3.5
 49
0.5
 74
             0
 49
-3.0
 74
             0
  0
LTYPE
  5
1F
100
AcDbSymbolTableRecord
100
AcDbLinetypeTableRecord
  2
DOT_CENTER
 70
            64
  3
Dot_Center
 72
            65
 73
             4
 40
2.0
 49
1.25
 74
             0
 49
-0.25
 74
             0
 49
0.25
 74
             0
 49
-0.25
 74
             0
  0
LTYPE
  5
20
100
AcDbSymbolTableRecord
100
AcDbLinetypeTableRecord
  2
LONG_DASHED
 70
            64
  3
Long_Dashed
 72
            65
 73
             2
 40
2.0
 49
1.5
 74
             0
 49
-0.5
 74
             0
  0
LTYPE
  5
21
100
AcDbSymbolTableRecord
100
AcDbLinetypeTableRecord
  2
DASH_CENTER
 70
            64
  3
Dash_Center
 72
            65
 73
             4
 40
36.0
 49
24.0
 74
             0
 49
-3.0
 74
             0
 49
6.0
 74
             0
 49
-3.0
 74
             0
  0
LTYPE
  5
22
100
AcDbSymbolTableRecord
100
AcDbLinetypeTableRecord
  2
PHANTOM
 70
            64
  3
Phantom
 72
            65
 73
             6
 40
2.5
 49
1.25
 74
             0
 49
-0.25
 74
             0
 49
0.25
 74
             0
 49
-0.25
 74
             0
 49
0.25
 74
             0
 49
-0.25
 74
             0
  0
LTYPE
  5
23
100
AcDbSymbolTableRecord
100
AcDbLinetypeTableRecord
  2
CENTER_DASH_DASH
 70
            64
  3
Center_Dash_Dash
 72
            65
 73
             6
 40
22.0
 49
12.0
 74
             0
 49
-3.0
 74
             0
 49
0.5
 74
             0
 49
-3.0
 74
             0
 49
0.5
 74
             0
 49
-3.0
 74
             0
  0
ENDTAB
  0
TABLE
  2
LAYER
  5
2
100
AcDbSymbolTable
 70
             3
  0
LAYER
  5
14
100
AcDbSymbolTableRecord
100
AcDbLayerTableRecord
  2
0
 70
             0
 62
             7
  6
CONTINUOUS
  0
LAYER
  5
24
100
AcDbSymbolTableRecord
100
AcDbLayerTableRecord
  2
1
 70
             0
 62
             7
  6
CONTINUOUS
  0
LAYER
  5
25
100
AcDbSymbolTableRecord
100
AcDbLayerTableRecord
  2
PV
 70
             0
 62
             7
  6
CONTINUOUS
  0
ENDTAB
  0
TABLE
  2
STYLE
  5
3
100
AcDbSymbolTable
 70
             1
  0
STYLE
  5
17
100
AcDbSymbolTableRecord
100
AcDbTextStyleTableRecord
  2
STANDARD
 70
             0
 40
0.0
 41
1.0
 50
0.0
 71
             0
 42
0.0
  3
txt
  4

  0
ENDTAB
  0
TABLE
  2
VIEW
  5
5
100
AcDbSymbolTable
 70
             0
  0
ENDTAB
  0
TABLE
  2
UCS
  5
6
100
AcDbSymbolTable
 70
             0
  0
ENDTAB
  0
TABLE
  2
APPID
  5
8
100
AcDbSymbolTable
 70
             1
  0
APPID
  5
16
100
AcDbSymbolTableRecord
100
AcDbRegAppTableRecord
  2
ACAD
 70
             0
  0
ENDTAB
  0
TABLE
  2
DIMSTYLE
  5
9
100
AcDbSymbolTable
 70
             1
  0
DIMSTYLE
105
18
100
AcDbSymbolTableRecord
100
AcDbDimStyleTableRecord
  2
STANDARD
 70
             0
  3

  4

  5

  6

  7

 40
1.0
 41
0.18
 42
0.0625
 43
0.38
 44
0.18
 45
0.0
 46
0.0
 47
0.0
 48
0.0
 71
             0
 72
             0
 73
             1
 74
             1
 75
             0
 76
             0
 77
             0
 78
             0
140
0.18
141
0.09
142
0.0
143
25.4
144
1.0
145
0.0
146
1.0
147
0.09
170
             0
171
             2
172
             0
173
             0
174
             0
175
             0
176
             0
177
             0
178
             0
270
             2
271
             4
272
             4
273
             2
274
             2
275
             0
280
             0
281
             0
282
             0
283
             1
284
             0
285
             0
286
             0
287
             0
288
             0
340
17
  0
ENDTAB
  0
TABLE
  2
BLOCK_RECORD
  5
1
100
AcDbSymbolTable
 70
             0
  0
BLOCK_RECORD
  5
A
100
AcDbSymbolTableRecord
100
AcDbBlockTableRecord
  2
*MODEL_SPACE
  0
BLOCK_RECORD
  5
B
100
AcDbSymbolTableRecord
100
AcDbBlockTableRecord
  2
*PAPER_SPACE
  0
ENDTAB
  0
ENDSEC
  0
SECTION
  2
BLOCKS
  0
BLOCK
  5
D
100
AcDbEntity
  8
0
100
AcDbBlockBegin
  2
*MODEL_SPACE
 70
             0
 10
0.0
 20
0.0
 30
0.0
  3
*MODEL_SPACE
  1

  0
ENDBLK
  5
E
100
AcDbEntity
  8
0
100
AcDbBlockEnd
  0
BLOCK
  5
F
100
AcDbEntity
 67
             1
  8
0
100
AcDbBlockBegin
  2
*PAPER_SPACE
 70
             0
 10
0.0
 20
0.0
 30
0.0
  3
*PAPER_SPACE
  1

  0
ENDBLK
  5
10
100
AcDbEntity
 67
             1
  8
0
100
AcDbBlockEnd
  0
ENDSEC
  0
SECTION
  2
ENTITIES
  0
ARC
  5
5D4
100
AcDbEntity
  8
0
  6
CONTINUOUS
 62
             7
100
AcDbCircle
 10
167.28615612366929
 20
-47.68860009363283
 40
0.20000000000002
100
AcDbArc
 50
0.0
 51
69.44395478040296
  0
ARC
  5
5D3
100
AcDbEntity
  8
0
  6
CONTINUOUS
 62
             7
100
AcDbCircle
 10
167.28615612366929
 20
-45.911399906367
 40
0.19999999999999
100
AcDbArc
 50
-69.44395478040153
 51
0.0
  0
ARC
  5
5D2
100
AcDbEntity
  8
0
  6
CONTINUOUS
 62
             7
100
AcDbCircle
 10
166.28615612366929
 20
-47.68860009363283
 40
0.20000000000002
100
AcDbArc
 50
0.0
 51
69.44395478040296
  0
ARC
  5
5D1
100
AcDbEntity
  8
0
  6
CONTINUOUS
 62
             7
100
AcDbCircle
 10
166.28615612366929
 20
-45.911399906367
 40
0.19999999999999
100
AcDbArc
 50
-69.44395478040153
 51
0.0
  0
ARC
  5
5D0
100
AcDbEntity
  8
0
  6
CONTINUOUS
 62
             7
100
AcDbCircle
 10
167.28615612366929
 20
-39.28860009363285
 40
0.20000000000002
100
AcDbArc
 50
0.0
 51
69.44395478040509
  0
ARC
  5
5CF
100
AcDbEntity
  8
0
  6
CONTINUOUS
 62
             7
100
AcDbCircle
 10
167.28615612366929
 20
-37.51139990636699
 40
0.20000000000002
100
AcDbArc
 50
-69.44395478040509
 51
0.0
  0
ARC
  5
5CE
100
AcDbEntity
  8
0
  6
CONTINUOUS
 62
             7
100
AcDbCircle
 10
166.28615612366929
 20
-39.28860009363285
 40
0.20000000000002
100
AcDbArc
 50
0.0
 51
69.44395478040509
  0
ARC
  5
5CD
100
AcDbEntity
  8
0
  6
CONTINUOUS
 62
             7
100
AcDbCircle
 10
166.28615612366929
 20
-37.51139990636699
 40
0.20000000000002
100
AcDbArc
 50
-69.44395478040509
 51
0.0
  0
ARC
  5
5CC
100
AcDbEntity
  8
0
  6
CONTINUOUS
 62
             7
100
AcDbCircle
 10
167.28615612366929
 20
-30.88860009363287
 40
0.20000000000002
100
AcDbArc
 50
0.0
 51
69.44395478040474
  0
ARC
  5
5CB
100
AcDbEntity
  8
0
  6
CONTINUOUS
 62
             7
100
AcDbCircle
 10
167.28615612366929
 20
-29.11139990636701
 40
0.20000000000002
100
AcDbArc
 50
-69.44395478040509
 51
0.0
  0
ARC
  5
5CA
100
AcDbEntity
  8
0
  6
CONTINUOUS
 62
             7
100
AcDbCircle
 10
166.28615612366929
 20
-30.88860009363287
 40
0.20000000000002
100
AcDbArc
 50
0.0
 51
69.44395478040474
  0
ARC
  5
5C9
100
AcDbEntity
  8
0
  6
CONTINUOUS
 62
             7
100
AcDbCircle
 10
166.28615612366929
 20
-29.11139990636701
 40
0.20000000000002
100
AcDbArc
 50
-69.44395478040509
 51
0.0
  0
ARC
  5
5C8
100
AcDbEntity
  8
0
  6
CONTINUOUS
 62
             7
100
AcDbCircle
 10
167.28615612366929
 20
-22.48860009363293
 40
0.20000000000002
100
AcDbArc
 50
0.0
 51
69.44395478040867
  0
ARC
  5
5C7
100
AcDbEntity
  8
0
  6
CONTINUOUS
 62
             7
100
AcDbCircle
 10
167.28615612366929
 20
-20.71139990636703
 40
0.2
100
AcDbArc
 50
-69.44395478040261
 51
0.0
  0
ARC
  5
5C6
100
AcDbEntity
  8
0
  6
CONTINUOUS
 62
             7
100
AcDbCircle
 10
166.28615612366929
 20
-22.48860009363293
 40
0.20000000000002
100
AcDbArc
 50
0.0
 51
69.44395478040867
  0
ARC
  5
5C5
100
AcDbEntity
  8
0
  6
CONTINUOUS
 62
             7
100
AcDbCircle
 10
166.28615612366929
 20
-20.71139990636703
 40
0.2
100
AcDbArc
 50
-69.44395478040261
 51
0.0
  0
ARC
  5
5C4
100
AcDbEntity
  8
0
  6
CONTINUOUS
 62
             7
100
AcDbCircle
 10
167.28615612366929
 20
-14.08860009363295
 40
0.20000000000002
100
AcDbArc
 50
0.0
 51
69.44395478040474
  0
ARC
  5
5C3
100
AcDbEntity
  8
0
  6
CONTINUOUS
 62
             7
100
AcDbCircle
 10
167.28615612366929
 20
-12.31139990636709
 40
0.19999999999996
100
AcDbArc
 50
-69.44395478039886
 51
0.0
  0
ARC
  5
5C2
100
AcDbEntity
  8
0
  6
CONTINUOUS
 62
             7
100
AcDbCircle
 10
166.28615612366929
 20
-14.08860009363295
 40
0.20000000000002
100
AcDbArc
 50
0.0
 51
69.44395478040474
  0
ARC
  5
5C1
100
AcDbEntity
  8
0
  6
CONTINUOUS
 62
             7
100
AcDbCircle
 10
166.28615612366929
 20
-12.31139990636709
 40
0.19999999999996
100
AcDbArc
 50
-69.44395478039886
 51
0.0
  0
ARC
  5
5C0
100
AcDbEntity
  8
0
  6
CONTINUOUS
 62
             7
100
AcDbCircle
 10
167.28615612366929
 20
-5.68860009363297
 40
0.20000000000002
100
AcDbArc
 50
0.0
 51
69.44395478040509
  0
ARC
  5
5BF
100
AcDbEntity
  8
0
  6
CONTINUOUS
 62
             7
100
AcDbCircle
 10
167.28615612366929
 20
-3.91139990636711
 40
0.19999999999997
100
AcDbArc
 50
-69.44395478039934
 51
0.0
  0
ARC
  5
5BE
100
AcDbEntity
  8
0
  6
CONTINUOUS
 62
             7
100
AcDbCircle
 10
166.28615612366929
 20
-5.68860009363297
 40
0.20000000000002
100
AcDbArc
 50
0.0
 51
69.44395478040509
  0
ARC
  5
5BD
100
AcDbEntity
  8
0
  6
CONTINUOUS
 62
             7
100
AcDbCircle
 10
166.28615612366929
 20
-3.91139990636711
 40
0.19999999999997
100
AcDbArc
 50
-69.44395478039934
 51
0.0
  0
ARC
  5
5BC
100
AcDbEntity
  8
0
  6
CONTINUOUS
 62
             7
100
AcDbCircle
 10
167.28615612366929
 20
2.71139990636703
 40
0.20000000000002
100
AcDbArc
 50
0.0
 51
69.44395478040219
  0
ARC
  5
5BB
100
AcDbEntity
  8
0
  6
CONTINUOUS
 62
             7
100
AcDbCircle
 10
167.28615612366929
 20
4.48860009363287
 40
0.19999999999996
100
AcDbArc
 50
-69.44395478039921
 51
0.0
  0
ARC
  5
5BA
100
AcDbEntity
  8
0
  6
CONTINUOUS
 62
             7
100
AcDbCircle
 10
166.28615612366929
 20
2.71139990636703
 40
0.20000000000002
100
AcDbArc
 50
0.0
 51
69.44395478040219
  0
ARC
  5
5B9
100
AcDbEntity
  8
0
  6
CONTINUOUS
 62
             7
100
AcDbCircle
 10
166.28615612366929
 20
4.48860009363287
 40
0.19999999999996
100
AcDbArc
 50
-69.44395478039921
 51
0.0
  0
ARC
  5
5B8
100
AcDbEntity
  8
0
  6
CONTINUOUS
 62
             7
100
AcDbCircle
 10
167.28615612366929
 20
11.11139990636701
 40
0.20000000000002
100
AcDbArc
 50
0.0
 51
69.44395478040474
  0
ARC
  5
5B7
100
AcDbEntity
  8
0
  6
CONTINUOUS
 62
             7
100
AcDbCircle
 10
167.28615612366929
 20
12.88860009363285
 40
0.19999999999997
100
AcDbArc
 50
-69.44395478039975
 51
0.0
  0
ARC
  5
5B6
100
AcDbEntity
  8
0
  6
CONTINUOUS
 62
             7
100
AcDbCircle
 10
166.28615612366929
 20
11.11139990636701
 40
0.20000000000002
100
AcDbArc
 50
0.0
 51
69.44395478040474
  0
ARC
  5
5B5
100
AcDbEntity
  8
0
  6
CONTINUOUS
 62
             7
100
AcDbCircle
 10
166.28615612366929
 20
12.88860009363285
 40
0.19999999999997
100
AcDbArc
 50
-69.44395478039975
 51
0.0
  0
ARC
  5
5B4
100
AcDbEntity
  8
0
  6
CONTINUOUS
 62
             7
100
AcDbCircle
 10
167.28615612366929
 20
19.51139990636699
 40
0.20000000000002
100
AcDbArc
 50
0.0
 51
69.44395478040474
  0
ARC
  5
5B3
100
AcDbEntity
  8
0
  6
CONTINUOUS
 62
             7
100
AcDbCircle
 10
167.28615612366929
 20
21.28860009363285
 40
0.19999999999999
100
AcDbArc
 50
-69.44395478040188
 51
0.0
  0
ARC
  5
5B2
100
AcDbEntity
  8
0
  6
CONTINUOUS
 62
             7
100
AcDbCircle
 10
166.28615612366929
 20
19.51139990636699
 40
0.20000000000002
100
AcDbArc
 50
0.0
 51
69.44395478040474
  0
ARC
  5
5B1
100
AcDbEntity
  8
0
  6
CONTINUOUS
 62
             7
100
AcDbCircle
 10
166.28615612366929
 20
21.28860009363285
 40
0.19999999999999
100
AcDbArc
 50
-69.44395478040188
 51
0.0
  0
ARC
  5
5B0
100
AcDbEntity
  8
0
  6
CONTINUOUS
 62
             7
100
AcDbCircle
 10
167.28615612366929
 20
27.91139990636697
 40
0.20000000000002
100
AcDbArc
 50
0.0
 51
69.44395478040474
  0
ARC
  5
5AF
100
AcDbEntity
  8
0
  6
CONTINUOUS
 62
             7
100
AcDbCircle
 10
167.28615612366929
 20
29.68860009363283
 40
0.2
100
AcDbArc
 50
-69.44395478040261
 51
0.0
  0
ARC
  5
5AE
100
AcDbEntity
  8
0
  6
CONTINUOUS
 62
             7
100
AcDbCircle
 10
166.28615612366929
 20
27.91139990636697
 40
0.20000000000002
100
AcDbArc
 50
0.0
 51
69.44395478040474
  0
ARC
  5
5AD
100
AcDbEntity
  8
0
  6
CONTINUOUS
 62
             7
100
AcDbCircle
 10
166.28615612366929
 20
29.68860009363283
 40
0.2
100
AcDbArc
 50
-69.44395478040261
 51
0.0
  0
ARC
  5
5AC
100
AcDbEntity
  8
1
  6
CONTINUOUS
 62
             7
100
AcDbCircle
 10
136.0
 20
42.90000000000001
 40
1.2
100
AcDbArc
 50
90.0
 51
180.0
  0
ARC
  5
5AB
100
AcDbEntity
  8
1
  6
CONTINUOUS
 62
             7
100
AcDbCircle
 10
159.59999999999999
 20
42.90000000000001
 40
1.20000000000002
100
AcDbArc
 50
0.0
 51
90.0
  0
ARC
  5
5AA
100
AcDbEntity
  8
1
  6
CONTINUOUS
 62
             7
100
AcDbCircle
 10
168.5
 20
41.75000000000001
 40
1.0
100
AcDbArc
 50
0.0
 51
90.0
  0
ARC
  5
5A9
100
AcDbEntity
  8
1
  6
CONTINUOUS
 62
             7
100
AcDbCircle
 10
168.5
 20
38.25000000000001
 40
1.0
100
AcDbArc
 50
-90.0
 51
0.0
  0
ARC
  5
5A8
100
AcDbEntity
  8
1
  6
CONTINUOUS
 62
             7
100
AcDbCircle
 10
136.0
 20
-60.89999999999998
 40
1.19999999999999
100
AcDbArc
 50
180.0
 51
-90.0
  0
ARC
  5
5A7
100
AcDbEntity
  8
1
  6
CONTINUOUS
 62
             7
100
AcDbCircle
 10
159.59999999999999
 20
-60.89999999999998
 40
1.2
100
AcDbArc
 50
-90.0
 51
0.0
  0
ARC
  5
5A6
100
AcDbEntity
  8
1
  6
CONTINUOUS
 62
             7
100
AcDbCircle
 10
168.5
 20
-59.75
 40
1.0
100
AcDbArc
 50
-90.0
 51
0.0
  0
ARC
  5
5A5
100
AcDbEntity
  8
1
  6
CONTINUOUS
 62
             7
100
AcDbCircle
 10
168.5
 20
-56.25
 40
1.0
100
AcDbArc
 50
0.0
 51
90.0
  0
ARC
  5
5A4
100
AcDbEntity
  8
1
  6
CONTINUOUS
 62
             7
100
AcDbCircle
 10
-12.5
 20
-46.5
 40
2.5
100
AcDbArc
 50
180.0
 51
-90.0
  0
ARC
  5
5A3
100
AcDbEntity
  8
1
  6
CONTINUOUS
 62
             7
100
AcDbCircle
 10
23.20000000000002
 20
28.29999999999994
 40
1.19999999999999
100
AcDbArc
 50
0.0
 51
90.0
  0
ARC
  5
5A2
100
AcDbEntity
  8
1
  6
CONTINUOUS
 62
             7
100
AcDbCircle
 10
-11.19999999999999
 20
28.29999999999994
 40
1.2
100
AcDbArc
 50
90.0
 51
180.0
  0
ARC
  5
5A1
100
AcDbEntity
  8
1
  6
CONTINUOUS
 62
             7
100
AcDbCircle
 10
-11.19999999999999
 20
-22.80000000000006
 40
1.19999999999999
100
AcDbArc
 50
-179.99999999999915
 51
-90.0
  0
ARC
  5
5A0
100
AcDbEntity
  8
1
  6
CONTINUOUS
 62
             7
100
AcDbCircle
 10
23.20000000000002
 20
-22.80000000000006
 40
1.2
100
AcDbArc
 50
-90.0
 51
0.00000000000051
  0
ARC
  5
59F
100
AcDbEntity
  8
1
  6
CONTINUOUS
 62
             7
100
AcDbCircle
 10
24.5
 20
-46.5
 40
2.5
100
AcDbArc
 50
-90.0
 51
0.0
  0
ARC
  5
59E
100
AcDbEntity
  8
1
  6
CONTINUOUS
 62
             7
100
AcDbCircle
 10
24.5
 20
31.19990000000002
 40
2.5
100
AcDbArc
 50
-0.00000000000024
 51
90.0
  0
ARC
  5
59D
100
AcDbEntity
  8
1
  6
CONTINUOUS
 62
             7
100
AcDbCircle
 10
-12.5
 20
31.19990000000002
 40
2.49999999999999
100
AcDbArc
 50
90.0
 51
180.0
  0
ARC
  5
59C
100
AcDbEntity
  8
1
  6
CONTINUOUS
 62
             7
100
AcDbCircle
 10
-12.5
 20
31.19990000000002
 40
1.0
100
AcDbArc
 50
89.99999999999939
 51
180.0
  0
ARC
  5
59B
100
AcDbEntity
  8
1
  6
CONTINUOUS
 62
             7
100
AcDbCircle
 10
24.5
 20
31.19990000000002
 40
1.0
100
AcDbArc
 50
0.0
 51
90.0
  0
ARC
  5
59A
100
AcDbEntity
  8
1
  6
CONTINUOUS
 62
             7
100
AcDbCircle
 10
24.5
 20
-26.99999999999994
 40
1.0
100
AcDbArc
 50
-90.0
 51
0.0
  0
ARC
  5
599
100
AcDbEntity
  8
1
  6
CONTINUOUS
 62
             7
100
AcDbCircle
 10
-12.5
 20
-26.99999999999994
 40
0.99999999999999
100
AcDbArc
 50
-179.99999999999937
 51
-90.0
  0
CIRCLE
  5
598
100
AcDbEntity
  8
1
  6
CONTINUOUS
 62
             7
100
AcDbCircle
 10
156.49999999999989
 20
23.33499999999998
 40
0.24500000000012
  0
CIRCLE
  5
597
100
AcDbEntity
  8
1
  6
CONTINUOUS
 62
             7
100
AcDbCircle
 10
9.0
 20
14.15004999999995
 40
0.40000000000001
  0
CIRCLE
  5
596
100
AcDbEntity
  8
1
  6
CONTINUOUS
 62
             7
100
AcDbCircle
 10
15.40000000000012
 20
14.15004999999995
 40
0.40000000000001
  0
CIRCLE
  5
595
100
AcDbEntity
  8
1
  6
CONTINUOUS
 62
             7
100
AcDbCircle
 10
2.59999999999991
 20
14.15004999999995
 40
0.40000000000001
  0
CIRCLE
  5
594
100
AcDbEntity
  8
1
  6
CONTINUOUS
 62
             7
100
AcDbCircle
 10
-3.80000000000018
 20
14.15004999999995
 40
0.40000000000001
  0
CIRCLE
  5
593
100
AcDbEntity
  8
1
  6
CONTINUOUS
 62
             7
100
AcDbCircle
 10
16.59999999999991
 20
2.85004999999994
 40
0.40000000000009
  0
CIRCLE
  5
592
100
AcDbEntity
  8
1
  6
CONTINUOUS
 62
             7
100
AcDbCircle
 10
11.1999999999999
 20
2.85004999999994
 40
0.40000000000001
  0
CIRCLE
  5
591
100
AcDbEntity
  8
1
  6
CONTINUOUS
 62
             7
100
AcDbCircle
 10
5.7999999999999
 20
2.85004999999994
 40
0.40000000000001
  0
CIRCLE
  5
590
100
AcDbEntity
  8
1
  6
CONTINUOUS
 62
             7
100
AcDbCircle
 10
0.40000000000001
 20
2.85004999999994
 40
0.39999999999989
  0
ARC
  5
58F
100
AcDbEntity
  8
1
  6
CONTINUOUS
 62
             7
100
AcDbCircle
 10
63.50000000000001
 20
-56.1980937596023
 40
0.5
100
AcDbArc
 50
180.0
 51
-93.99999999999575
  0
ARC
  5
58E
100
AcDbEntity
  8
1
  6
CONTINUOUS
 62
             7
100
AcDbCircle
 10
63.50000000000001
 20
38.19809375960232
 40
0.49999999999999
100
AcDbArc
 50
93.99999999999575
 51
180.0
  0
ARC
  5
58D
100
AcDbEntity
  8
1
  6
CONTINUOUS
 62
             7
100
AcDbCircle
 10
29.0
 20
38.0
 40
1.0
100
AcDbArc
 50
0.0
 51
90.0
  0
ARC
  5
58C
100
AcDbEntity
  8
1
  6
CONTINUOUS
 62
             7
100
AcDbCircle
 10
-17.00000000000011
 20
38.0
 40
1.0
100
AcDbArc
 50
89.99999999999308
 51
180.0
  0
ARC
  5
58B
100
AcDbEntity
  8
1
  6
CONTINUOUS
 62
             7
100
AcDbCircle
 10
-17.00000000000011
 20
-56.0
 40
0.99999999999988
100
AcDbArc
 50
180.0
 51
-90.0
  0
ARC
  5
58A
100
AcDbEntity
  8
1
  6
CONTINUOUS
 62
             7
100
AcDbCircle
 10
29.0
 20
-56.0
 40
1.0
100
AcDbArc
 50
-90.0
 51
0.0
  0
ARC
  5
589
100
AcDbEntity
  8
1
  6
CONTINUOUS
 62
             7
100
AcDbCircle
 10
144.0
 20
-49.50000000000006
 40
1.0
100
AcDbArc
 50
-90.0
 51
90.0
  0
ARC
  5
588
100
AcDbEntity
  8
1
  6
CONTINUOUS
 62
             7
100
AcDbCircle
 10
131.5
 20
-49.50000000000006
 40
1.0
100
AcDbArc
 50
90.0
 51
-90.0
  0
ARC
  5
587
100
AcDbEntity
  8
1
  6
CONTINUOUS
 62
             7
100
AcDbCircle
 10
131.5
 20
-46.00000000000006
 40
1.0
100
AcDbArc
 50
90.0
 51
-90.0
  0
ARC
  5
586
100
AcDbEntity
  8
1
  6
CONTINUOUS
 62
             7
100
AcDbCircle
 10
144.0
 20
-46.00000000000006
 40
1.0
100
AcDbArc
 50
-90.0
 51
90.0
  0
ARC
  5
585
100
AcDbEntity
  8
1
  6
CONTINUOUS
 62
             7
100
AcDbCircle
 10
124.5
 20
-46.00000000000006
 40
1.0
100
AcDbArc
 50
-90.0
 51
90.0
  0
ARC
  5
584
100
AcDbEntity
  8
1
  6
CONTINUOUS
 62
             7
100
AcDbCircle
 10
112.0
 20
-46.00000000000006
 40
1.0
100
AcDbArc
 50
90.0
 51
-90.0
  0
ARC
  5
583
100
AcDbEntity
  8
1
  6
CONTINUOUS
 62
             7
100
AcDbCircle
 10
87.0
 20
-36.00000000000006
 40
1.0
100
AcDbArc
 50
90.0
 51
-90.0
  0
ARC
  5
582
100
AcDbEntity
  8
1
  6
CONTINUOUS
 62
             7
100
AcDbCircle
 10
99.5
 20
-36.00000000000006
 40
1.0
100
AcDbArc
 50
-90.0
 51
90.0
  0
ARC
  5
581
100
AcDbEntity
  8
1
  6
CONTINUOUS
 62
             7
100
AcDbCircle
 10
99.5
 20
-32.50000000000006
 40
1.0
100
AcDbArc
 50
-90.0
 51
90.0
  0
ARC
  5
580
100
AcDbEntity
  8
1
  6
CONTINUOUS
 62
             7
100
AcDbCircle
 10
87.0
 20
-32.50000000000006
 40
1.0
100
AcDbArc
 50
90.0
 51
-90.0
  0
ARC
  5
57F
100
AcDbEntity
  8
1
  6
CONTINUOUS
 62
             7
100
AcDbCircle
 10
87.0
 20
-29.00000000000006
 40
1.0
100
AcDbArc
 50
90.0
 51
-90.0
  0
ARC
  5
57E
100
AcDbEntity
  8
1
  6
CONTINUOUS
 62
             7
100
AcDbCircle
 10
99.5
 20
-29.00000000000006
 40
1.0
100
AcDbArc
 50
-90.0
 51
90.0
  0
ARC
  5
57D
100
AcDbEntity
  8
1
  6
CONTINUOUS
 62
             7
100
AcDbCircle
 10
156.49999999999989
 20
23.99999999999989
 40
0.14000000000076
100
AcDbArc
 50
-173.24367296947588
 51
-6.75632703059526
  0
ARC
  5
57C
100
AcDbEntity
  8
1
  6
CONTINUOUS
 62
             7
100
AcDbCircle
 10
156.49999999999989
 20
25.18999999999977
 40
0.27999999999966
100
AcDbArc
 50
-6.75632703055554
 51
-173.24367296946497
  0
ARC
  5
57B
100
AcDbEntity
  8
1
  6
CONTINUOUS
 62
             7
100
AcDbCircle
 10
158.58626933040961
 20
22.80999999999978
 40
0.20999999999993
100
AcDbArc
 50
-90.0
 51
30.00000000005012
  0
ARC
  5
57A
100
AcDbEntity
  8
1
  6
CONTINUOUS
 62
             7
100
AcDbCircle
 10
154.41373066958889
 20
22.80999999999978
 40
0.21000000000022
100
AcDbArc
 50
149.99999999997704
 51
-90.0
  0
ARC
  5
579
100
AcDbEntity
  8
1
  6
CONTINUOUS
 62
             7
100
AcDbCircle
 10
156.49999999999989
 20
26.4235244785437
 40
0.20999999999944
100
AcDbArc
 50
30.00000000007479
 51
150.00000000001828
  0
ARC
  5
578
100
AcDbEntity
  8
1
  6
CONTINUOUS
 62
             7
100
AcDbCircle
 10
99.5
 20
-39.50000000000006
 40
1.0
100
AcDbArc
 50
-90.0
 51
90.0
  0
ARC
  5
577
100
AcDbEntity
  8
1
  6
CONTINUOUS
 62
             7
100
AcDbCircle
 10
87.0
 20
-39.50000000000006
 40
1.0
100
AcDbArc
 50
90.0
 51
-90.0
  0
ARC
  5
576
100
AcDbEntity
  8
1
  6
CONTINUOUS
 62
             7
100
AcDbCircle
 10
124.5
 20
-49.50000000000006
 40
1.0
100
AcDbArc
 50
-90.0
 51
90.0
  0
ARC
  5
575
100
AcDbEntity
  8
1
  6
CONTINUOUS
 62
             7
100
AcDbCircle
 10
112.0
 20
-49.50000000000006
 40
1.0
100
AcDbArc
 50
90.0
 51
-90.0
  0
ARC
  5
574
100
AcDbEntity
  8
0
  6
CONTINUOUS
 62
             7
100
AcDbCircle
 10
168.22527626529379
 20
-48.5499999999999
 40
1.0
100
AcDbArc
 50
-90.0
 51
-16.95776330000249
  0
ARC
  5
573
100
AcDbEntity
  8
0
  6
CONTINUOUS
 62
             7
100
AcDbCircle
 10
162.4861561236693
 20
-46.7999999999999
 40
7.00000000000002
100
AcDbArc
 50
-16.95776330000394
 51
16.95776330000378
  0
ARC
  5
572
100
AcDbEntity
  8
0
  6
CONTINUOUS
 62
             7
100
AcDbCircle
 10
168.22527626529379
 20
-45.0499999999999
 40
1.00000000000003
100
AcDbArc
 50
16.95776330000132
 51
90.0
  0
ARC
  5
571
100
AcDbEntity
  8
0
  6
CONTINUOUS
 62
             7
100
AcDbCircle
 10
168.22527626529379
 20
-40.14999999999992
 40
1.0
100
AcDbArc
 50
-90.0
 51
-16.95776330000482
  0
ARC
  5
570
100
AcDbEntity
  8
0
  6
CONTINUOUS
 62
             7
100
AcDbCircle
 10
162.4861561236693
 20
-38.39999999999992
 40
7.00000000000004
100
AcDbArc
 50
-16.95776330000428
 51
16.95776330000378
  0
ARC
  5
56F
100
AcDbEntity
  8
0
  6
CONTINUOUS
 62
             7
100
AcDbCircle
 10
168.22527626529379
 20
-36.64999999999992
 40
1.00000000000003
100
AcDbArc
 50
16.95776330000132
 51
90.0
  0
ARC
  5
56E
100
AcDbEntity
  8
0
  6
CONTINUOUS
 62
             7
100
AcDbCircle
 10
168.22527626529379
 20
-31.74999999999994
 40
1.0
100
AcDbArc
 50
-90.0
 51
-16.95776330000463
  0
ARC
  5
56D
100
AcDbEntity
  8
0
  6
CONTINUOUS
 62
             7
100
AcDbCircle
 10
162.4861561236693
 20
-29.99999999999994
 40
7.00000000000003
100
AcDbArc
 50
-16.95776330000425
 51
16.95776330000378
  0
ARC
  5
56C
100
AcDbEntity
  8
0
  6
CONTINUOUS
 62
             7
100
AcDbCircle
 10
168.22527626529379
 20
-28.24999999999994
 40
1.00000000000003
100
AcDbArc
 50
16.95776330000132
 51
90.0
  0
ARC
  5
56B
100
AcDbEntity
  8
0
  6
CONTINUOUS
 62
             7
100
AcDbCircle
 10
168.22527626529379
 20
-23.34999999999999
 40
1.0
100
AcDbArc
 50
-90.0
 51
-16.95776330000132
  0
ARC
  5
56A
100
AcDbEntity
  8
0
  6
CONTINUOUS
 62
             7
100
AcDbCircle
 10
162.4861561236693
 20
-21.59999999999999
 40
7.00000000000002
100
AcDbArc
 50
-16.95776330000378
 51
16.95776330000394
  0
ARC
  5
569
100
AcDbEntity
  8
0
  6
CONTINUOUS
 62
             7
100
AcDbCircle
 10
168.22527626529379
 20
-19.84999999999999
 40
1.00000000000004
100
AcDbArc
 50
16.95776330000249
 51
90.0
  0
ARC
  5
568
100
AcDbEntity
  8
0
  6
CONTINUOUS
 62
             7
100
AcDbCircle
 10
168.22527626529379
 20
-14.95000000000002
 40
1.0
100
AcDbArc
 50
-90.0
 51
-16.95776330000249
  0
ARC
  5
567
100
AcDbEntity
  8
0
  6
CONTINUOUS
 62
             7
100
AcDbCircle
 10
162.4861561236693
 20
-13.20000000000002
 40
7.00000000000002
100
AcDbArc
 50
-16.95776330000394
 51
16.95776330000427
  0
ARC
  5
566
100
AcDbEntity
  8
0
  6
CONTINUOUS
 62
             7
100
AcDbCircle
 10
168.22527626529379
 20
-11.45000000000002
 40
1.00000000000005
100
AcDbArc
 50
16.95776330000473
 51
90.0
  0
ARC
  5
565
100
AcDbEntity
  8
0
  6
CONTINUOUS
 62
             7
100
AcDbCircle
 10
168.22527626529379
 20
-6.55000000000004
 40
1.0
100
AcDbArc
 50
-90.0
 51
-16.95776330000132
  0
ARC
  5
564
100
AcDbEntity
  8
0
  6
CONTINUOUS
 62
             7
100
AcDbCircle
 10
162.4861561236693
 20
-4.80000000000004
 40
7.00000000000002
100
AcDbArc
 50
-16.95776330000378
 51
16.95776330000422
  0
ARC
  5
563
100
AcDbEntity
  8
0
  6
CONTINUOUS
 62
             7
100
AcDbCircle
 10
168.22527626529379
 20
-3.05000000000004
 40
1.00000000000005
100
AcDbArc
 50
16.95776330000443
 51
90.0
  0
ARC
  5
562
100
AcDbEntity
  8
0
  6
CONTINUOUS
 62
             7
100
AcDbCircle
 10
168.22527626529379
 20
1.84999999999997
 40
1.00000000000003
100
AcDbArc
 50
-90.0
 51
-16.95776330000445
  0
ARC
  5
561
100
AcDbEntity
  8
0
  6
CONTINUOUS
 62
             7
100
AcDbCircle
 10
162.4861561236693
 20
3.59999999999997
 40
7.00000000000003
100
AcDbArc
 50
-16.95776330000422
 51
16.957763300004
  0
ARC
  5
560
100
AcDbEntity
  8
0
  6
CONTINUOUS
 62
             7
100
AcDbCircle
 10
168.22527626529379
 20
5.34999999999994
 40
1.00000000000005
100
AcDbArc
 50
16.95776330000449
 51
90.0
  0
ARC
  5
55F
100
AcDbEntity
  8
0
  6
CONTINUOUS
 62
             7
100
AcDbCircle
 10
168.22527626529379
 20
10.24999999999991
 40
0.99999999999997
100
AcDbArc
 50
-90.0
 51
-16.95776330000103
  0
ARC
  5
55E
100
AcDbEntity
  8
0
  6
CONTINUOUS
 62
             7
100
AcDbCircle
 10
162.4861561236693
 20
11.99999999999991
 40
7.00000000000002
100
AcDbArc
 50
-16.95776330000374
 51
16.95776330000427
  0
ARC
  5
55D
100
AcDbEntity
  8
0
  6
CONTINUOUS
 62
             7
100
AcDbCircle
 10
168.22527626529379
 20
13.74999999999991
 40
1.00000000000005
100
AcDbArc
 50
16.95776330000473
 51
90.0
  0
ARC
  5
55C
100
AcDbEntity
  8
0
  6
CONTINUOUS
 62
             7
100
AcDbCircle
 10
168.22527626529379
 20
18.64999999999992
 40
1.0
100
AcDbArc
 50
-90.0
 51
-16.95776330000307
  0
ARC
  5
55B
100
AcDbEntity
  8
0
  6
CONTINUOUS
 62
             7
100
AcDbCircle
 10
162.4861561236693
 20
20.39999999999992
 40
7.00000000000003
100
AcDbArc
 50
-16.95776330000403
 51
16.95776330000403
  0
ARC
  5
55A
100
AcDbEntity
  8
0
  6
CONTINUOUS
 62
             7
100
AcDbCircle
 10
168.22527626529379
 20
22.14999999999992
 40
1.00000000000004
100
AcDbArc
 50
16.95776330000307
 51
90.0
  0
ARC
  5
559
100
AcDbEntity
  8
0
  6
CONTINUOUS
 62
             7
100
AcDbCircle
 10
168.22527626529379
 20
27.0499999999999
 40
1.0
100
AcDbArc
 50
-90.0
 51
-16.95776330000307
  0
ARC
  5
558
100
AcDbEntity
  8
0
  6
CONTINUOUS
 62
             7
100
AcDbCircle
 10
162.4861561236693
 20
28.7999999999999
 40
7.00000000000003
100
AcDbArc
 50
-16.95776330000403
 51
16.95776330000394
  0
ARC
  5
557
100
AcDbEntity
  8
0
  6
CONTINUOUS
 62
             7
100
AcDbCircle
 10
168.22527626529379
 20
30.5499999999999
 40
1.00000000000004
100
AcDbArc
 50
16.95776330000249
 51
90.0
  0
ARC
  5
556
100
AcDbEntity
  8
1
  6
CONTINUOUS
 62
             7
100
AcDbCircle
 10
166.90000000000001
 20
37.09999999999999
 40
0.59999999999998
100
AcDbArc
 50
-90.0
 51
0.0
  0
ARC
  5
555
100
AcDbEntity
  8
1
  6
CONTINUOUS
 62
             7
100
AcDbCircle
 10
166.90000000000001
 20
-55.09999999999998
 40
0.59999999999999
100
AcDbArc
 50
0.00000000000068
 51
90.0
  0
ARC
  5
554
100
AcDbEntity
  8
1
  6
CONTINUOUS
 62
             7
100
AcDbCircle
 10
-12.99999999999999
 20
-38.5
 40
0.5
100
AcDbArc
 50
90.0
 51
-89.99999999999898
  0
ARC
  5
553
100
AcDbEntity
  8
1
  6
CONTINUOUS
 62
             7
100
AcDbCircle
 10
25.0
 20
-38.5
 40
0.5
100
AcDbArc
 50
-90.0
 51
90.0
  0
LINE
  5
552
100
AcDbEntity
  8
1
  6
CONTINUOUS
 62
             7
100
AcDbLine
 10
74.5
 20
-57.00000000000006
 11
74.5
 21
39.0
  0
LINE
  5
551
100
AcDbEntity
  8
1
  6
CONTINUOUS
 62
             7
100
AcDbLine
 10
73.0
 20
-57.00000000000006
 11
74.5
 21
-57.00000000000006
  0
LINE
  5
550
100
AcDbEntity
  8
1
  6
CONTINUOUS
 62
             7
100
AcDbLine
 10
73.0
 20
39.0
 11
74.5
 21
39.0
  0
LINE
  5
54F
100
AcDbEntity
  8
1
  6
CONTINUOUS
 62
             7
100
AcDbLine
 10
63.00000000000001
 20
38.19809375960232
 11
63.00000000000001
 21
-56.1980937596023
  0
LINE
  5
54E
100
AcDbEntity
  8
1
  6
CONTINUOUS
 62
             7
100
AcDbLine
 10
67.80000000000007
 20
-56.99999999999999
 11
63.46512176312798
 21
-56.69687578473221
  0
LINE
  5
54D
100
AcDbEntity
  8
1
  6
CONTINUOUS
 62
             7
100
AcDbLine
 10
63.46512176312798
 20
38.69687578473223
 11
67.80000000000007
 21
39.0
  0
LINE
  5
54C
100
AcDbEntity
  8
1
  6
CONTINUOUS
 62
             7
100
AcDbLine
 10
0.49999999999989
 20
-57.0
 11
-17.00000000000011
 21
-57.0
  0
LINE
  5
54B
100
AcDbEntity
  8
1
  6
CONTINUOUS
 62
             7
100
AcDbLine
 10
29.0
 20
-57.0
 11
11.49999999999989
 21
-57.0
  0
LINE
  5
54A
100
AcDbEntity
  8
1
  6
CONTINUOUS
 62
             7
100
AcDbLine
 10
11.49999999999989
 20
-57.0
 11
11.49999999999989
 21
-55.59999999999999
  0
LINE
  5
549
100
AcDbEntity
  8
1
  6
CONTINUOUS
 62
             7
100
AcDbLine
 10
0.49999999999989
 20
-57.0
 11
0.49999999999989
 21
-55.59999999999999
  0
LINE
  5
548
100
AcDbEntity
  8
1
  6
CONTINUOUS
 62
             7
100
AcDbLine
 10
0.49999999999989
 20
37.59999999999999
 11
0.49999999999989
 21
39.0
  0
LINE
  5
547
100
AcDbEntity
  8
1
  6
CONTINUOUS
 62
             7
100
AcDbLine
 10
11.49999999999989
 20
39.0
 11
29.0
 21
39.0
  0
LINE
  5
546
100
AcDbEntity
  8
1
  6
CONTINUOUS
 62
             7
100
AcDbLine
 10
11.49999999999989
 20
37.59999999999999
 11
11.49999999999989
 21
39.0
  0
LINE
  5
545
100
AcDbEntity
  8
1
  6
CONTINUOUS
 62
             7
100
AcDbLine
 10
-16.99999999999999
 20
39.0
 11
0.49999999999989
 21
39.0
  0
LINE
  5
544
100
AcDbEntity
  8
1
  6
CONTINUOUS
 62
             7
100
AcDbLine
 10
-18.00000000000011
 20
38.0
 11
-17.99999999999999
 21
-56.0
  0
LINE
  5
543
100
AcDbEntity
  8
1
  6
CONTINUOUS
 62
             7
100
AcDbLine
 10
30.0
 20
-56.0
 11
30.0
 21
38.0
  0
LINE
  5
542
100
AcDbEntity
  8
1
  6
CONTINUOUS
 62
             7
100
AcDbLine
 10
-16.00000000000011
 20
35.5
 11
28.0
 21
35.5
  0
LINE
  5
541
100
AcDbEntity
  8
1
  6
CONTINUOUS
 62
             7
100
AcDbLine
 10
28.0
 20
35.5
 11
28.0
 21
-53.5
  0
LINE
  5
540
100
AcDbEntity
  8
1
  6
CONTINUOUS
 62
             7
100
AcDbLine
 10
28.0
 20
-53.5
 11
-16.00000000000011
 21
-53.5
  0
LINE
  5
53F
100
AcDbEntity
  8
1
  6
CONTINUOUS
 62
             7
100
AcDbLine
 10
-16.00000000000011
 20
-53.5
 11
-16.00000000000011
 21
35.5
  0
LINE
  5
53E
100
AcDbEntity
  8
1
  6
CONTINUOUS
 62
             7
100
AcDbLine
 10
67.80000000000007
 20
-56.99999999999999
 11
67.80000000000007
 21
39.0
  0
LINE
  5
53D
100
AcDbEntity
  8
1
  6
CONTINUOUS
 62
             7
100
AcDbLine
 10
0.49999999999989
 20
37.59999999999999
 11
11.49999999999989
 21
37.59999999999999
  0
LINE
  5
53C
100
AcDbEntity
  8
1
  6
CONTINUOUS
 62
             7
100
AcDbLine
 10
11.49999999999989
 20
39.0
 11
0.49999999999989
 21
39.0
  0
LINE
  5
53B
100
AcDbEntity
  8
1
  6
CONTINUOUS
 62
             7
100
AcDbLine
 10
0.49999999999989
 20
-55.59999999999999
 11
11.49999999999989
 21
-55.59999999999999
  0
LINE
  5
53A
100
AcDbEntity
  8
1
  6
CONTINUOUS
 62
             7
100
AcDbLine
 10
0.49999999999989
 20
-57.0
 11
11.49999999999989
 21
-57.0
  0
LINE
  5
539
100
AcDbEntity
  8
1
  6
CONTINUOUS
 62
             7
100
AcDbLine
 10
101.5
 20
-42.50000000000006
 11
103.0
 21
-44.00000000000006
  0
LINE
  5
538
100
AcDbEntity
  8
1
  6
CONTINUOUS
 62
             7
100
AcDbLine
 10
166.0861561236693
 20
-50.33005165290967
 11
171.0
 21
-50.41582311681816
  0
LINE
  5
537
100
AcDbEntity
  8
1
  6
CONTINUOUS
 62
             7
100
AcDbLine
 10
172.5
 20
-53.00000000000006
 11
171.0
 21
-53.00000000000006
  0
LINE
  5
536
100
AcDbEntity
  8
1
  6
CONTINUOUS
 62
             7
100
AcDbLine
 10
171.0
 20
-53.00000000000006
 11
171.0
 21
-50.41582311681816
  0
LINE
  5
535
100
AcDbEntity
  8
1
  6
CONTINUOUS
 62
             7
100
AcDbLine
 10
173.0
 20
-52.50000000000006
 11
173.0
 21
-50.45073324667459
  0
LINE
  5
534
100
AcDbEntity
  8
1
  6
CONTINUOUS
 62
             7
100
AcDbLine
 10
166.0861561236693
 20
-41.9300516529097
 11
171.0
 21
-42.01582311681813
  0
LINE
  5
533
100
AcDbEntity
  8
1
  6
CONTINUOUS
 62
             7
100
AcDbLine
 10
171.5
 20
-43.17544935071788
 11
171.0
 21
-43.18417688318203
  0
LINE
  5
532
100
AcDbEntity
  8
1
  6
CONTINUOUS
 62
             7
100
AcDbLine
 10
171.0
 20
-43.18417688318203
 11
171.0
 21
-42.01582311681813
  0
LINE
  5
531
100
AcDbEntity
  8
1
  6
CONTINUOUS
 62
             7
100
AcDbLine
 10
173.0
 20
-43.14926675332555
 11
173.0
 21
-42.05073324667461
  0
LINE
  5
530
100
AcDbEntity
  8
1
  6
CONTINUOUS
 62
             7
100
AcDbLine
 10
166.0861561236693
 20
-33.53005165290966
 11
171.0
 21
-33.61582311681815
  0
LINE
  5
52F
100
AcDbEntity
  8
1
  6
CONTINUOUS
 62
             7
100
AcDbLine
 10
171.5
 20
-34.77544935071791
 11
171.0
 21
-34.784176883182
  0
LINE
  5
52E
100
AcDbEntity
  8
1
  6
CONTINUOUS
 62
             7
100
AcDbLine
 10
171.0
 20
-34.784176883182
 11
171.0
 21
-33.61582311681815
  0
LINE
  5
52D
100
AcDbEntity
  8
1
  6
CONTINUOUS
 62
             7
100
AcDbLine
 10
173.0
 20
-34.74926675332557
 11
173.0
 21
-33.65073324667458
  0
LINE
  5
52C
100
AcDbEntity
  8
1
  6
CONTINUOUS
 62
             7
100
AcDbLine
 10
166.0861561236693
 20
-25.13005165290969
 11
171.0
 21
-25.21582311681817
  0
LINE
  5
52B
100
AcDbEntity
  8
1
  6
CONTINUOUS
 62
             7
100
AcDbLine
 10
171.5
 20
-26.37544935071787
 11
171.0
 21
-26.38417688318202
  0
LINE
  5
52A
100
AcDbEntity
  8
1
  6
CONTINUOUS
 62
             7
100
AcDbLine
 10
171.0
 20
-26.38417688318202
 11
171.0
 21
-25.21582311681817
  0
LINE
  5
529
100
AcDbEntity
  8
1
  6
CONTINUOUS
 62
             7
100
AcDbLine
 10
173.0
 20
-26.34926675332559
 11
173.0
 21
-25.2507332466746
  0
LINE
  5
528
100
AcDbEntity
  8
1
  6
CONTINUOUS
 62
             7
100
AcDbLine
 10
166.0861561236693
 20
-16.73005165290971
 11
171.0
 21
-16.81582311681814
  0
LINE
  5
527
100
AcDbEntity
  8
1
  6
CONTINUOUS
 62
             7
100
AcDbLine
 10
171.5
 20
-17.9754493507179
 11
171.0
 21
-17.98417688318199
  0
LINE
  5
526
100
AcDbEntity
  8
1
  6
CONTINUOUS
 62
             7
100
AcDbLine
 10
171.0
 20
-17.98417688318199
 11
171.0
 21
-16.81582311681814
  0
LINE
  5
525
100
AcDbEntity
  8
1
  6
CONTINUOUS
 62
             7
100
AcDbLine
 10
173.0
 20
-17.94926675332556
 11
173.0
 21
-16.85073324667457
  0
LINE
  5
524
100
AcDbEntity
  8
1
  6
CONTINUOUS
 62
             7
100
AcDbLine
 10
166.0861561236693
 20
-8.33005165290967
 11
171.0
 21
-8.41582311681816
  0
LINE
  5
523
100
AcDbEntity
  8
1
  6
CONTINUOUS
 62
             7
100
AcDbLine
 10
171.5
 20
-9.57544935071792
 11
171.0
 21
-9.58417688318201
  0
LINE
  5
522
100
AcDbEntity
  8
1
  6
CONTINUOUS
 62
             7
100
AcDbLine
 10
171.0
 20
-9.58417688318201
 11
171.0
 21
-8.41582311681816
  0
LINE
  5
521
100
AcDbEntity
  8
1
  6
CONTINUOUS
 62
             7
100
AcDbLine
 10
173.0
 20
-9.54926675332558
 11
173.0
 21
-8.45073324667459
  0
LINE
  5
520
100
AcDbEntity
  8
1
  6
CONTINUOUS
 62
             7
100
AcDbLine
 10
166.0861561236693
 20
0.06994834709025
 11
171.0
 21
-0.01582311681813
  0
LINE
  5
51F
100
AcDbEntity
  8
1
  6
CONTINUOUS
 62
             7
100
AcDbLine
 10
171.5
 20
-1.17544935071794
 11
171.0
 21
-1.18417688318203
  0
LINE
  5
51E
100
AcDbEntity
  8
1
  6
CONTINUOUS
 62
             7
100
AcDbLine
 10
171.0
 20
-1.18417688318203
 11
171.0
 21
-0.01582311681813
  0
LINE
  5
51D
100
AcDbEntity
  8
1
  6
CONTINUOUS
 62
             7
100
AcDbLine
 10
173.0
 20
-1.1492667533256
 11
173.0
 21
-0.05073324667461
  0
LINE
  5
51C
100
AcDbEntity
  8
1
  6
CONTINUOUS
 62
             7
100
AcDbLine
 10
166.0861561236693
 20
8.46994834709028
 11
171.0
 21
8.38417688318185
  0
LINE
  5
51B
100
AcDbEntity
  8
1
  6
CONTINUOUS
 62
             7
100
AcDbLine
 10
171.5
 20
7.22455064928209
 11
171.0
 21
7.21582311681794
  0
LINE
  5
51A
100
AcDbEntity
  8
1
  6
CONTINUOUS
 62
             7
100
AcDbLine
 10
171.0
 20
7.21582311681794
 11
171.0
 21
8.38417688318185
  0
LINE
  5
519
100
AcDbEntity
  8
1
  6
CONTINUOUS
 62
             7
100
AcDbLine
 10
173.0
 20
7.25073324667437
 11
173.0
 21
8.34926675332537
  0
LINE
  5
518
100
AcDbEntity
  8
1
  6
CONTINUOUS
 62
             7
100
AcDbLine
 10
166.0861561236693
 20
16.86994834709026
 11
171.0
 21
16.78417688318189
  0
LINE
  5
517
100
AcDbEntity
  8
1
  6
CONTINUOUS
 62
             7
100
AcDbLine
 10
171.5
 20
15.62455064928207
 11
171.0
 21
15.61582311681798
  0
LINE
  5
516
100
AcDbEntity
  8
1
  6
CONTINUOUS
 62
             7
100
AcDbLine
 10
171.0
 20
15.61582311681798
 11
171.0
 21
16.78417688318189
  0
LINE
  5
515
100
AcDbEntity
  8
1
  6
CONTINUOUS
 62
             7
100
AcDbLine
 10
173.0
 20
15.65073324667441
 11
173.0
 21
16.74926675332534
  0
LINE
  5
514
100
AcDbEntity
  8
1
  6
CONTINUOUS
 62
             7
100
AcDbLine
 10
166.0861561236693
 20
25.26994834709029
 11
171.0
 21
25.18417688318186
  0
LINE
  5
513
100
AcDbEntity
  8
1
  6
CONTINUOUS
 62
             7
100
AcDbLine
 10
171.5
 20
24.02455064928211
 11
171.0
 21
24.01582311681796
  0
LINE
  5
512
100
AcDbEntity
  8
1
  6
CONTINUOUS
 62
             7
100
AcDbLine
 10
171.0
 20
24.01582311681796
 11
171.0
 21
25.18417688318186
  0
LINE
  5
511
100
AcDbEntity
  8
1
  6
CONTINUOUS
 62
             7
100
AcDbLine
 10
173.0
 20
24.0507332466745
 11
173.0
 21
25.14926675332538
  0
LINE
  5
510
100
AcDbEntity
  8
1
  6
CONTINUOUS
 62
             7
100
AcDbLine
 10
171.5
 20
32.4245506492822
 11
171.0
 21
32.41582311681799
  0
LINE
  5
50F
100
AcDbEntity
  8
1
  6
CONTINUOUS
 62
             7
100
AcDbLine
 10
172.5
 20
35.0
 11
171.0
 21
35.0
  0
LINE
  5
50E
100
AcDbEntity
  8
1
  6
CONTINUOUS
 62
             7
100
AcDbLine
 10
171.0
 20
32.41582311681799
 11
171.0
 21
35.0
  0
LINE
  5
50D
100
AcDbEntity
  8
1
  6
CONTINUOUS
 62
             7
100
AcDbLine
 10
173.0
 20
32.45073324667447
 11
173.0
 21
34.5
  0
LINE
  5
50C
100
AcDbEntity
  8
1
  6
CONTINUOUS
 62
             7
100
AcDbLine
 10
173.0
 20
32.45073324667447
 11
171.5
 21
32.4245506492822
  0
LINE
  5
50B
100
AcDbEntity
  8
1
  6
CONTINUOUS
 62
             7
100
AcDbLine
 10
171.0
 20
25.18417688318186
 11
171.5
 21
25.17544935071777
  0
LINE
  5
50A
100
AcDbEntity
  8
1
  6
CONTINUOUS
 62
             7
100
AcDbLine
 10
166.0861561236693
 20
32.3300516529095
 11
165.5
 21
32.3198202597128
  0
LINE
  5
509
100
AcDbEntity
  8
1
  6
CONTINUOUS
 62
             7
100
AcDbLine
 10
166.0861561236693
 20
25.26994834709029
 11
166.0861561236693
 21
32.3300516529095
  0
LINE
  5
508
100
AcDbEntity
  8
1
  6
CONTINUOUS
 62
             7
100
AcDbLine
 10
171.0
 20
32.41582311681799
 11
166.0861561236693
 21
32.3300516529095
  0
LINE
  5
507
100
AcDbEntity
  8
1
  6
CONTINUOUS
 62
             7
100
AcDbLine
 10
171.5
 20
25.17544935071777
 11
173.0
 21
25.14926675332538
  0
LINE
  5
506
100
AcDbEntity
  8
1
  6
CONTINUOUS
 62
             7
100
AcDbLine
 10
171.5
 20
16.77544935071779
 11
173.0
 21
16.74926675332534
  0
LINE
  5
505
100
AcDbEntity
  8
1
  6
CONTINUOUS
 62
             7
100
AcDbLine
 10
171.0
 20
24.01582311681796
 11
166.0861561236693
 21
23.93005165290947
  0
LINE
  5
504
100
AcDbEntity
  8
1
  6
CONTINUOUS
 62
             7
100
AcDbLine
 10
166.0861561236693
 20
16.86994834709026
 11
166.0861561236693
 21
23.93005165290947
  0
LINE
  5
503
100
AcDbEntity
  8
1
  6
CONTINUOUS
 62
             7
100
AcDbLine
 10
171.0
 20
16.78417688318189
 11
171.5
 21
16.77544935071779
  0
LINE
  5
502
100
AcDbEntity
  8
1
  6
CONTINUOUS
 62
             7
100
AcDbLine
 10
173.0
 20
24.0507332466745
 11
171.5
 21
24.02455064928211
  0
LINE
  5
501
100
AcDbEntity
  8
1
  6
CONTINUOUS
 62
             7
100
AcDbLine
 10
166.0861561236693
 20
23.93005165290947
 11
165.5
 21
23.91982025971277
  0
LINE
  5
500
100
AcDbEntity
  8
1
  6
CONTINUOUS
 62
             7
100
AcDbLine
 10
173.0
 20
15.65073324667441
 11
171.5
 21
15.62455064928207
  0
LINE
  5
4FF
100
AcDbEntity
  8
1
  6
CONTINUOUS
 62
             7
100
AcDbLine
 10
171.0
 20
8.38417688318185
 11
171.5
 21
8.37544935071776
  0
LINE
  5
4FE
100
AcDbEntity
  8
1
  6
CONTINUOUS
 62
             7
100
AcDbLine
 10
166.0861561236693
 20
15.53005165290949
 11
165.5
 21
15.51982025971279
  0
LINE
  5
4FD
100
AcDbEntity
  8
1
  6
CONTINUOUS
 62
             7
100
AcDbLine
 10
166.0861561236693
 20
8.46994834709028
 11
166.0861561236693
 21
15.53005165290949
  0
LINE
  5
4FC
100
AcDbEntity
  8
1
  6
CONTINUOUS
 62
             7
100
AcDbLine
 10
171.0
 20
15.61582311681798
 11
166.0861561236693
 21
15.53005165290949
  0
LINE
  5
4FB
100
AcDbEntity
  8
1
  6
CONTINUOUS
 62
             7
100
AcDbLine
 10
171.5
 20
8.37544935071776
 11
173.0
 21
8.34926675332537
  0
LINE
  5
4FA
100
AcDbEntity
  8
1
  6
CONTINUOUS
 62
             7
100
AcDbLine
 10
171.5
 20
-0.02455064928222
 11
173.0
 21
-0.05073324667461
  0
LINE
  5
4F9
100
AcDbEntity
  8
1
  6
CONTINUOUS
 62
             7
100
AcDbLine
 10
171.0
 20
7.21582311681794
 11
166.0861561236693
 21
7.13005165290957
  0
LINE
  5
4F8
100
AcDbEntity
  8
1
  6
CONTINUOUS
 62
             7
100
AcDbLine
 10
166.0861561236693
 20
0.06994834709025
 11
166.0861561236693
 21
7.13005165290957
  0
LINE
  5
4F7
100
AcDbEntity
  8
1
  6
CONTINUOUS
 62
             7
100
AcDbLine
 10
171.0
 20
-0.01582311681813
 11
171.5
 21
-0.02455064928222
  0
LINE
  5
4F6
100
AcDbEntity
  8
1
  6
CONTINUOUS
 62
             7
100
AcDbLine
 10
173.0
 20
7.25073324667437
 11
171.5
 21
7.22455064928209
  0
LINE
  5
4F5
100
AcDbEntity
  8
1
  6
CONTINUOUS
 62
             7
100
AcDbLine
 10
166.0861561236693
 20
7.13005165290957
 11
165.5
 21
7.11982025971275
  0
LINE
  5
4F4
100
AcDbEntity
  8
1
  6
CONTINUOUS
 62
             7
100
AcDbLine
 10
173.0
 20
-1.1492667533256
 11
171.5
 21
-1.17544935071794
  0
LINE
  5
4F3
100
AcDbEntity
  8
1
  6
CONTINUOUS
 62
             7
100
AcDbLine
 10
171.0
 20
-8.41582311681816
 11
171.5
 21
-8.42455064928225
  0
LINE
  5
4F2
100
AcDbEntity
  8
1
  6
CONTINUOUS
 62
             7
100
AcDbLine
 10
166.0861561236693
 20
-1.26994834709052
 11
165.5
 21
-1.28017974028722
  0
LINE
  5
4F1
100
AcDbEntity
  8
1
  6
CONTINUOUS
 62
             7
100
AcDbLine
 10
166.0861561236693
 20
-8.33005165290967
 11
166.0861561236693
 21
-1.26994834709052
  0
LINE
  5
4F0
100
AcDbEntity
  8
1
  6
CONTINUOUS
 62
             7
100
AcDbLine
 10
171.0
 20
-1.18417688318203
 11
166.0861561236693
 21
-1.26994834709052
  0
LINE
  5
4EF
100
AcDbEntity
  8
1
  6
CONTINUOUS
 62
             7
100
AcDbLine
 10
171.5
 20
-8.42455064928225
 11
173.0
 21
-8.45073324667459
  0
LINE
  5
4EE
100
AcDbEntity
  8
1
  6
CONTINUOUS
 62
             7
100
AcDbLine
 10
171.5
 20
-16.82455064928223
 11
173.0
 21
-16.85073324667457
  0
LINE
  5
4ED
100
AcDbEntity
  8
1
  6
CONTINUOUS
 62
             7
100
AcDbLine
 10
171.0
 20
-9.58417688318201
 11
166.0861561236693
 21
-9.6699483470905
  0
LINE
  5
4EC
100
AcDbEntity
  8
1
  6
CONTINUOUS
 62
             7
100
AcDbLine
 10
166.0861561236693
 20
-16.73005165290971
 11
166.0861561236693
 21
-9.6699483470905
  0
LINE
  5
4EB
100
AcDbEntity
  8
1
  6
CONTINUOUS
 62
             7
100
AcDbLine
 10
171.0
 20
-16.81582311681814
 11
171.5
 21
-16.82455064928223
  0
LINE
  5
4EA
100
AcDbEntity
  8
1
  6
CONTINUOUS
 62
             7
100
AcDbLine
 10
173.0
 20
-9.54926675332558
 11
171.5
 21
-9.57544935071792
  0
LINE
  5
4E9
100
AcDbEntity
  8
1
  6
CONTINUOUS
 62
             7
100
AcDbLine
 10
166.0861561236693
 20
-9.6699483470905
 11
165.5
 21
-9.6801797402872
  0
LINE
  5
4E8
100
AcDbEntity
  8
1
  6
CONTINUOUS
 62
             7
100
AcDbLine
 10
173.0
 20
-17.94926675332556
 11
171.5
 21
-17.9754493507179
  0
LINE
  5
4E7
100
AcDbEntity
  8
1
  6
CONTINUOUS
 62
             7
100
AcDbLine
 10
171.0
 20
-25.21582311681817
 11
171.5
 21
-25.22455064928226
  0
LINE
  5
4E6
100
AcDbEntity
  8
1
  6
CONTINUOUS
 62
             7
100
AcDbLine
 10
166.0861561236693
 20
-18.06994834709047
 11
165.5
 21
-18.08017974028718
  0
LINE
  5
4E5
100
AcDbEntity
  8
1
  6
CONTINUOUS
 62
             7
100
AcDbLine
 10
166.0861561236693
 20
-25.13005165290969
 11
166.0861561236693
 21
-18.06994834709047
  0
LINE
  5
4E4
100
AcDbEntity
  8
1
  6
CONTINUOUS
 62
             7
100
AcDbLine
 10
171.0
 20
-17.98417688318199
 11
166.0861561236693
 21
-18.06994834709047
  0
LINE
  5
4E3
100
AcDbEntity
  8
1
  6
CONTINUOUS
 62
             7
100
AcDbLine
 10
171.5
 20
-25.22455064928226
 11
173.0
 21
-25.2507332466746
  0
LINE
  5
4E2
100
AcDbEntity
  8
1
  6
CONTINUOUS
 62
             7
100
AcDbLine
 10
171.5
 20
-33.62455064928224
 11
173.0
 21
-33.65073324667458
  0
LINE
  5
4E1
100
AcDbEntity
  8
1
  6
CONTINUOUS
 62
             7
100
AcDbLine
 10
171.0
 20
-26.38417688318202
 11
166.0861561236693
 21
-26.46994834709045
  0
LINE
  5
4E0
100
AcDbEntity
  8
1
  6
CONTINUOUS
 62
             7
100
AcDbLine
 10
166.0861561236693
 20
-33.53005165290966
 11
166.0861561236693
 21
-26.46994834709045
  0
LINE
  5
4DF
100
AcDbEntity
  8
1
  6
CONTINUOUS
 62
             7
100
AcDbLine
 10
171.0
 20
-33.61582311681815
 11
171.5
 21
-33.62455064928224
  0
LINE
  5
4DE
100
AcDbEntity
  8
1
  6
CONTINUOUS
 62
             7
100
AcDbLine
 10
173.0
 20
-26.34926675332559
 11
171.5
 21
-26.37544935071787
  0
LINE
  5
4DD
100
AcDbEntity
  8
1
  6
CONTINUOUS
 62
             7
100
AcDbLine
 10
166.0861561236693
 20
-26.46994834709045
 11
165.5
 21
-26.48017974028721
  0
LINE
  5
4DC
100
AcDbEntity
  8
1
  6
CONTINUOUS
 62
             7
100
AcDbLine
 10
173.0
 20
-34.74926675332557
 11
171.5
 21
-34.77544935071791
  0
LINE
  5
4DB
100
AcDbEntity
  8
1
  6
CONTINUOUS
 62
             7
100
AcDbLine
 10
171.0
 20
-42.01582311681813
 11
171.5
 21
-42.02455064928228
  0
LINE
  5
4DA
100
AcDbEntity
  8
1
  6
CONTINUOUS
 62
             7
100
AcDbLine
 10
166.0861561236693
 20
-34.86994834709049
 11
165.5
 21
-34.88017974028719
  0
LINE
  5
4D9
100
AcDbEntity
  8
1
  6
CONTINUOUS
 62
             7
100
AcDbLine
 10
166.0861561236693
 20
-41.9300516529097
 11
166.0861561236693
 21
-34.86994834709049
  0
LINE
  5
4D8
100
AcDbEntity
  8
1
  6
CONTINUOUS
 62
             7
100
AcDbLine
 10
171.0
 20
-34.784176883182
 11
166.0861561236693
 21
-34.86994834709049
  0
LINE
  5
4D7
100
AcDbEntity
  8
1
  6
CONTINUOUS
 62
             7
100
AcDbLine
 10
171.5
 20
-42.02455064928228
 11
173.0
 21
-42.05073324667461
  0
LINE
  5
4D6
100
AcDbEntity
  8
1
  6
CONTINUOUS
 62
             7
100
AcDbLine
 10
171.5
 20
-50.42455064928225
 11
173.0
 21
-50.45073324667459
  0
LINE
  5
4D5
100
AcDbEntity
  8
1
  6
CONTINUOUS
 62
             7
100
AcDbLine
 10
171.0
 20
-43.18417688318203
 11
166.0861561236693
 21
-43.26994834709046
  0
LINE
  5
4D4
100
AcDbEntity
  8
1
  6
CONTINUOUS
 62
             7
100
AcDbLine
 10
166.0861561236693
 20
-50.33005165290967
 11
166.0861561236693
 21
-43.26994834709046
  0
LINE
  5
4D3
100
AcDbEntity
  8
1
  6
CONTINUOUS
 62
             7
100
AcDbLine
 10
161.5
 20
-54.50000000000006
 11
172.5
 21
-54.50000000000006
  0
LINE
  5
4D2
100
AcDbEntity
  8
1
  6
CONTINUOUS
 62
             7
100
AcDbLine
 10
172.5
 20
-54.50000000000006
 11
173.0
 21
-54.00000000000006
  0
LINE
  5
4D1
100
AcDbEntity
  8
1
  6
CONTINUOUS
 62
             7
100
AcDbLine
 10
173.0
 20
-54.00000000000006
 11
173.0
 21
-52.50000000000006
  0
LINE
  5
4D0
100
AcDbEntity
  8
1
  6
CONTINUOUS
 62
             7
100
AcDbLine
 10
173.0
 20
34.5
 11
173.0
 21
36.0
  0
LINE
  5
4CF
100
AcDbEntity
  8
1
  6
CONTINUOUS
 62
             7
100
AcDbLine
 10
173.0
 20
36.0
 11
172.5
 21
36.5
  0
LINE
  5
4CE
100
AcDbEntity
  8
1
  6
CONTINUOUS
 62
             7
100
AcDbLine
 10
172.5
 20
36.5
 11
161.5
 21
36.5
  0
LINE
  5
4CD
100
AcDbEntity
  8
1
  6
CONTINUOUS
 62
             7
100
AcDbLine
 10
171.0
 20
-50.41582311681816
 11
171.5
 21
-50.42455064928225
  0
LINE
  5
4CC
100
AcDbEntity
  8
1
  6
CONTINUOUS
 62
             7
100
AcDbLine
 10
171.0
 20
-53.00000000000006
 11
165.5
 21
-53.00000000000006
  0
LINE
  5
4CB
100
AcDbEntity
  8
1
  6
CONTINUOUS
 62
             7
100
AcDbLine
 10
173.0
 20
-43.14926675332555
 11
171.5
 21
-43.17544935071788
  0
LINE
  5
4CA
100
AcDbEntity
  8
1
  6
CONTINUOUS
 62
             7
100
AcDbLine
 10
171.0
 20
35.0
 11
165.5
 21
35.0
  0
LINE
  5
4C9
100
AcDbEntity
  8
1
  6
CONTINUOUS
 62
             7
100
AcDbLine
 10
166.0861561236693
 20
-43.26994834709046
 11
165.5
 21
-43.28017974028717
  0
LINE
  5
4C8
100
AcDbEntity
  8
1
  6
CONTINUOUS
 62
             7
100
AcDbLine
 10
149.5
 20
-44.00000000000006
 11
149.5
 21
26.0
  0
LINE
  5
4C7
100
AcDbEntity
  8
1
  6
CONTINUOUS
 62
             7
100
AcDbLine
 10
103.0
 20
-44.00000000000006
 11
149.5
 21
-44.00000000000006
  0
LINE
  5
4C6
100
AcDbEntity
  8
1
  6
CONTINUOUS
 62
             7
100
AcDbLine
 10
101.5
 20
26.0
 11
149.5
 21
26.0
  0
LINE
  5
4C5
100
AcDbEntity
  8
1
  6
CONTINUOUS
 62
             7
100
AcDbLine
 10
144.0
 20
-50.50000000000006
 11
131.5
 21
-50.50000000000006
  0
LINE
  5
4C4
100
AcDbEntity
  8
1
  6
CONTINUOUS
 62
             7
100
AcDbLine
 10
131.5
 20
-48.50000000000006
 11
144.0
 21
-48.50000000000006
  0
LINE
  5
4C3
100
AcDbEntity
  8
1
  6
CONTINUOUS
 62
             7
100
AcDbLine
 10
99.5
 20
-40.50000000000006
 11
87.0
 21
-40.50000000000006
  0
LINE
  5
4C2
100
AcDbEntity
  8
1
  6
CONTINUOUS
 62
             7
100
AcDbLine
 10
87.0
 20
-38.50000000000006
 11
99.5
 21
-38.50000000000006
  0
LINE
  5
4C1
100
AcDbEntity
  8
1
  6
CONTINUOUS
 62
             7
100
AcDbLine
 10
131.5
 20
-45.00000000000006
 11
144.0
 21
-45.00000000000006
  0
LINE
  5
4C0
100
AcDbEntity
  8
1
  6
CONTINUOUS
 62
             7
100
AcDbLine
 10
144.0
 20
-47.00000000000006
 11
131.5
 21
-47.00000000000006
  0
LINE
  5
4BF
100
AcDbEntity
  8
1
  6
CONTINUOUS
 62
             7
100
AcDbLine
 10
124.5
 20
-47.00000000000006
 11
112.0
 21
-47.00000000000006
  0
LINE
  5
4BE
100
AcDbEntity
  8
1
  6
CONTINUOUS
 62
             7
100
AcDbLine
 10
112.0
 20
-45.00000000000006
 11
124.5
 21
-45.00000000000006
  0
LINE
  5
4BD
100
AcDbEntity
  8
1
  6
CONTINUOUS
 62
             7
100
AcDbLine
 10
87.0
 20
-35.00000000000006
 11
99.5
 21
-35.00000000000006
  0
LINE
  5
4BC
100
AcDbEntity
  8
1
  6
CONTINUOUS
 62
             7
100
AcDbLine
 10
99.5
 20
-37.00000000000006
 11
87.0
 21
-37.00000000000006
  0
LINE
  5
4BB
100
AcDbEntity
  8
1
  6
CONTINUOUS
 62
             7
100
AcDbLine
 10
99.5
 20
-33.50000000000006
 11
87.0
 21
-33.50000000000006
  0
LINE
  5
4BA
100
AcDbEntity
  8
1
  6
CONTINUOUS
 62
             7
100
AcDbLine
 10
87.0
 20
-31.50000000000006
 11
99.5
 21
-31.50000000000006
  0
LINE
  5
4B9
100
AcDbEntity
  8
1
  6
CONTINUOUS
 62
             7
100
AcDbLine
 10
87.0
 20
-28.00000000000006
 11
99.5
 21
-28.00000000000006
  0
LINE
  5
4B8
100
AcDbEntity
  8
1
  6
CONTINUOUS
 62
             7
100
AcDbLine
 10
99.5
 20
-30.00000000000006
 11
87.0
 21
-30.00000000000006
  0
LINE
  5
4B7
100
AcDbEntity
  8
1
  6
CONTINUOUS
 62
             7
100
AcDbLine
 10
173.0
 20
34.5
 11
172.5
 21
35.0
  0
LINE
  5
4B6
100
AcDbEntity
  8
1
  6
CONTINUOUS
 62
             7
100
AcDbLine
 10
173.0
 20
-52.50000000000006
 11
172.5
 21
-53.00000000000006
  0
LINE
  5
4B5
100
AcDbEntity
  8
1
  6
CONTINUOUS
 62
             7
100
AcDbLine
 10
161.5
 20
-54.50000000000006
 11
163.0
 21
-53.00000000000006
  0
LINE
  5
4B4
100
AcDbEntity
  8
1
  6
CONTINUOUS
 62
             7
100
AcDbLine
 10
163.0
 20
35.0
 11
161.5
 21
36.5
  0
LINE
  5
4B3
100
AcDbEntity
  8
1
  6
CONTINUOUS
 62
             7
100
AcDbLine
 10
161.5
 20
-54.50000000000006
 11
74.5
 21
-54.50000000000006
  0
LINE
  5
4B2
100
AcDbEntity
  8
1
  6
CONTINUOUS
 62
             7
100
AcDbLine
 10
74.5
 20
36.5
 11
75.0
 21
36.5
  0
LINE
  5
4B1
100
AcDbEntity
  8
1
  6
CONTINUOUS
 62
             7
100
AcDbLine
 10
73.0
 20
-57.00000000000006
 11
73.0
 21
-54.80000000000007
  0
LINE
  5
4B0
100
AcDbEntity
  8
1
  6
CONTINUOUS
 62
             7
100
AcDbLine
 10
73.0
 20
-54.80000000000007
 11
73.0
 21
39.0
  0
LINE
  5
4AF
100
AcDbEntity
  8
1
  6
CONTINUOUS
 62
             7
100
AcDbLine
 10
62.69999999999993
 20
38.0
 11
63.0
 21
37.69999999999999
  0
LINE
  5
4AE
100
AcDbEntity
  8
1
  6
CONTINUOUS
 62
             7
100
AcDbLine
 10
62.69999999999993
 20
-56.00000000000006
 11
63.0
 21
-55.70000000000005
  0
LINE
  5
4AD
100
AcDbEntity
  8
1
  6
CONTINUOUS
 62
             7
100
AcDbLine
 10
62.69999999999993
 20
-57.00000000000006
 11
68.0
 21
-57.00000000000006
  0
LINE
  5
4AC
100
AcDbEntity
  8
1
  6
CONTINUOUS
 62
             7
100
AcDbLine
 10
62.69999999999993
 20
39.0
 11
68.0
 21
39.0
  0
LINE
  5
4AB
100
AcDbEntity
  8
1
  6
CONTINUOUS
 62
             7
100
AcDbLine
 10
68.0
 20
-57.00000000000006
 11
68.0
 21
39.0
  0
LINE
  5
4AA
100
AcDbEntity
  8
1
  6
CONTINUOUS
 62
             7
100
AcDbLine
 10
62.69999999999993
 20
-56.00000000000006
 11
62.69999999999993
 21
-57.00000000000006
  0
LINE
  5
4A9
100
AcDbEntity
  8
1
  6
CONTINUOUS
 62
             7
100
AcDbLine
 10
68.0
 20
-57.00000000000006
 11
73.0
 21
-57.00000000000006
  0
LINE
  5
4A8
100
AcDbEntity
  8
1
  6
CONTINUOUS
 62
             7
100
AcDbLine
 10
62.69999999999993
 20
38.0
 11
62.69999999999993
 21
39.0
  0
LINE
  5
4A7
100
AcDbEntity
  8
1
  6
CONTINUOUS
 62
             7
100
AcDbLine
 10
68.0
 20
39.0
 11
73.0
 21
39.0
  0
LINE
  5
4A6
100
AcDbEntity
  8
1
  6
CONTINUOUS
 62
             7
100
AcDbLine
 10
165.5
 20
32.3198202597128
 11
165.5
 21
25.280179740287
  0
LINE
  5
4A5
100
AcDbEntity
  8
1
  6
CONTINUOUS
 62
             7
100
AcDbLine
 10
165.5
 20
25.280179740287
 11
166.0861561236693
 21
25.26994834709029
  0
LINE
  5
4A4
100
AcDbEntity
  8
1
  6
CONTINUOUS
 62
             7
100
AcDbLine
 10
165.5
 20
23.91982025971277
 11
165.5
 21
16.88017974028708
  0
LINE
  5
4A3
100
AcDbEntity
  8
1
  6
CONTINUOUS
 62
             7
100
AcDbLine
 10
165.5
 20
16.88017974028708
 11
166.0861561236693
 21
16.86994834709026
  0
LINE
  5
4A2
100
AcDbEntity
  8
1
  6
CONTINUOUS
 62
             7
100
AcDbLine
 10
165.5
 20
15.51982025971279
 11
165.5
 21
8.4801797402871
  0
LINE
  5
4A1
100
AcDbEntity
  8
1
  6
CONTINUOUS
 62
             7
100
AcDbLine
 10
165.5
 20
8.4801797402871
 11
166.0861561236693
 21
8.46994834709028
  0
LINE
  5
4A0
100
AcDbEntity
  8
1
  6
CONTINUOUS
 62
             7
100
AcDbLine
 10
165.5
 20
7.11982025971275
 11
165.5
 21
0.08017974028695
  0
LINE
  5
49F
100
AcDbEntity
  8
1
  6
CONTINUOUS
 62
             7
100
AcDbLine
 10
165.5
 20
0.08017974028695
 11
166.0861561236693
 21
0.06994834709025
  0
LINE
  5
49E
100
AcDbEntity
  8
1
  6
CONTINUOUS
 62
             7
100
AcDbLine
 10
165.5
 20
-1.28017974028722
 11
165.5
 21
-8.31982025971297
  0
LINE
  5
49D
100
AcDbEntity
  8
1
  6
CONTINUOUS
 62
             7
100
AcDbLine
 10
165.5
 20
-8.31982025971297
 11
166.0861561236693
 21
-8.33005165290967
  0
LINE
  5
49C
100
AcDbEntity
  8
1
  6
CONTINUOUS
 62
             7
100
AcDbLine
 10
165.5
 20
-9.6801797402872
 11
165.5
 21
-16.71982025971295
  0
LINE
  5
49B
100
AcDbEntity
  8
1
  6
CONTINUOUS
 62
             7
100
AcDbLine
 10
165.5
 20
-16.71982025971295
 11
166.0861561236693
 21
-16.73005165290971
  0
LINE
  5
49A
100
AcDbEntity
  8
1
  6
CONTINUOUS
 62
             7
100
AcDbLine
 10
165.5
 20
-18.08017974028718
 11
165.5
 21
-25.11982025971298
  0
LINE
  5
499
100
AcDbEntity
  8
1
  6
CONTINUOUS
 62
             7
100
AcDbLine
 10
165.5
 20
-25.11982025971298
 11
166.0861561236693
 21
-25.13005165290969
  0
LINE
  5
498
100
AcDbEntity
  8
1
  6
CONTINUOUS
 62
             7
100
AcDbLine
 10
165.5
 20
-26.48017974028721
 11
165.5
 21
-33.51982025971296
  0
LINE
  5
497
100
AcDbEntity
  8
1
  6
CONTINUOUS
 62
             7
100
AcDbLine
 10
165.5
 20
-33.51982025971296
 11
166.0861561236693
 21
-33.53005165290966
  0
LINE
  5
496
100
AcDbEntity
  8
1
  6
CONTINUOUS
 62
             7
100
AcDbLine
 10
165.5
 20
-34.88017974028719
 11
165.5
 21
-41.91982025971294
  0
LINE
  5
495
100
AcDbEntity
  8
1
  6
CONTINUOUS
 62
             7
100
AcDbLine
 10
165.5
 20
-41.91982025971294
 11
166.0861561236693
 21
-41.9300516529097
  0
LINE
  5
494
100
AcDbEntity
  8
1
  6
CONTINUOUS
 62
             7
100
AcDbLine
 10
165.5
 20
-43.28017974028717
 11
165.5
 21
-50.31982025971297
  0
LINE
  5
493
100
AcDbEntity
  8
1
  6
CONTINUOUS
 62
             7
100
AcDbLine
 10
165.5
 20
-50.31982025971297
 11
166.0861561236693
 21
-50.33005165290967
  0
LINE
  5
492
100
AcDbEntity
  8
1
  6
CONTINUOUS
 62
             7
100
AcDbLine
 10
75.0
 20
36.0
 11
75.0
 21
36.5
  0
LINE
  5
491
100
AcDbEntity
  8
1
  6
CONTINUOUS
 62
             7
100
AcDbLine
 10
75.0
 20
36.5
 11
86.0
 21
36.5
  0
LINE
  5
490
100
AcDbEntity
  8
1
  6
CONTINUOUS
 62
             7
100
AcDbLine
 10
75.0
 20
36.0
 11
86.0
 21
36.0
  0
LINE
  5
48F
100
AcDbEntity
  8
1
  6
CONTINUOUS
 62
             7
100
AcDbLine
 10
86.0
 20
36.0
 11
86.0
 21
36.5
  0
LINE
  5
48E
100
AcDbEntity
  8
1
  6
CONTINUOUS
 62
             7
100
AcDbLine
 10
86.0
 20
36.5
 11
161.5
 21
36.5
  0
LINE
  5
48D
100
AcDbEntity
  8
1
  6
CONTINUOUS
 62
             7
100
AcDbLine
 10
159.5
 20
21.59999999999985
 11
159.5
 21
27.59999999999985
  0
LINE
  5
48C
100
AcDbEntity
  8
1
  6
CONTINUOUS
 62
             7
100
AcDbLine
 10
153.5
 20
21.59999999999985
 11
159.5
 21
21.59999999999985
  0
LINE
  5
48B
100
AcDbEntity
  8
1
  6
CONTINUOUS
 62
             7
100
AcDbLine
 10
153.5
 20
27.59999999999985
 11
153.5
 21
21.59999999999985
  0
LINE
  5
48A
100
AcDbEntity
  8
1
  6
CONTINUOUS
 62
             7
100
AcDbLine
 10
159.5
 20
27.59999999999985
 11
153.5
 21
27.59999999999985
  0
LINE
  5
489
100
AcDbEntity
  8
1
  6
CONTINUOUS
 62
             7
100
AcDbLine
 10
156.36097223398389
 20
23.98352941176466
 11
156.22194446796891
 21
25.15705882352938
  0
LINE
  5
488
100
AcDbEntity
  8
1
  6
CONTINUOUS
 62
             7
100
AcDbLine
 10
156.77805553203001
 20
25.15705882352938
 11
156.63902776601441
 21
23.98352941176466
  0
LINE
  5
487
100
AcDbEntity
  8
1
  6
CONTINUOUS
 62
             7
100
AcDbLine
 10
158.5256475521449
 20
22.84499999999986
 11
156.49999999999989
 21
26.3535244785437
  0
LINE
  5
486
100
AcDbEntity
  8
1
  6
CONTINUOUS
 62
             7
100
AcDbLine
 10
154.4743524478539
 20
22.84499999999986
 11
158.5256475521449
 21
22.84499999999986
  0
LINE
  5
485
100
AcDbEntity
  8
1
  6
CONTINUOUS
 62
             7
100
AcDbLine
 10
156.49999999999989
 20
26.3535244785437
 11
154.4743524478539
 21
22.84499999999986
  0
LINE
  5
484
100
AcDbEntity
  8
1
  6
CONTINUOUS
 62
             7
100
AcDbLine
 10
158.76813466520429
 20
22.91499999999996
 11
156.681865334794
 21
26.52852447854366
  0
LINE
  5
483
100
AcDbEntity
  8
1
  6
CONTINUOUS
 62
             7
100
AcDbLine
 10
154.41373066958889
 20
22.59999999999985
 11
158.58626933040961
 21
22.59999999999985
  0
LINE
  5
482
100
AcDbEntity
  8
1
  6
CONTINUOUS
 62
             7
100
AcDbLine
 10
156.31813466520509
 20
26.52852447854366
 11
154.23186533479401
 21
22.91499999999996
  0
LINE
  5
481
100
AcDbEntity
  8
1
  6
CONTINUOUS
 62
             7
100
AcDbLine
 10
124.5
 20
-50.50000000000006
 11
112.0
 21
-50.50000000000006
  0
LINE
  5
480
100
AcDbEntity
  8
1
  6
CONTINUOUS
 62
             7
100
AcDbLine
 10
112.0
 20
-48.50000000000006
 11
124.5
 21
-48.50000000000006
  0
LINE
  5
47F
100
AcDbEntity
  8
1
  6
CONTINUOUS
 62
             7
100
AcDbLine
 10
161.5
 20
36.5
 11
161.5
 21
-54.50000000000006
  0
LINE
  5
47E
100
AcDbEntity
  8
1
  6
CONTINUOUS
 62
             7
100
AcDbLine
 10
165.5
 20
-53.00000000000006
 11
163.0
 21
-53.00000000000006
  0
LINE
  5
47D
100
AcDbEntity
  8
1
  6
CONTINUOUS
 62
             7
100
AcDbLine
 10
165.5
 20
35.0
 11
163.0
 21
35.0
  0
LINE
  5
47C
100
AcDbEntity
  8
1
  6
CONTINUOUS
 62
             7
100
AcDbLine
 10
101.5
 20
26.0
 11
101.5
 21
-42.50000000000006
  0
LINE
  5
47B
100
AcDbEntity
  8
0
  6
CONTINUOUS
 62
             7
100
AcDbLine
 10
167.4861561236693
 20
-50.19999999999993
 11
167.4861561236693
 21
-47.68860009363283
  0
LINE
  5
47A
100
AcDbEntity
  8
0
  6
CONTINUOUS
 62
             7
100
AcDbLine
 10
166.4861561236693
 20
-48.5499999999999
 11
166.4861561236693
 21
-47.68860009363283
  0
LINE
  5
479
100
AcDbEntity
  8
0
  6
CONTINUOUS
 62
             7
100
AcDbLine
 10
166.4861561236693
 20
-45.911399906367
 11
166.4861561236693
 21
-45.0499999999999
  0
LINE
  5
478
100
AcDbEntity
  8
0
  6
CONTINUOUS
 62
             7
100
AcDbLine
 10
167.4861561236693
 20
-50.19999999999993
 11
167.0861561236693
 21
-50.19999999999993
  0
LINE
  5
477
100
AcDbEntity
  8
0
  6
CONTINUOUS
 62
             7
100
AcDbLine
 10
167.4861561236693
 20
-43.39999999999992
 11
167.0861561236693
 21
-43.39999999999992
  0
LINE
  5
476
100
AcDbEntity
  8
0
  6
CONTINUOUS
 62
             7
100
AcDbLine
 10
166.4861561236693
 20
-48.5499999999999
 11
166.0861561236693
 21
-50.19999999999993
  0
LINE
  5
475
100
AcDbEntity
  8
0
  6
CONTINUOUS
 62
             7
100
AcDbLine
 10
167.4861561236693
 20
-48.5499999999999
 11
167.0861561236693
 21
-50.19999999999993
  0
LINE
  5
474
100
AcDbEntity
  8
0
  6
CONTINUOUS
 62
             7
100
AcDbLine
 10
167.4861561236693
 20
-43.39999999999992
 11
167.4861561236693
 21
-45.911399906367
  0
LINE
  5
473
100
AcDbEntity
  8
0
  6
CONTINUOUS
 62
             7
100
AcDbLine
 10
166.0861561236693
 20
-47.39999999999992
 11
166.35638081198701
 21
-47.50133425811904
  0
LINE
  5
472
100
AcDbEntity
  8
0
  6
CONTINUOUS
 62
             7
100
AcDbLine
 10
166.0861561236693
 20
-46.19999999999993
 11
166.35638081198701
 21
-46.09866574188078
  0
LINE
  5
471
100
AcDbEntity
  8
0
  6
CONTINUOUS
 62
             7
100
AcDbLine
 10
167.0861561236693
 20
-47.39999999999992
 11
167.35638081198701
 21
-47.50133425811904
  0
LINE
  5
470
100
AcDbEntity
  8
0
  6
CONTINUOUS
 62
             7
100
AcDbLine
 10
167.0861561236693
 20
-46.19999999999993
 11
167.0861561236693
 21
-47.39999999999992
  0
LINE
  5
46F
100
AcDbEntity
  8
0
  6
CONTINUOUS
 62
             7
100
AcDbLine
 10
167.0861561236693
 20
-46.19999999999993
 11
167.35638081198701
 21
-46.09866574188078
  0
LINE
  5
46E
100
AcDbEntity
  8
0
  6
CONTINUOUS
 62
             7
100
AcDbLine
 10
166.0861561236693
 20
-43.39999999999992
 11
166.4861561236693
 21
-45.0499999999999
  0
LINE
  5
46D
100
AcDbEntity
  8
0
  6
CONTINUOUS
 62
             7
100
AcDbLine
 10
167.0861561236693
 20
-43.39999999999992
 11
167.4861561236693
 21
-45.0499999999999
  0
LINE
  5
46C
100
AcDbEntity
  8
0
  6
CONTINUOUS
 62
             7
100
AcDbLine
 10
167.0861561236693
 20
-50.19999999999993
 11
166.0861561236693
 21
-50.19999999999993
  0
LINE
  5
46B
100
AcDbEntity
  8
0
  6
CONTINUOUS
 62
             7
100
AcDbLine
 10
167.0861561236693
 20
-43.39999999999992
 11
166.0861561236693
 21
-43.39999999999992
  0
LINE
  5
46A
100
AcDbEntity
  8
0
  6
CONTINUOUS
 62
             7
100
AcDbLine
 10
168.22527626529379
 20
-49.5499999999999
 11
167.4861561236693
 21
-49.5499999999999
  0
LINE
  5
469
100
AcDbEntity
  8
0
  6
CONTINUOUS
 62
             7
100
AcDbLine
 10
167.4861561236693
 20
-44.0499999999999
 11
168.22527626529379
 21
-44.0499999999999
  0
LINE
  5
468
100
AcDbEntity
  8
0
  6
CONTINUOUS
 62
             7
100
AcDbLine
 10
167.4861561236693
 20
-45.911399906367
 11
167.4861561236693
 21
-47.68860009363283
  0
LINE
  5
467
100
AcDbEntity
  8
0
  6
CONTINUOUS
 62
             7
100
AcDbLine
 10
167.4861561236693
 20
-41.79999999999995
 11
167.4861561236693
 21
-39.28860009363285
  0
LINE
  5
466
100
AcDbEntity
  8
0
  6
CONTINUOUS
 62
             7
100
AcDbLine
 10
166.4861561236693
 20
-40.14999999999992
 11
166.4861561236693
 21
-39.28860009363285
  0
LINE
  5
465
100
AcDbEntity
  8
0
  6
CONTINUOUS
 62
             7
100
AcDbLine
 10
166.4861561236693
 20
-37.51139990636699
 11
166.4861561236693
 21
-36.64999999999992
  0
LINE
  5
464
100
AcDbEntity
  8
0
  6
CONTINUOUS
 62
             7
100
AcDbLine
 10
167.4861561236693
 20
-41.79999999999995
 11
167.0861561236693
 21
-41.79999999999995
  0
LINE
  5
463
100
AcDbEntity
  8
0
  6
CONTINUOUS
 62
             7
100
AcDbLine
 10
167.4861561236693
 20
-34.99999999999991
 11
167.0861561236693
 21
-34.99999999999991
  0
LINE
  5
462
100
AcDbEntity
  8
0
  6
CONTINUOUS
 62
             7
100
AcDbLine
 10
166.4861561236693
 20
-40.14999999999992
 11
166.0861561236693
 21
-41.79999999999995
  0
LINE
  5
461
100
AcDbEntity
  8
0
  6
CONTINUOUS
 62
             7
100
AcDbLine
 10
167.4861561236693
 20
-40.14999999999992
 11
167.0861561236693
 21
-41.79999999999995
  0
LINE
  5
460
100
AcDbEntity
  8
0
  6
CONTINUOUS
 62
             7
100
AcDbLine
 10
167.4861561236693
 20
-34.99999999999991
 11
167.4861561236693
 21
-37.51139990636699
  0
LINE
  5
45F
100
AcDbEntity
  8
0
  6
CONTINUOUS
 62
             7
100
AcDbLine
 10
166.0861561236693
 20
-38.99999999999991
 11
166.35638081198701
 21
-39.10133425811904
  0
LINE
  5
45E
100
AcDbEntity
  8
0
  6
CONTINUOUS
 62
             7
100
AcDbLine
 10
166.0861561236693
 20
-37.79999999999995
 11
166.35638081198701
 21
-37.6986657418808
  0
LINE
  5
45D
100
AcDbEntity
  8
0
  6
CONTINUOUS
 62
             7
100
AcDbLine
 10
167.0861561236693
 20
-38.99999999999991
 11
167.35638081198701
 21
-39.10133425811904
  0
LINE
  5
45C
100
AcDbEntity
  8
0
  6
CONTINUOUS
 62
             7
100
AcDbLine
 10
167.0861561236693
 20
-37.79999999999995
 11
167.0861561236693
 21
-38.99999999999991
  0
LINE
  5
45B
100
AcDbEntity
  8
0
  6
CONTINUOUS
 62
             7
100
AcDbLine
 10
167.0861561236693
 20
-37.79999999999995
 11
167.35638081198701
 21
-37.6986657418808
  0
LINE
  5
45A
100
AcDbEntity
  8
0
  6
CONTINUOUS
 62
             7
100
AcDbLine
 10
166.0861561236693
 20
-34.99999999999991
 11
166.4861561236693
 21
-36.64999999999992
  0
LINE
  5
459
100
AcDbEntity
  8
0
  6
CONTINUOUS
 62
             7
100
AcDbLine
 10
167.0861561236693
 20
-34.99999999999991
 11
167.4861561236693
 21
-36.64999999999992
  0
LINE
  5
458
100
AcDbEntity
  8
0
  6
CONTINUOUS
 62
             7
100
AcDbLine
 10
167.0861561236693
 20
-41.79999999999995
 11
166.0861561236693
 21
-41.79999999999995
  0
LINE
  5
457
100
AcDbEntity
  8
0
  6
CONTINUOUS
 62
             7
100
AcDbLine
 10
167.0861561236693
 20
-34.99999999999991
 11
166.0861561236693
 21
-34.99999999999991
  0
LINE
  5
456
100
AcDbEntity
  8
0
  6
CONTINUOUS
 62
             7
100
AcDbLine
 10
168.22527626529379
 20
-41.14999999999992
 11
167.4861561236693
 21
-41.14999999999992
  0
LINE
  5
455
100
AcDbEntity
  8
0
  6
CONTINUOUS
 62
             7
100
AcDbLine
 10
167.4861561236693
 20
-35.64999999999992
 11
168.22527626529379
 21
-35.64999999999992
  0
LINE
  5
454
100
AcDbEntity
  8
0
  6
CONTINUOUS
 62
             7
100
AcDbLine
 10
167.4861561236693
 20
-37.51139990636699
 11
167.4861561236693
 21
-39.28860009363285
  0
LINE
  5
453
100
AcDbEntity
  8
0
  6
CONTINUOUS
 62
             7
100
AcDbLine
 10
167.4861561236693
 20
-33.39999999999998
 11
167.4861561236693
 21
-30.88860009363287
  0
LINE
  5
452
100
AcDbEntity
  8
0
  6
CONTINUOUS
 62
             7
100
AcDbLine
 10
166.4861561236693
 20
-31.74999999999994
 11
166.4861561236693
 21
-30.88860009363287
  0
LINE
  5
451
100
AcDbEntity
  8
0
  6
CONTINUOUS
 62
             7
100
AcDbLine
 10
166.4861561236693
 20
-29.11139990636701
 11
166.4861561236693
 21
-28.24999999999994
  0
LINE
  5
450
100
AcDbEntity
  8
0
  6
CONTINUOUS
 62
             7
100
AcDbLine
 10
167.4861561236693
 20
-33.39999999999998
 11
167.0861561236693
 21
-33.39999999999998
  0
LINE
  5
44F
100
AcDbEntity
  8
0
  6
CONTINUOUS
 62
             7
100
AcDbLine
 10
167.4861561236693
 20
-26.59999999999997
 11
167.0861561236693
 21
-26.59999999999997
  0
LINE
  5
44E
100
AcDbEntity
  8
0
  6
CONTINUOUS
 62
             7
100
AcDbLine
 10
166.4861561236693
 20
-31.74999999999994
 11
166.0861561236693
 21
-33.39999999999998
  0
LINE
  5
44D
100
AcDbEntity
  8
0
  6
CONTINUOUS
 62
             7
100
AcDbLine
 10
167.4861561236693
 20
-31.74999999999994
 11
167.0861561236693
 21
-33.39999999999998
  0
LINE
  5
44C
100
AcDbEntity
  8
0
  6
CONTINUOUS
 62
             7
100
AcDbLine
 10
167.4861561236693
 20
-26.59999999999997
 11
167.4861561236693
 21
-29.11139990636701
  0
LINE
  5
44B
100
AcDbEntity
  8
0
  6
CONTINUOUS
 62
             7
100
AcDbLine
 10
166.0861561236693
 20
-30.59999999999997
 11
166.35638081198701
 21
-30.70133425811906
  0
LINE
  5
44A
100
AcDbEntity
  8
0
  6
CONTINUOUS
 62
             7
100
AcDbLine
 10
166.0861561236693
 20
-29.39999999999998
 11
166.35638081198701
 21
-29.29866574188082
  0
LINE
  5
449
100
AcDbEntity
  8
0
  6
CONTINUOUS
 62
             7
100
AcDbLine
 10
167.0861561236693
 20
-30.59999999999997
 11
167.35638081198701
 21
-30.70133425811906
  0
LINE
  5
448
100
AcDbEntity
  8
0
  6
CONTINUOUS
 62
             7
100
AcDbLine
 10
167.0861561236693
 20
-29.39999999999998
 11
167.0861561236693
 21
-30.59999999999997
  0
LINE
  5
447
100
AcDbEntity
  8
0
  6
CONTINUOUS
 62
             7
100
AcDbLine
 10
167.0861561236693
 20
-29.39999999999998
 11
167.35638081198701
 21
-29.29866574188082
  0
LINE
  5
446
100
AcDbEntity
  8
0
  6
CONTINUOUS
 62
             7
100
AcDbLine
 10
166.0861561236693
 20
-26.59999999999997
 11
166.4861561236693
 21
-28.24999999999994
  0
LINE
  5
445
100
AcDbEntity
  8
0
  6
CONTINUOUS
 62
             7
100
AcDbLine
 10
167.0861561236693
 20
-26.59999999999997
 11
167.4861561236693
 21
-28.24999999999994
  0
LINE
  5
444
100
AcDbEntity
  8
0
  6
CONTINUOUS
 62
             7
100
AcDbLine
 10
167.0861561236693
 20
-33.39999999999998
 11
166.0861561236693
 21
-33.39999999999998
  0
LINE
  5
443
100
AcDbEntity
  8
0
  6
CONTINUOUS
 62
             7
100
AcDbLine
 10
167.0861561236693
 20
-26.59999999999997
 11
166.0861561236693
 21
-26.59999999999997
  0
LINE
  5
442
100
AcDbEntity
  8
0
  6
CONTINUOUS
 62
             7
100
AcDbLine
 10
168.22527626529379
 20
-32.74999999999994
 11
167.4861561236693
 21
-32.74999999999994
  0
LINE
  5
441
100
AcDbEntity
  8
0
  6
CONTINUOUS
 62
             7
100
AcDbLine
 10
167.4861561236693
 20
-27.24999999999994
 11
168.22527626529379
 21
-27.24999999999994
  0
LINE
  5
440
100
AcDbEntity
  8
0
  6
CONTINUOUS
 62
             7
100
AcDbLine
 10
167.4861561236693
 20
-29.11139990636701
 11
167.4861561236693
 21
-30.88860009363287
  0
LINE
  5
43F
100
AcDbEntity
  8
0
  6
CONTINUOUS
 62
             7
100
AcDbLine
 10
167.4861561236693
 20
-24.99999999999997
 11
167.4861561236693
 21
-22.48860009363293
  0
LINE
  5
43E
100
AcDbEntity
  8
0
  6
CONTINUOUS
 62
             7
100
AcDbLine
 10
166.4861561236693
 20
-23.34999999999999
 11
166.4861561236693
 21
-22.48860009363293
  0
LINE
  5
43D
100
AcDbEntity
  8
0
  6
CONTINUOUS
 62
             7
100
AcDbLine
 10
166.4861561236693
 20
-20.71139990636703
 11
166.4861561236693
 21
-19.84999999999999
  0
LINE
  5
43C
100
AcDbEntity
  8
0
  6
CONTINUOUS
 62
             7
100
AcDbLine
 10
167.4861561236693
 20
-24.99999999999997
 11
167.0861561236693
 21
-24.99999999999997
  0
LINE
  5
43B
100
AcDbEntity
  8
0
  6
CONTINUOUS
 62
             7
100
AcDbLine
 10
167.4861561236693
 20
-18.19999999999996
 11
167.0861561236693
 21
-18.19999999999996
  0
LINE
  5
43A
100
AcDbEntity
  8
0
  6
CONTINUOUS
 62
             7
100
AcDbLine
 10
166.4861561236693
 20
-23.34999999999999
 11
166.0861561236693
 21
-24.99999999999997
  0
LINE
  5
439
100
AcDbEntity
  8
0
  6
CONTINUOUS
 62
             7
100
AcDbLine
 10
167.4861561236693
 20
-23.34999999999999
 11
167.0861561236693
 21
-24.99999999999997
  0
LINE
  5
438
100
AcDbEntity
  8
0
  6
CONTINUOUS
 62
             7
100
AcDbLine
 10
167.4861561236693
 20
-18.19999999999996
 11
167.4861561236693
 21
-20.71139990636703
  0
LINE
  5
437
100
AcDbEntity
  8
0
  6
CONTINUOUS
 62
             7
100
AcDbLine
 10
166.0861561236693
 20
-22.19999999999996
 11
166.35638081198701
 21
-22.30133425811908
  0
LINE
  5
436
100
AcDbEntity
  8
0
  6
CONTINUOUS
 62
             7
100
AcDbLine
 10
166.0861561236693
 20
-20.99999999999997
 11
166.35638081198701
 21
-20.89866574188082
  0
LINE
  5
435
100
AcDbEntity
  8
0
  6
CONTINUOUS
 62
             7
100
AcDbLine
 10
167.0861561236693
 20
-22.19999999999996
 11
167.35638081198701
 21
-22.30133425811908
  0
LINE
  5
434
100
AcDbEntity
  8
0
  6
CONTINUOUS
 62
             7
100
AcDbLine
 10
167.0861561236693
 20
-20.99999999999997
 11
167.0861561236693
 21
-22.19999999999996
  0
LINE
  5
433
100
AcDbEntity
  8
0
  6
CONTINUOUS
 62
             7
100
AcDbLine
 10
167.0861561236693
 20
-20.99999999999997
 11
167.35638081198701
 21
-20.89866574188082
  0
LINE
  5
432
100
AcDbEntity
  8
0
  6
CONTINUOUS
 62
             7
100
AcDbLine
 10
166.0861561236693
 20
-18.19999999999996
 11
166.4861561236693
 21
-19.84999999999999
  0
LINE
  5
431
100
AcDbEntity
  8
0
  6
CONTINUOUS
 62
             7
100
AcDbLine
 10
167.0861561236693
 20
-18.19999999999996
 11
167.4861561236693
 21
-19.84999999999999
  0
LINE
  5
430
100
AcDbEntity
  8
0
  6
CONTINUOUS
 62
             7
100
AcDbLine
 10
167.0861561236693
 20
-24.99999999999997
 11
166.0861561236693
 21
-24.99999999999997
  0
LINE
  5
42F
100
AcDbEntity
  8
0
  6
CONTINUOUS
 62
             7
100
AcDbLine
 10
167.0861561236693
 20
-18.19999999999996
 11
166.0861561236693
 21
-18.19999999999996
  0
LINE
  5
42E
100
AcDbEntity
  8
0
  6
CONTINUOUS
 62
             7
100
AcDbLine
 10
168.22527626529379
 20
-24.34999999999999
 11
167.4861561236693
 21
-24.34999999999999
  0
LINE
  5
42D
100
AcDbEntity
  8
0
  6
CONTINUOUS
 62
             7
100
AcDbLine
 10
167.4861561236693
 20
-18.84999999999999
 11
168.22527626529379
 21
-18.84999999999999
  0
LINE
  5
42C
100
AcDbEntity
  8
0
  6
CONTINUOUS
 62
             7
100
AcDbLine
 10
167.4861561236693
 20
-20.71139990636703
 11
167.4861561236693
 21
-22.48860009363293
  0
LINE
  5
42B
100
AcDbEntity
  8
0
  6
CONTINUOUS
 62
             7
100
AcDbLine
 10
167.4861561236693
 20
-16.59999999999999
 11
167.4861561236693
 21
-14.08860009363295
  0
LINE
  5
42A
100
AcDbEntity
  8
0
  6
CONTINUOUS
 62
             7
100
AcDbLine
 10
166.4861561236693
 20
-14.95000000000002
 11
166.4861561236693
 21
-14.08860009363295
  0
LINE
  5
429
100
AcDbEntity
  8
0
  6
CONTINUOUS
 62
             7
100
AcDbLine
 10
166.4861561236693
 20
-12.31139990636709
 11
166.4861561236693
 21
-11.45000000000002
  0
LINE
  5
428
100
AcDbEntity
  8
0
  6
CONTINUOUS
 62
             7
100
AcDbLine
 10
167.4861561236693
 20
-16.59999999999999
 11
167.0861561236693
 21
-16.59999999999999
  0
LINE
  5
427
100
AcDbEntity
  8
0
  6
CONTINUOUS
 62
             7
100
AcDbLine
 10
167.4861561236693
 20
-9.79999999999998
 11
167.0861561236693
 21
-9.79999999999998
  0
LINE
  5
426
100
AcDbEntity
  8
0
  6
CONTINUOUS
 62
             7
100
AcDbLine
 10
166.4861561236693
 20
-14.95000000000002
 11
166.0861561236693
 21
-16.59999999999999
  0
LINE
  5
425
100
AcDbEntity
  8
0
  6
CONTINUOUS
 62
             7
100
AcDbLine
 10
167.4861561236693
 20
-14.95000000000002
 11
167.0861561236693
 21
-16.59999999999999
  0
LINE
  5
424
100
AcDbEntity
  8
0
  6
CONTINUOUS
 62
             7
100
AcDbLine
 10
167.4861561236693
 20
-9.79999999999998
 11
167.4861561236693
 21
-12.31139990636709
  0
LINE
  5
423
100
AcDbEntity
  8
0
  6
CONTINUOUS
 62
             7
100
AcDbLine
 10
166.0861561236693
 20
-13.79999999999998
 11
166.35638081198701
 21
-13.90133425811914
  0
LINE
  5
422
100
AcDbEntity
  8
0
  6
CONTINUOUS
 62
             7
100
AcDbLine
 10
166.0861561236693
 20
-12.59999999999999
 11
166.35638081198701
 21
-12.49866574188084
  0
LINE
  5
421
100
AcDbEntity
  8
0
  6
CONTINUOUS
 62
             7
100
AcDbLine
 10
167.0861561236693
 20
-13.79999999999998
 11
167.35638081198701
 21
-13.90133425811914
  0
LINE
  5
420
100
AcDbEntity
  8
0
  6
CONTINUOUS
 62
             7
100
AcDbLine
 10
167.0861561236693
 20
-12.59999999999999
 11
167.0861561236693
 21
-13.79999999999998
  0
LINE
  5
41F
100
AcDbEntity
  8
0
  6
CONTINUOUS
 62
             7
100
AcDbLine
 10
167.0861561236693
 20
-12.59999999999999
 11
167.35638081198701
 21
-12.49866574188084
  0
LINE
  5
41E
100
AcDbEntity
  8
0
  6
CONTINUOUS
 62
             7
100
AcDbLine
 10
166.0861561236693
 20
-9.79999999999998
 11
166.4861561236693
 21
-11.45000000000002
  0
LINE
  5
41D
100
AcDbEntity
  8
0
  6
CONTINUOUS
 62
             7
100
AcDbLine
 10
167.0861561236693
 20
-9.79999999999998
 11
167.4861561236693
 21
-11.45000000000002
  0
LINE
  5
41C
100
AcDbEntity
  8
0
  6
CONTINUOUS
 62
             7
100
AcDbLine
 10
167.0861561236693
 20
-16.59999999999999
 11
166.0861561236693
 21
-16.59999999999999
  0
LINE
  5
41B
100
AcDbEntity
  8
0
  6
CONTINUOUS
 62
             7
100
AcDbLine
 10
167.0861561236693
 20
-9.79999999999998
 11
166.0861561236693
 21
-9.79999999999998
  0
LINE
  5
41A
100
AcDbEntity
  8
0
  6
CONTINUOUS
 62
             7
100
AcDbLine
 10
168.22527626529379
 20
-15.95000000000002
 11
167.4861561236693
 21
-15.95000000000002
  0
LINE
  5
419
100
AcDbEntity
  8
0
  6
CONTINUOUS
 62
             7
100
AcDbLine
 10
167.4861561236693
 20
-10.45000000000002
 11
168.22527626529379
 21
-10.45000000000002
  0
LINE
  5
418
100
AcDbEntity
  8
0
  6
CONTINUOUS
 62
             7
100
AcDbLine
 10
167.4861561236693
 20
-12.31139990636709
 11
167.4861561236693
 21
-14.08860009363295
  0
LINE
  5
417
100
AcDbEntity
  8
0
  6
CONTINUOUS
 62
             7
100
AcDbLine
 10
167.4861561236693
 20
-8.20000000000002
 11
167.4861561236693
 21
-5.68860009363297
  0
LINE
  5
416
100
AcDbEntity
  8
0
  6
CONTINUOUS
 62
             7
100
AcDbLine
 10
166.4861561236693
 20
-6.55000000000004
 11
166.4861561236693
 21
-5.68860009363297
  0
LINE
  5
415
100
AcDbEntity
  8
0
  6
CONTINUOUS
 62
             7
100
AcDbLine
 10
166.4861561236693
 20
-3.91139990636711
 11
166.4861561236693
 21
-3.05000000000004
  0
LINE
  5
414
100
AcDbEntity
  8
0
  6
CONTINUOUS
 62
             7
100
AcDbLine
 10
167.4861561236693
 20
-8.20000000000002
 11
167.0861561236693
 21
-8.20000000000002
  0
LINE
  5
413
100
AcDbEntity
  8
0
  6
CONTINUOUS
 62
             7
100
AcDbLine
 10
167.4861561236693
 20
-1.40000000000001
 11
167.0861561236693
 21
-1.40000000000001
  0
LINE
  5
412
100
AcDbEntity
  8
0
  6
CONTINUOUS
 62
             7
100
AcDbLine
 10
166.4861561236693
 20
-6.55000000000004
 11
166.0861561236693
 21
-8.20000000000002
  0
LINE
  5
411
100
AcDbEntity
  8
0
  6
CONTINUOUS
 62
             7
100
AcDbLine
 10
167.4861561236693
 20
-6.55000000000004
 11
167.0861561236693
 21
-8.20000000000002
  0
LINE
  5
410
100
AcDbEntity
  8
0
  6
CONTINUOUS
 62
             7
100
AcDbLine
 10
167.4861561236693
 20
-1.40000000000001
 11
167.4861561236693
 21
-3.91139990636711
  0
LINE
  5
40F
100
AcDbEntity
  8
0
  6
CONTINUOUS
 62
             7
100
AcDbLine
 10
166.0861561236693
 20
-5.40000000000001
 11
166.35638081198701
 21
-5.50133425811916
  0
LINE
  5
40E
100
AcDbEntity
  8
0
  6
CONTINUOUS
 62
             7
100
AcDbLine
 10
166.0861561236693
 20
-4.20000000000002
 11
166.35638081198701
 21
-4.09866574188086
  0
LINE
  5
40D
100
AcDbEntity
  8
0
  6
CONTINUOUS
 62
             7
100
AcDbLine
 10
167.0861561236693
 20
-5.40000000000001
 11
167.35638081198701
 21
-5.50133425811916
  0
LINE
  5
40C
100
AcDbEntity
  8
0
  6
CONTINUOUS
 62
             7
100
AcDbLine
 10
167.0861561236693
 20
-4.20000000000002
 11
167.0861561236693
 21
-5.40000000000001
  0
LINE
  5
40B
100
AcDbEntity
  8
0
  6
CONTINUOUS
 62
             7
100
AcDbLine
 10
167.0861561236693
 20
-4.20000000000002
 11
167.35638081198701
 21
-4.09866574188086
  0
LINE
  5
40A
100
AcDbEntity
  8
0
  6
CONTINUOUS
 62
             7
100
AcDbLine
 10
166.0861561236693
 20
-1.40000000000001
 11
166.4861561236693
 21
-3.05000000000004
  0
LINE
  5
409
100
AcDbEntity
  8
0
  6
CONTINUOUS
 62
             7
100
AcDbLine
 10
167.0861561236693
 20
-1.40000000000001
 11
167.4861561236693
 21
-3.05000000000004
  0
LINE
  5
408
100
AcDbEntity
  8
0
  6
CONTINUOUS
 62
             7
100
AcDbLine
 10
167.0861561236693
 20
-8.20000000000002
 11
166.0861561236693
 21
-8.20000000000002
  0
LINE
  5
407
100
AcDbEntity
  8
0
  6
CONTINUOUS
 62
             7
100
AcDbLine
 10
167.0861561236693
 20
-1.40000000000001
 11
166.0861561236693
 21
-1.40000000000001
  0
LINE
  5
406
100
AcDbEntity
  8
0
  6
CONTINUOUS
 62
             7
100
AcDbLine
 10
168.22527626529379
 20
-7.55000000000004
 11
167.4861561236693
 21
-7.55000000000004
  0
LINE
  5
405
100
AcDbEntity
  8
0
  6
CONTINUOUS
 62
             7
100
AcDbLine
 10
167.4861561236693
 20
-2.05000000000004
 11
168.22527626529379
 21
-2.05000000000004
  0
LINE
  5
404
100
AcDbEntity
  8
0
  6
CONTINUOUS
 62
             7
100
AcDbLine
 10
167.4861561236693
 20
-3.91139990636711
 11
167.4861561236693
 21
-5.68860009363297
  0
LINE
  5
403
100
AcDbEntity
  8
0
  6
CONTINUOUS
 62
             7
100
AcDbLine
 10
167.4861561236693
 20
0.19999999999996
 11
167.4861561236693
 21
2.71139990636703
  0
LINE
  5
402
100
AcDbEntity
  8
0
  6
CONTINUOUS
 62
             7
100
AcDbLine
 10
166.4861561236693
 20
1.84999999999997
 11
166.4861561236693
 21
2.71139990636703
  0
LINE
  5
401
100
AcDbEntity
  8
0
  6
CONTINUOUS
 62
             7
100
AcDbLine
 10
166.4861561236693
 20
4.48860009363287
 11
166.4861561236693
 21
5.34999999999994
  0
LINE
  5
400
100
AcDbEntity
  8
0
  6
CONTINUOUS
 62
             7
100
AcDbLine
 10
167.4861561236693
 20
0.19999999999996
 11
167.0861561236693
 21
0.19999999999996
  0
LINE
  5
3FF
100
AcDbEntity
  8
0
  6
CONTINUOUS
 62
             7
100
AcDbLine
 10
167.4861561236693
 20
6.99999999999997
 11
167.0861561236693
 21
6.99999999999997
  0
LINE
  5
3FE
100
AcDbEntity
  8
0
  6
CONTINUOUS
 62
             7
100
AcDbLine
 10
166.4861561236693
 20
1.84999999999997
 11
166.0861561236693
 21
0.19999999999996
  0
LINE
  5
3FD
100
AcDbEntity
  8
0
  6
CONTINUOUS
 62
             7
100
AcDbLine
 10
167.4861561236693
 20
1.84999999999997
 11
167.0861561236693
 21
0.19999999999996
  0
LINE
  5
3FC
100
AcDbEntity
  8
0
  6
CONTINUOUS
 62
             7
100
AcDbLine
 10
167.4861561236693
 20
6.99999999999997
 11
167.4861561236693
 21
4.48860009363287
  0
LINE
  5
3FB
100
AcDbEntity
  8
0
  6
CONTINUOUS
 62
             7
100
AcDbLine
 10
166.0861561236693
 20
2.99999999999994
 11
166.35638081198701
 21
2.89866574188082
  0
LINE
  5
3FA
100
AcDbEntity
  8
0
  6
CONTINUOUS
 62
             7
100
AcDbLine
 10
166.0861561236693
 20
4.19999999999996
 11
166.35638081198701
 21
4.30133425811911
  0
LINE
  5
3F9
100
AcDbEntity
  8
0
  6
CONTINUOUS
 62
             7
100
AcDbLine
 10
167.0861561236693
 20
2.99999999999994
 11
167.35638081198701
 21
2.89866574188082
  0
LINE
  5
3F8
100
AcDbEntity
  8
0
  6
CONTINUOUS
 62
             7
100
AcDbLine
 10
167.0861561236693
 20
4.19999999999996
 11
167.0861561236693
 21
2.99999999999994
  0
LINE
  5
3F7
100
AcDbEntity
  8
0
  6
CONTINUOUS
 62
             7
100
AcDbLine
 10
167.0861561236693
 20
4.19999999999996
 11
167.35638081198701
 21
4.30133425811911
  0
LINE
  5
3F6
100
AcDbEntity
  8
0
  6
CONTINUOUS
 62
             7
100
AcDbLine
 10
166.0861561236693
 20
6.99999999999997
 11
166.4861561236693
 21
5.34999999999994
  0
LINE
  5
3F5
100
AcDbEntity
  8
0
  6
CONTINUOUS
 62
             7
100
AcDbLine
 10
167.0861561236693
 20
6.99999999999997
 11
167.4861561236693
 21
5.34999999999994
  0
LINE
  5
3F4
100
AcDbEntity
  8
0
  6
CONTINUOUS
 62
             7
100
AcDbLine
 10
167.0861561236693
 20
0.19999999999996
 11
166.0861561236693
 21
0.19999999999996
  0
LINE
  5
3F3
100
AcDbEntity
  8
0
  6
CONTINUOUS
 62
             7
100
AcDbLine
 10
167.0861561236693
 20
6.99999999999997
 11
166.0861561236693
 21
6.99999999999997
  0
LINE
  5
3F2
100
AcDbEntity
  8
0
  6
CONTINUOUS
 62
             7
100
AcDbLine
 10
168.22527626529379
 20
0.84999999999994
 11
167.4861561236693
 21
0.84999999999994
  0
LINE
  5
3F1
100
AcDbEntity
  8
0
  6
CONTINUOUS
 62
             7
100
AcDbLine
 10
167.4861561236693
 20
6.34999999999994
 11
168.22527626529379
 21
6.34999999999994
  0
LINE
  5
3F0
100
AcDbEntity
  8
0
  6
CONTINUOUS
 62
             7
100
AcDbLine
 10
167.4861561236693
 20
4.48860009363287
 11
167.4861561236693
 21
2.71139990636703
  0
LINE
  5
3EF
100
AcDbEntity
  8
0
  6
CONTINUOUS
 62
             7
100
AcDbLine
 10
167.4861561236693
 20
8.59999999999994
 11
167.4861561236693
 21
11.11139990636701
  0
LINE
  5
3EE
100
AcDbEntity
  8
0
  6
CONTINUOUS
 62
             7
100
AcDbLine
 10
166.4861561236693
 20
10.24999999999991
 11
166.4861561236693
 21
11.11139990636701
  0
LINE
  5
3ED
100
AcDbEntity
  8
0
  6
CONTINUOUS
 62
             7
100
AcDbLine
 10
166.4861561236693
 20
12.88860009363285
 11
166.4861561236693
 21
13.74999999999991
  0
LINE
  5
3EC
100
AcDbEntity
  8
0
  6
CONTINUOUS
 62
             7
100
AcDbLine
 10
167.4861561236693
 20
8.59999999999994
 11
167.0861561236693
 21
8.59999999999994
  0
LINE
  5
3EB
100
AcDbEntity
  8
0
  6
CONTINUOUS
 62
             7
100
AcDbLine
 10
167.4861561236693
 20
15.39999999999995
 11
167.0861561236693
 21
15.39999999999995
  0
LINE
  5
3EA
100
AcDbEntity
  8
0
  6
CONTINUOUS
 62
             7
100
AcDbLine
 10
166.4861561236693
 20
10.24999999999991
 11
166.0861561236693
 21
8.59999999999994
  0
LINE
  5
3E9
100
AcDbEntity
  8
0
  6
CONTINUOUS
 62
             7
100
AcDbLine
 10
167.4861561236693
 20
10.24999999999991
 11
167.0861561236693
 21
8.59999999999994
  0
LINE
  5
3E8
100
AcDbEntity
  8
0
  6
CONTINUOUS
 62
             7
100
AcDbLine
 10
167.4861561236693
 20
15.39999999999995
 11
167.4861561236693
 21
12.88860009363285
  0
LINE
  5
3E7
100
AcDbEntity
  8
0
  6
CONTINUOUS
 62
             7
100
AcDbLine
 10
166.0861561236693
 20
11.39999999999995
 11
166.35638081198701
 21
11.29866574188082
  0
LINE
  5
3E6
100
AcDbEntity
  8
0
  6
CONTINUOUS
 62
             7
100
AcDbLine
 10
166.0861561236693
 20
12.59999999999994
 11
166.35638081198701
 21
12.70133425811909
  0
LINE
  5
3E5
100
AcDbEntity
  8
0
  6
CONTINUOUS
 62
             7
100
AcDbLine
 10
167.0861561236693
 20
11.39999999999995
 11
167.35638081198701
 21
11.29866574188082
  0
LINE
  5
3E4
100
AcDbEntity
  8
0
  6
CONTINUOUS
 62
             7
100
AcDbLine
 10
167.0861561236693
 20
12.59999999999994
 11
167.0861561236693
 21
11.39999999999995
  0
LINE
  5
3E3
100
AcDbEntity
  8
0
  6
CONTINUOUS
 62
             7
100
AcDbLine
 10
167.0861561236693
 20
12.59999999999994
 11
167.35638081198701
 21
12.70133425811909
  0
LINE
  5
3E2
100
AcDbEntity
  8
0
  6
CONTINUOUS
 62
             7
100
AcDbLine
 10
166.0861561236693
 20
15.39999999999995
 11
166.4861561236693
 21
13.74999999999991
  0
LINE
  5
3E1
100
AcDbEntity
  8
0
  6
CONTINUOUS
 62
             7
100
AcDbLine
 10
167.0861561236693
 20
15.39999999999995
 11
167.4861561236693
 21
13.74999999999991
  0
LINE
  5
3E0
100
AcDbEntity
  8
0
  6
CONTINUOUS
 62
             7
100
AcDbLine
 10
167.0861561236693
 20
8.59999999999994
 11
166.0861561236693
 21
8.59999999999994
  0
LINE
  5
3DF
100
AcDbEntity
  8
0
  6
CONTINUOUS
 62
             7
100
AcDbLine
 10
167.0861561236693
 20
15.39999999999995
 11
166.0861561236693
 21
15.39999999999995
  0
LINE
  5
3DE
100
AcDbEntity
  8
0
  6
CONTINUOUS
 62
             7
100
AcDbLine
 10
168.22527626529379
 20
9.24999999999994
 11
167.4861561236693
 21
9.24999999999994
  0
LINE
  5
3DD
100
AcDbEntity
  8
0
  6
CONTINUOUS
 62
             7
100
AcDbLine
 10
167.4861561236693
 20
14.74999999999991
 11
168.22527626529379
 21
14.74999999999991
  0
LINE
  5
3DC
100
AcDbEntity
  8
0
  6
CONTINUOUS
 62
             7
100
AcDbLine
 10
167.4861561236693
 20
12.88860009363285
 11
167.4861561236693
 21
11.11139990636701
  0
LINE
  5
3DB
100
AcDbEntity
  8
0
  6
CONTINUOUS
 62
             7
100
AcDbLine
 10
167.4861561236693
 20
16.99999999999991
 11
167.4861561236693
 21
19.51139990636699
  0
LINE
  5
3DA
100
AcDbEntity
  8
0
  6
CONTINUOUS
 62
             7
100
AcDbLine
 10
166.4861561236693
 20
18.64999999999992
 11
166.4861561236693
 21
19.51139990636699
  0
LINE
  5
3D9
100
AcDbEntity
  8
0
  6
CONTINUOUS
 62
             7
100
AcDbLine
 10
166.4861561236693
 20
21.28860009363285
 11
166.4861561236693
 21
22.14999999999992
  0
LINE
  5
3D8
100
AcDbEntity
  8
0
  6
CONTINUOUS
 62
             7
100
AcDbLine
 10
167.4861561236693
 20
16.99999999999991
 11
167.0861561236693
 21
16.99999999999991
  0
LINE
  5
3D7
100
AcDbEntity
  8
0
  6
CONTINUOUS
 62
             7
100
AcDbLine
 10
167.4861561236693
 20
23.79999999999993
 11
167.0861561236693
 21
23.79999999999993
  0
LINE
  5
3D6
100
AcDbEntity
  8
0
  6
CONTINUOUS
 62
             7
100
AcDbLine
 10
166.4861561236693
 20
18.64999999999992
 11
166.0861561236693
 21
16.99999999999991
  0
LINE
  5
3D5
100
AcDbEntity
  8
0
  6
CONTINUOUS
 62
             7
100
AcDbLine
 10
167.4861561236693
 20
18.64999999999992
 11
167.0861561236693
 21
16.99999999999991
  0
LINE
  5
3D4
100
AcDbEntity
  8
0
  6
CONTINUOUS
 62
             7
100
AcDbLine
 10
167.4861561236693
 20
23.79999999999993
 11
167.4861561236693
 21
21.28860009363285
  0
LINE
  5
3D3
100
AcDbEntity
  8
0
  6
CONTINUOUS
 62
             7
100
AcDbLine
 10
166.0861561236693
 20
19.79999999999993
 11
166.35638081198701
 21
19.6986657418808
  0
LINE
  5
3D2
100
AcDbEntity
  8
0
  6
CONTINUOUS
 62
             7
100
AcDbLine
 10
166.0861561236693
 20
20.99999999999991
 11
166.35638081198701
 21
21.10133425811907
  0
LINE
  5
3D1
100
AcDbEntity
  8
0
  6
CONTINUOUS
 62
             7
100
AcDbLine
 10
167.0861561236693
 20
19.79999999999993
 11
167.35638081198701
 21
19.6986657418808
  0
LINE
  5
3D0
100
AcDbEntity
  8
0
  6
CONTINUOUS
 62
             7
100
AcDbLine
 10
167.0861561236693
 20
20.99999999999991
 11
167.0861561236693
 21
19.79999999999993
  0
LINE
  5
3CF
100
AcDbEntity
  8
0
  6
CONTINUOUS
 62
             7
100
AcDbLine
 10
167.0861561236693
 20
20.99999999999991
 11
167.35638081198701
 21
21.10133425811907
  0
LINE
  5
3CE
100
AcDbEntity
  8
0
  6
CONTINUOUS
 62
             7
100
AcDbLine
 10
166.0861561236693
 20
23.79999999999993
 11
166.4861561236693
 21
22.14999999999992
  0
LINE
  5
3CD
100
AcDbEntity
  8
0
  6
CONTINUOUS
 62
             7
100
AcDbLine
 10
167.0861561236693
 20
23.79999999999993
 11
167.4861561236693
 21
22.14999999999992
  0
LINE
  5
3CC
100
AcDbEntity
  8
0
  6
CONTINUOUS
 62
             7
100
AcDbLine
 10
167.0861561236693
 20
16.99999999999991
 11
166.0861561236693
 21
16.99999999999991
  0
LINE
  5
3CB
100
AcDbEntity
  8
0
  6
CONTINUOUS
 62
             7
100
AcDbLine
 10
167.0861561236693
 20
23.79999999999993
 11
166.0861561236693
 21
23.79999999999993
  0
LINE
  5
3CA
100
AcDbEntity
  8
0
  6
CONTINUOUS
 62
             7
100
AcDbLine
 10
168.22527626529379
 20
17.64999999999992
 11
167.4861561236693
 21
17.64999999999992
  0
LINE
  5
3C9
100
AcDbEntity
  8
0
  6
CONTINUOUS
 62
             7
100
AcDbLine
 10
167.4861561236693
 20
23.14999999999992
 11
168.22527626529379
 21
23.14999999999992
  0
LINE
  5
3C8
100
AcDbEntity
  8
0
  6
CONTINUOUS
 62
             7
100
AcDbLine
 10
167.4861561236693
 20
21.28860009363285
 11
167.4861561236693
 21
19.51139990636699
  0
LINE
  5
3C7
100
AcDbEntity
  8
0
  6
CONTINUOUS
 62
             7
100
AcDbLine
 10
167.4861561236693
 20
25.39999999999989
 11
167.4861561236693
 21
27.91139990636697
  0
LINE
  5
3C6
100
AcDbEntity
  8
0
  6
CONTINUOUS
 62
             7
100
AcDbLine
 10
166.4861561236693
 20
27.0499999999999
 11
166.4861561236693
 21
27.91139990636697
  0
LINE
  5
3C5
100
AcDbEntity
  8
0
  6
CONTINUOUS
 62
             7
100
AcDbLine
 10
166.4861561236693
 20
29.68860009363283
 11
166.4861561236693
 21
30.5499999999999
  0
LINE
  5
3C4
100
AcDbEntity
  8
0
  6
CONTINUOUS
 62
             7
100
AcDbLine
 10
167.4861561236693
 20
25.39999999999989
 11
167.0861561236693
 21
25.39999999999989
  0
LINE
  5
3C3
100
AcDbEntity
  8
0
  6
CONTINUOUS
 62
             7
100
AcDbLine
 10
167.4861561236693
 20
32.1999999999999
 11
167.0861561236693
 21
32.1999999999999
  0
LINE
  5
3C2
100
AcDbEntity
  8
0
  6
CONTINUOUS
 62
             7
100
AcDbLine
 10
166.4861561236693
 20
27.0499999999999
 11
166.0861561236693
 21
25.39999999999989
  0
LINE
  5
3C1
100
AcDbEntity
  8
0
  6
CONTINUOUS
 62
             7
100
AcDbLine
 10
167.4861561236693
 20
27.0499999999999
 11
167.0861561236693
 21
25.39999999999989
  0
LINE
  5
3C0
100
AcDbEntity
  8
0
  6
CONTINUOUS
 62
             7
100
AcDbLine
 10
167.4861561236693
 20
32.1999999999999
 11
167.4861561236693
 21
29.68860009363283
  0
LINE
  5
3BF
100
AcDbEntity
  8
0
  6
CONTINUOUS
 62
             7
100
AcDbLine
 10
166.0861561236693
 20
28.1999999999999
 11
166.35638081198701
 21
28.09866574188078
  0
LINE
  5
3BE
100
AcDbEntity
  8
0
  6
CONTINUOUS
 62
             7
100
AcDbLine
 10
166.0861561236693
 20
29.39999999999989
 11
166.35638081198701
 21
29.50133425811904
  0
LINE
  5
3BD
100
AcDbEntity
  8
0
  6
CONTINUOUS
 62
             7
100
AcDbLine
 10
167.0861561236693
 20
28.1999999999999
 11
167.35638081198701
 21
28.09866574188078
  0
LINE
  5
3BC
100
AcDbEntity
  8
0
  6
CONTINUOUS
 62
             7
100
AcDbLine
 10
167.0861561236693
 20
29.39999999999989
 11
167.0861561236693
 21
28.1999999999999
  0
LINE
  5
3BB
100
AcDbEntity
  8
0
  6
CONTINUOUS
 62
             7
100
AcDbLine
 10
167.0861561236693
 20
29.39999999999989
 11
167.35638081198701
 21
29.50133425811904
  0
LINE
  5
3BA
100
AcDbEntity
  8
0
  6
CONTINUOUS
 62
             7
100
AcDbLine
 10
166.0861561236693
 20
32.1999999999999
 11
166.4861561236693
 21
30.5499999999999
  0
LINE
  5
3B9
100
AcDbEntity
  8
0
  6
CONTINUOUS
 62
             7
100
AcDbLine
 10
167.0861561236693
 20
32.1999999999999
 11
167.4861561236693
 21
30.5499999999999
  0
LINE
  5
3B8
100
AcDbEntity
  8
0
  6
CONTINUOUS
 62
             7
100
AcDbLine
 10
167.0861561236693
 20
25.39999999999989
 11
166.0861561236693
 21
25.39999999999989
  0
LINE
  5
3B7
100
AcDbEntity
  8
0
  6
CONTINUOUS
 62
             7
100
AcDbLine
 10
167.0861561236693
 20
32.1999999999999
 11
166.0861561236693
 21
32.1999999999999
  0
LINE
  5
3B6
100
AcDbEntity
  8
0
  6
CONTINUOUS
 62
             7
100
AcDbLine
 10
168.22527626529379
 20
26.0499999999999
 11
167.4861561236693
 21
26.0499999999999
  0
LINE
  5
3B5
100
AcDbEntity
  8
0
  6
CONTINUOUS
 62
             7
100
AcDbLine
 10
167.4861561236693
 20
31.5499999999999
 11
168.22527626529379
 21
31.5499999999999
  0
LINE
  5
3B4
100
AcDbEntity
  8
0
  6
CONTINUOUS
 62
             7
100
AcDbLine
 10
167.4861561236693
 20
29.68860009363283
 11
167.4861561236693
 21
27.91139990636697
  0
LINE
  5
3B3
100
AcDbEntity
  8
1
  6
CONTINUOUS
 62
             7
100
AcDbLine
 10
166.90000000000001
 20
36.50000000000001
 11
166.40000000000001
 21
36.50000000000001
  0
LINE
  5
3B2
100
AcDbEntity
  8
1
  6
CONTINUOUS
 62
             7
100
AcDbLine
 10
167.5
 20
37.09999999999999
 11
167.5
 21
37.25000000000001
  0
LINE
  5
3B1
100
AcDbEntity
  8
1
  6
CONTINUOUS
 62
             7
100
AcDbLine
 10
167.5
 20
43.50000000000001
 11
166.90000000000001
 21
43.50000000000001
  0
LINE
  5
3B0
100
AcDbEntity
  8
1
  6
CONTINUOUS
 62
             7
100
AcDbLine
 10
166.90000000000001
 20
43.50000000000001
 11
166.90000000000001
 21
41.5
  0
LINE
  5
3AF
100
AcDbEntity
  8
1
  6
CONTINUOUS
 62
             7
100
AcDbLine
 10
166.90000000000001
 20
37.09999999999999
 11
166.40000000000001
 21
37.09999999999999
  0
LINE
  5
3AE
100
AcDbEntity
  8
1
  6
CONTINUOUS
 62
             7
100
AcDbLine
 10
166.40000000000001
 20
36.50000000000001
 11
166.40000000000001
 21
37.09999999999999
  0
LINE
  5
3AD
100
AcDbEntity
  8
1
  6
CONTINUOUS
 62
             7
100
AcDbLine
 10
166.40000000000001
 20
37.09999999999999
 11
166.40000000000001
 21
38.5
  0
LINE
  5
3AC
100
AcDbEntity
  8
1
  6
CONTINUOUS
 62
             7
100
AcDbLine
 10
166.40000000000001
 20
39.50000000000001
 11
162.0
 21
39.50000000000001
  0
LINE
  5
3AB
100
AcDbEntity
  8
1
  6
CONTINUOUS
 62
             7
100
AcDbLine
 10
75.5
 20
39.50000000000001
 11
75.5
 21
36.50000000000001
  0
LINE
  5
3AA
100
AcDbEntity
  8
1
  6
CONTINUOUS
 62
             7
100
AcDbLine
 10
134.80000000000001
 20
39.50000000000001
 11
134.80000000000001
 21
42.90000000000001
  0
LINE
  5
3A9
100
AcDbEntity
  8
1
  6
CONTINUOUS
 62
             7
100
AcDbLine
 10
136.0
 20
39.50000000000001
 11
75.5
 21
39.50000000000001
  0
LINE
  5
3A8
100
AcDbEntity
  8
1
  6
CONTINUOUS
 62
             7
100
AcDbLine
 10
136.0
 20
44.10000000000001
 11
159.59999999999999
 21
44.10000000000001
  0
LINE
  5
3A7
100
AcDbEntity
  8
1
  6
CONTINUOUS
 62
             7
100
AcDbLine
 10
160.80000000000001
 20
42.90000000000001
 11
160.80000000000001
 21
41.5
  0
LINE
  5
3A6
100
AcDbEntity
  8
1
  6
CONTINUOUS
 62
             7
100
AcDbLine
 10
162.0
 20
39.50000000000001
 11
160.80000000000001
 21
39.50000000000001
  0
LINE
  5
3A5
100
AcDbEntity
  8
1
  6
CONTINUOUS
 62
             7
100
AcDbLine
 10
136.0
 20
39.50000000000001
 11
136.0
 21
42.90000000000001
  0
LINE
  5
3A4
100
AcDbEntity
  8
1
  6
CONTINUOUS
 62
             7
100
AcDbLine
 10
137.19999999999999
 20
39.50000000000001
 11
136.0
 21
39.50000000000001
  0
LINE
  5
3A3
100
AcDbEntity
  8
1
  6
CONTINUOUS
 62
             7
100
AcDbLine
 10
136.0
 20
42.90000000000001
 11
159.59999999999999
 21
42.90000000000001
  0
LINE
  5
3A2
100
AcDbEntity
  8
1
  6
CONTINUOUS
 62
             7
100
AcDbLine
 10
160.80000000000001
 20
42.90000000000001
 11
160.80000000000001
 21
41.5
  0
LINE
  5
3A1
100
AcDbEntity
  8
1
  6
CONTINUOUS
 62
             7
100
AcDbLine
 10
160.80000000000001
 20
39.50000000000001
 11
159.59999999999999
 21
39.50000000000001
  0
LINE
  5
3A0
100
AcDbEntity
  8
1
  6
CONTINUOUS
 62
             7
100
AcDbLine
 10
159.59999999999999
 20
42.90000000000001
 11
159.59999999999999
 21
41.5
  0
LINE
  5
39F
100
AcDbEntity
  8
1
  6
CONTINUOUS
 62
             7
100
AcDbLine
 10
159.59999999999999
 20
39.50000000000001
 11
147.5
 21
39.50000000000001
  0
LINE
  5
39E
100
AcDbEntity
  8
1
  6
CONTINUOUS
 62
             7
100
AcDbLine
 10
167.5
 20
37.25000000000001
 11
168.5
 21
37.25000000000001
  0
LINE
  5
39D
100
AcDbEntity
  8
1
  6
CONTINUOUS
 62
             7
100
AcDbLine
 10
167.5
 20
37.25000000000001
 11
167.5
 21
42.75
  0
LINE
  5
39C
100
AcDbEntity
  8
1
  6
CONTINUOUS
 62
             7
100
AcDbLine
 10
169.5
 20
38.25000000000001
 11
169.5
 21
41.75000000000001
  0
LINE
  5
39B
100
AcDbEntity
  8
1
  6
CONTINUOUS
 62
             7
100
AcDbLine
 10
168.5
 20
42.75000000000001
 11
167.5
 21
42.75
  0
LINE
  5
39A
100
AcDbEntity
  8
1
  6
CONTINUOUS
 62
             7
100
AcDbLine
 10
167.5
 20
42.75
 11
167.5
 21
43.50000000000001
  0
LINE
  5
399
100
AcDbEntity
  8
1
  6
CONTINUOUS
 62
             7
100
AcDbLine
 10
166.90000000000001
 20
41.5
 11
160.80000000000001
 21
41.5
  0
LINE
  5
398
100
AcDbEntity
  8
1
  6
CONTINUOUS
 62
             7
100
AcDbLine
 10
166.90000000000001
 20
41.5
 11
166.90000000000001
 21
41.0
  0
LINE
  5
397
100
AcDbEntity
  8
1
  6
CONTINUOUS
 62
             7
100
AcDbLine
 10
160.80000000000001
 20
41.5
 11
160.80000000000001
 21
41.0
  0
LINE
  5
396
100
AcDbEntity
  8
1
  6
CONTINUOUS
 62
             7
100
AcDbLine
 10
160.80000000000001
 20
41.5
 11
160.80000000000001
 21
41.0
  0
LINE
  5
395
100
AcDbEntity
  8
1
  6
CONTINUOUS
 62
             7
100
AcDbLine
 10
159.59999999999999
 20
41.5
 11
147.5
 21
41.50000000000001
  0
LINE
  5
394
100
AcDbEntity
  8
1
  6
CONTINUOUS
 62
             7
100
AcDbLine
 10
159.59999999999999
 20
41.5
 11
159.59999999999999
 21
41.0
  0
LINE
  5
393
100
AcDbEntity
  8
1
  6
CONTINUOUS
 62
             7
100
AcDbLine
 10
147.5
 20
41.50000000000001
 11
147.5
 21
41.00000000000001
  0
LINE
  5
392
100
AcDbEntity
  8
1
  6
CONTINUOUS
 62
             7
100
AcDbLine
 10
147.5
 20
39.50000000000001
 11
137.19999999999999
 21
39.50000000000001
  0
LINE
  5
391
100
AcDbEntity
  8
1
  6
CONTINUOUS
 62
             7
100
AcDbLine
 10
166.90000000000001
 20
38.5
 11
166.40000000000001
 21
38.5
  0
LINE
  5
390
100
AcDbEntity
  8
1
  6
CONTINUOUS
 62
             7
100
AcDbLine
 10
166.90000000000001
 20
38.5
 11
166.90000000000001
 21
37.09999999999999
  0
LINE
  5
38F
100
AcDbEntity
  8
1
  6
CONTINUOUS
 62
             7
100
AcDbLine
 10
166.40000000000001
 20
38.5
 11
166.40000000000001
 21
39.0
  0
LINE
  5
38E
100
AcDbEntity
  8
1
  6
CONTINUOUS
 62
             7
100
AcDbLine
 10
147.5
 20
41.00000000000001
 11
159.59999999999999
 21
41.0
  0
LINE
  5
38D
100
AcDbEntity
  8
1
  6
CONTINUOUS
 62
             7
100
AcDbLine
 10
147.5
 20
41.00000000000001
 11
147.5
 21
39.50000000000001
  0
LINE
  5
38C
100
AcDbEntity
  8
1
  6
CONTINUOUS
 62
             7
100
AcDbLine
 10
159.59999999999999
 20
41.0
 11
159.59999999999999
 21
39.50000000000001
  0
LINE
  5
38B
100
AcDbEntity
  8
1
  6
CONTINUOUS
 62
             7
100
AcDbLine
 10
160.80000000000001
 20
41.0
 11
166.90000000000001
 21
41.0
  0
LINE
  5
38A
100
AcDbEntity
  8
1
  6
CONTINUOUS
 62
             7
100
AcDbLine
 10
160.80000000000001
 20
41.0
 11
160.80000000000001
 21
39.50000000000001
  0
LINE
  5
389
100
AcDbEntity
  8
1
  6
CONTINUOUS
 62
             7
100
AcDbLine
 10
160.80000000000001
 20
41.0
 11
160.80000000000001
 21
39.50000000000001
  0
LINE
  5
388
100
AcDbEntity
  8
1
  6
CONTINUOUS
 62
             7
100
AcDbLine
 10
166.90000000000001
 20
41.0
 11
166.90000000000001
 21
39.0
  0
LINE
  5
387
100
AcDbEntity
  8
1
  6
CONTINUOUS
 62
             7
100
AcDbLine
 10
166.40000000000001
 20
39.0
 11
166.90000000000001
 21
39.0
  0
LINE
  5
386
100
AcDbEntity
  8
1
  6
CONTINUOUS
 62
             7
100
AcDbLine
 10
166.40000000000001
 20
39.0
 11
166.40000000000001
 21
39.50000000000001
  0
LINE
  5
385
100
AcDbEntity
  8
1
  6
CONTINUOUS
 62
             7
100
AcDbLine
 10
166.90000000000001
 20
39.0
 11
166.90000000000001
 21
38.5
  0
LINE
  5
384
100
AcDbEntity
  8
1
  6
CONTINUOUS
 62
             7
100
AcDbLine
 10
167.5
 20
-55.25
 11
167.5
 21
-55.09999999999997
  0
LINE
  5
383
100
AcDbEntity
  8
1
  6
CONTINUOUS
 62
             7
100
AcDbLine
 10
166.90000000000001
 20
-61.5
 11
167.5
 21
-61.5
  0
LINE
  5
382
100
AcDbEntity
  8
1
  6
CONTINUOUS
 62
             7
100
AcDbLine
 10
166.90000000000001
 20
-59.49999999999999
 11
166.90000000000001
 21
-61.5
  0
LINE
  5
381
100
AcDbEntity
  8
1
  6
CONTINUOUS
 62
             7
100
AcDbLine
 10
166.40000000000001
 20
-55.09999999999997
 11
166.90000000000001
 21
-55.09999999999998
  0
LINE
  5
380
100
AcDbEntity
  8
1
  6
CONTINUOUS
 62
             7
100
AcDbLine
 10
166.40000000000001
 20
-56.49999999999999
 11
166.40000000000001
 21
-55.09999999999997
  0
LINE
  5
37F
100
AcDbEntity
  8
1
  6
CONTINUOUS
 62
             7
100
AcDbLine
 10
162.0
 20
-57.5
 11
166.40000000000001
 21
-57.5
  0
LINE
  5
37E
100
AcDbEntity
  8
1
  6
CONTINUOUS
 62
             7
100
AcDbLine
 10
134.80000000000001
 20
-60.89999999999998
 11
134.80000000000001
 21
-57.5
  0
LINE
  5
37D
100
AcDbEntity
  8
1
  6
CONTINUOUS
 62
             7
100
AcDbLine
 10
75.5
 20
-57.5
 11
136.0
 21
-57.5
  0
LINE
  5
37C
100
AcDbEntity
  8
1
  6
CONTINUOUS
 62
             7
100
AcDbLine
 10
159.59999999999999
 20
-62.09999999999998
 11
136.0
 21
-62.09999999999998
  0
LINE
  5
37B
100
AcDbEntity
  8
1
  6
CONTINUOUS
 62
             7
100
AcDbLine
 10
160.80000000000001
 20
-59.49999999999999
 11
160.80000000000001
 21
-60.89999999999998
  0
LINE
  5
37A
100
AcDbEntity
  8
1
  6
CONTINUOUS
 62
             7
100
AcDbLine
 10
160.80000000000001
 20
-57.5
 11
162.0
 21
-57.5
  0
LINE
  5
379
100
AcDbEntity
  8
1
  6
CONTINUOUS
 62
             7
100
AcDbLine
 10
136.0
 20
-60.89999999999998
 11
136.0
 21
-57.5
  0
LINE
  5
378
100
AcDbEntity
  8
1
  6
CONTINUOUS
 62
             7
100
AcDbLine
 10
136.0
 20
-57.5
 11
137.19999999999999
 21
-57.5
  0
LINE
  5
377
100
AcDbEntity
  8
1
  6
CONTINUOUS
 62
             7
100
AcDbLine
 10
159.59999999999999
 20
-60.89999999999998
 11
136.0
 21
-60.89999999999998
  0
LINE
  5
376
100
AcDbEntity
  8
1
  6
CONTINUOUS
 62
             7
100
AcDbLine
 10
160.80000000000001
 20
-59.49999999999999
 11
160.80000000000001
 21
-60.89999999999998
  0
LINE
  5
375
100
AcDbEntity
  8
1
  6
CONTINUOUS
 62
             7
100
AcDbLine
 10
159.59999999999999
 20
-57.5
 11
160.80000000000001
 21
-57.5
  0
LINE
  5
374
100
AcDbEntity
  8
1
  6
CONTINUOUS
 62
             7
100
AcDbLine
 10
159.59999999999999
 20
-59.49999999999999
 11
159.59999999999999
 21
-60.89999999999998
  0
LINE
  5
373
100
AcDbEntity
  8
1
  6
CONTINUOUS
 62
             7
100
AcDbLine
 10
147.5
 20
-57.5
 11
159.59999999999999
 21
-57.5
  0
LINE
  5
372
100
AcDbEntity
  8
1
  6
CONTINUOUS
 62
             7
100
AcDbLine
 10
168.5
 20
-55.25
 11
167.5
 21
-55.25
  0
LINE
  5
371
100
AcDbEntity
  8
1
  6
CONTINUOUS
 62
             7
100
AcDbLine
 10
167.5
 20
-60.74999999999999
 11
167.5
 21
-55.25
  0
LINE
  5
370
100
AcDbEntity
  8
1
  6
CONTINUOUS
 62
             7
100
AcDbLine
 10
169.5
 20
-59.75
 11
169.5
 21
-56.25
  0
LINE
  5
36F
100
AcDbEntity
  8
1
  6
CONTINUOUS
 62
             7
100
AcDbLine
 10
167.5
 20
-60.74999999999999
 11
168.5
 21
-60.75
  0
LINE
  5
36E
100
AcDbEntity
  8
1
  6
CONTINUOUS
 62
             7
100
AcDbLine
 10
167.5
 20
-61.5
 11
167.5
 21
-60.74999999999999
  0
LINE
  5
36D
100
AcDbEntity
  8
1
  6
CONTINUOUS
 62
             7
100
AcDbLine
 10
160.80000000000001
 20
-59.49999999999999
 11
166.90000000000001
 21
-59.49999999999999
  0
LINE
  5
36C
100
AcDbEntity
  8
1
  6
CONTINUOUS
 62
             7
100
AcDbLine
 10
166.90000000000001
 20
-58.99999999999999
 11
166.90000000000001
 21
-59.49999999999999
  0
LINE
  5
36B
100
AcDbEntity
  8
1
  6
CONTINUOUS
 62
             7
100
AcDbLine
 10
160.80000000000001
 20
-58.99999999999999
 11
160.80000000000001
 21
-59.49999999999999
  0
LINE
  5
36A
100
AcDbEntity
  8
1
  6
CONTINUOUS
 62
             7
100
AcDbLine
 10
160.80000000000001
 20
-58.99999999999999
 11
160.80000000000001
 21
-59.49999999999999
  0
LINE
  5
369
100
AcDbEntity
  8
1
  6
CONTINUOUS
 62
             7
100
AcDbLine
 10
147.5
 20
-59.5
 11
159.59999999999999
 21
-59.49999999999999
  0
LINE
  5
368
100
AcDbEntity
  8
1
  6
CONTINUOUS
 62
             7
100
AcDbLine
 10
159.59999999999999
 20
-58.99999999999999
 11
159.59999999999999
 21
-59.49999999999999
  0
LINE
  5
367
100
AcDbEntity
  8
1
  6
CONTINUOUS
 62
             7
100
AcDbLine
 10
147.5
 20
-59.0
 11
147.5
 21
-59.5
  0
LINE
  5
366
100
AcDbEntity
  8
1
  6
CONTINUOUS
 62
             7
100
AcDbLine
 10
137.19999999999999
 20
-57.5
 11
147.5
 21
-57.5
  0
LINE
  5
365
100
AcDbEntity
  8
1
  6
CONTINUOUS
 62
             7
100
AcDbLine
 10
166.40000000000001
 20
-56.49999999999999
 11
166.90000000000001
 21
-56.49999999999999
  0
LINE
  5
364
100
AcDbEntity
  8
1
  6
CONTINUOUS
 62
             7
100
AcDbLine
 10
166.90000000000001
 20
-55.09999999999998
 11
166.90000000000001
 21
-56.49999999999999
  0
LINE
  5
363
100
AcDbEntity
  8
1
  6
CONTINUOUS
 62
             7
100
AcDbLine
 10
166.40000000000001
 20
-56.99999999999999
 11
166.40000000000001
 21
-56.49999999999999
  0
LINE
  5
362
100
AcDbEntity
  8
1
  6
CONTINUOUS
 62
             7
100
AcDbLine
 10
159.59999999999999
 20
-58.99999999999999
 11
147.5
 21
-59.0
  0
LINE
  5
361
100
AcDbEntity
  8
1
  6
CONTINUOUS
 62
             7
100
AcDbLine
 10
147.5
 20
-57.5
 11
147.5
 21
-59.0
  0
LINE
  5
360
100
AcDbEntity
  8
1
  6
CONTINUOUS
 62
             7
100
AcDbLine
 10
159.59999999999999
 20
-57.5
 11
159.59999999999999
 21
-58.99999999999999
  0
LINE
  5
35F
100
AcDbEntity
  8
1
  6
CONTINUOUS
 62
             7
100
AcDbLine
 10
166.90000000000001
 20
-58.99999999999999
 11
160.80000000000001
 21
-58.99999999999999
  0
LINE
  5
35E
100
AcDbEntity
  8
1
  6
CONTINUOUS
 62
             7
100
AcDbLine
 10
160.80000000000001
 20
-57.5
 11
160.80000000000001
 21
-58.99999999999999
  0
LINE
  5
35D
100
AcDbEntity
  8
1
  6
CONTINUOUS
 62
             7
100
AcDbLine
 10
160.80000000000001
 20
-57.5
 11
160.80000000000001
 21
-58.99999999999999
  0
LINE
  5
35C
100
AcDbEntity
  8
1
  6
CONTINUOUS
 62
             7
100
AcDbLine
 10
166.90000000000001
 20
-56.99999999999999
 11
166.90000000000001
 21
-58.99999999999999
  0
LINE
  5
35B
100
AcDbEntity
  8
1
  6
CONTINUOUS
 62
             7
100
AcDbLine
 10
166.90000000000001
 20
-56.99999999999999
 11
166.40000000000001
 21
-56.99999999999999
  0
LINE
  5
35A
100
AcDbEntity
  8
1
  6
CONTINUOUS
 62
             7
100
AcDbLine
 10
166.40000000000001
 20
-57.5
 11
166.40000000000001
 21
-56.99999999999999
  0
LINE
  5
359
100
AcDbEntity
  8
1
  6
CONTINUOUS
 62
             7
100
AcDbLine
 10
166.90000000000001
 20
-56.49999999999999
 11
166.90000000000001
 21
-56.99999999999999
  0
LINE
  5
358
100
AcDbEntity
  8
1
  6
CONTINUOUS
 62
             7
100
AcDbLine
 10
166.40000000000001
 20
-55.09999999999997
 11
166.40000000000001
 21
-54.5
  0
LINE
  5
357
100
AcDbEntity
  8
1
  6
CONTINUOUS
 62
             7
100
AcDbLine
 10
75.5
 20
-54.5
 11
75.5
 21
-57.5
  0
LINE
  5
356
100
AcDbEntity
  8
1
  6
CONTINUOUS
 62
             7
100
AcDbLine
 10
-6.74999999999989
 20
-1.54995000000006
 11
-6.74999999999989
 21
-2.54995000000006
  0
LINE
  5
355
100
AcDbEntity
  8
1
  6
CONTINUOUS
 62
             7
100
AcDbLine
 10
-5.24999999999989
 20
-1.54995000000006
 11
-6.74999999999989
 21
-1.54995000000006
  0
LINE
  5
354
100
AcDbEntity
  8
1
  6
CONTINUOUS
 62
             7
100
AcDbLine
 10
-5.24999999999989
 20
-2.54995000000006
 11
-5.24999999999989
 21
-1.54995000000006
  0
LINE
  5
353
100
AcDbEntity
  8
1
  6
CONTINUOUS
 62
             7
100
AcDbLine
 10
-6.74999999999989
 20
-2.54995000000006
 11
-5.24999999999989
 21
-2.54995000000006
  0
LINE
  5
352
100
AcDbEntity
  8
1
  6
CONTINUOUS
 62
             7
100
AcDbLine
 10
17.25
 20
-1.54995000000006
 11
17.25
 21
-2.54995000000006
  0
LINE
  5
351
100
AcDbEntity
  8
1
  6
CONTINUOUS
 62
             7
100
AcDbLine
 10
18.75
 20
-1.54995000000006
 11
17.25
 21
-1.54995000000006
  0
LINE
  5
350
100
AcDbEntity
  8
1
  6
CONTINUOUS
 62
             7
100
AcDbLine
 10
18.75
 20
-2.54995000000006
 11
18.75
 21
-1.54995000000006
  0
LINE
  5
34F
100
AcDbEntity
  8
1
  6
CONTINUOUS
 62
             7
100
AcDbLine
 10
17.25
 20
-2.54995000000006
 11
18.75
 21
-2.54995000000006
  0
LINE
  5
34E
100
AcDbEntity
  8
1
  6
CONTINUOUS
 62
             7
100
AcDbLine
 10
-6.99999999999989
 20
-1.04995000000006
 11
-6.19999999999987
 21
-1.04995000000006
  0
LINE
  5
34D
100
AcDbEntity
  8
1
  6
CONTINUOUS
 62
             7
100
AcDbLine
 10
-6.19999999999987
 20
-1.04995000000006
 11
-6.19999999999987
 21
1.45004999999994
  0
LINE
  5
34C
100
AcDbEntity
  8
1
  6
CONTINUOUS
 62
             7
100
AcDbLine
 10
-6.19999999999987
 20
1.45004999999994
 11
-6.99999999999989
 21
1.45004999999994
  0
LINE
  5
34B
100
AcDbEntity
  8
1
  6
CONTINUOUS
 62
             7
100
AcDbLine
 10
-6.99999999999989
 20
1.45004999999994
 11
-6.99999999999989
 21
-1.04995000000006
  0
LINE
  5
34A
100
AcDbEntity
  8
1
  6
CONTINUOUS
 62
             7
100
AcDbLine
 10
-5.7999999999999
 20
-1.04995000000006
 11
-4.99999999999989
 21
-1.04995000000006
  0
LINE
  5
349
100
AcDbEntity
  8
1
  6
CONTINUOUS
 62
             7
100
AcDbLine
 10
-4.99999999999989
 20
-1.04995000000006
 11
-4.99999999999989
 21
1.45004999999994
  0
LINE
  5
348
100
AcDbEntity
  8
1
  6
CONTINUOUS
 62
             7
100
AcDbLine
 10
-4.99999999999989
 20
1.45004999999994
 11
-5.7999999999999
 21
1.45004999999994
  0
LINE
  5
347
100
AcDbEntity
  8
1
  6
CONTINUOUS
 62
             7
100
AcDbLine
 10
-5.7999999999999
 20
1.45004999999994
 11
-5.7999999999999
 21
-1.04995000000006
  0
LINE
  5
346
100
AcDbEntity
  8
1
  6
CONTINUOUS
 62
             7
100
AcDbLine
 10
-4.59999999999988
 20
-1.04995000000006
 11
-3.7999999999999
 21
-1.04995000000006
  0
LINE
  5
345
100
AcDbEntity
  8
1
  6
CONTINUOUS
 62
             7
100
AcDbLine
 10
-3.7999999999999
 20
-1.04995000000006
 11
-3.7999999999999
 21
1.45004999999994
  0
LINE
  5
344
100
AcDbEntity
  8
1
  6
CONTINUOUS
 62
             7
100
AcDbLine
 10
-3.7999999999999
 20
1.45004999999994
 11
-4.59999999999988
 21
1.45004999999994
  0
LINE
  5
343
100
AcDbEntity
  8
1
  6
CONTINUOUS
 62
             7
100
AcDbLine
 10
-4.59999999999988
 20
1.45004999999994
 11
-4.59999999999988
 21
-1.04995000000006
  0
LINE
  5
342
100
AcDbEntity
  8
1
  6
CONTINUOUS
 62
             7
100
AcDbLine
 10
-3.39999999999989
 20
-1.04995000000006
 11
-2.59999999999988
 21
-1.04995000000006
  0
LINE
  5
341
100
AcDbEntity
  8
1
  6
CONTINUOUS
 62
             7
100
AcDbLine
 10
-2.59999999999988
 20
-1.04995000000006
 11
-2.59999999999988
 21
1.45004999999994
  0
LINE
  5
340
100
AcDbEntity
  8
1
  6
CONTINUOUS
 62
             7
100
AcDbLine
 10
-2.59999999999988
 20
1.45004999999994
 11
-3.39999999999989
 21
1.45004999999994
  0
LINE
  5
33F
100
AcDbEntity
  8
1
  6
CONTINUOUS
 62
             7
100
AcDbLine
 10
-3.39999999999989
 20
1.45004999999994
 11
-3.39999999999989
 21
-1.04995000000006
  0
LINE
  5
33E
100
AcDbEntity
  8
1
  6
CONTINUOUS
 62
             7
100
AcDbLine
 10
-2.19999999999987
 20
-1.04995000000006
 11
-1.39999999999989
 21
-1.04995000000006
  0
LINE
  5
33D
100
AcDbEntity
  8
1
  6
CONTINUOUS
 62
             7
100
AcDbLine
 10
-1.39999999999989
 20
-1.04995000000006
 11
-1.39999999999989
 21
1.45004999999994
  0
LINE
  5
33C
100
AcDbEntity
  8
1
  6
CONTINUOUS
 62
             7
100
AcDbLine
 10
-1.39999999999989
 20
1.45004999999994
 11
-2.19999999999987
 21
1.45004999999994
  0
LINE
  5
33B
100
AcDbEntity
  8
1
  6
CONTINUOUS
 62
             7
100
AcDbLine
 10
-2.19999999999987
 20
1.45004999999994
 11
-2.19999999999987
 21
-1.04995000000006
  0
LINE
  5
33A
100
AcDbEntity
  8
1
  6
CONTINUOUS
 62
             7
100
AcDbLine
 10
-0.99999999999989
 20
-1.04995000000006
 11
-0.19999999999987
 21
-1.04995000000006
  0
LINE
  5
339
100
AcDbEntity
  8
1
  6
CONTINUOUS
 62
             7
100
AcDbLine
 10
-0.19999999999987
 20
-1.04995000000006
 11
-0.19999999999987
 21
1.45004999999994
  0
LINE
  5
338
100
AcDbEntity
  8
1
  6
CONTINUOUS
 62
             7
100
AcDbLine
 10
-0.19999999999987
 20
1.45004999999994
 11
-0.99999999999989
 21
1.45004999999994
  0
LINE
  5
337
100
AcDbEntity
  8
1
  6
CONTINUOUS
 62
             7
100
AcDbLine
 10
-0.99999999999989
 20
1.45004999999994
 11
-0.99999999999989
 21
-1.04995000000006
  0
LINE
  5
336
100
AcDbEntity
  8
1
  6
CONTINUOUS
 62
             7
100
AcDbLine
 10
0.2000000000001
 20
-1.04995000000006
 11
1.00000000000011
 21
-1.04995000000006
  0
LINE
  5
335
100
AcDbEntity
  8
1
  6
CONTINUOUS
 62
             7
100
AcDbLine
 10
1.00000000000011
 20
-1.04995000000006
 11
1.00000000000011
 21
1.45004999999994
  0
LINE
  5
334
100
AcDbEntity
  8
1
  6
CONTINUOUS
 62
             7
100
AcDbLine
 10
1.00000000000011
 20
1.45004999999994
 11
0.2000000000001
 21
1.45004999999994
  0
LINE
  5
333
100
AcDbEntity
  8
1
  6
CONTINUOUS
 62
             7
100
AcDbLine
 10
0.2000000000001
 20
1.45004999999994
 11
0.2000000000001
 21
-1.04995000000006
  0
LINE
  5
332
100
AcDbEntity
  8
1
  6
CONTINUOUS
 62
             7
100
AcDbLine
 10
1.40000000000001
 20
-1.04995000000006
 11
2.2000000000001
 21
-1.04995000000006
  0
LINE
  5
331
100
AcDbEntity
  8
1
  6
CONTINUOUS
 62
             7
100
AcDbLine
 10
2.2000000000001
 20
-1.04995000000006
 11
2.2000000000001
 21
1.45004999999994
  0
LINE
  5
330
100
AcDbEntity
  8
1
  6
CONTINUOUS
 62
             7
100
AcDbLine
 10
2.2000000000001
 20
1.45004999999994
 11
1.40000000000001
 21
1.45004999999994
  0
LINE
  5
32F
100
AcDbEntity
  8
1
  6
CONTINUOUS
 62
             7
100
AcDbLine
 10
1.40000000000001
 20
1.45004999999994
 11
1.40000000000001
 21
-1.04995000000006
  0
LINE
  5
32E
100
AcDbEntity
  8
1
  6
CONTINUOUS
 62
             7
100
AcDbLine
 10
2.60000000000002
 20
-1.04995000000006
 11
3.40000000000001
 21
-1.04995000000006
  0
LINE
  5
32D
100
AcDbEntity
  8
1
  6
CONTINUOUS
 62
             7
100
AcDbLine
 10
3.40000000000001
 20
-1.04995000000006
 11
3.40000000000001
 21
1.45004999999994
  0
LINE
  5
32C
100
AcDbEntity
  8
1
  6
CONTINUOUS
 62
             7
100
AcDbLine
 10
3.40000000000001
 20
1.45004999999994
 11
2.60000000000002
 21
1.45004999999994
  0
LINE
  5
32B
100
AcDbEntity
  8
1
  6
CONTINUOUS
 62
             7
100
AcDbLine
 10
2.60000000000002
 20
1.45004999999994
 11
2.60000000000002
 21
-1.04995000000006
  0
LINE
  5
32A
100
AcDbEntity
  8
1
  6
CONTINUOUS
 62
             7
100
AcDbLine
 10
3.80000000000001
 20
-1.04995000000006
 11
4.60000000000002
 21
-1.04995000000006
  0
LINE
  5
329
100
AcDbEntity
  8
1
  6
CONTINUOUS
 62
             7
100
AcDbLine
 10
4.60000000000002
 20
-1.04995000000006
 11
4.60000000000002
 21
1.45004999999994
  0
LINE
  5
328
100
AcDbEntity
  8
1
  6
CONTINUOUS
 62
             7
100
AcDbLine
 10
4.60000000000002
 20
1.45004999999994
 11
3.80000000000001
 21
1.45004999999994
  0
LINE
  5
327
100
AcDbEntity
  8
1
  6
CONTINUOUS
 62
             7
100
AcDbLine
 10
3.80000000000001
 20
1.45004999999994
 11
3.80000000000001
 21
-1.04995000000006
  0
LINE
  5
326
100
AcDbEntity
  8
1
  6
CONTINUOUS
 62
             7
100
AcDbLine
 10
5.0
 20
-1.04995000000006
 11
5.80000000000001
 21
-1.04995000000006
  0
LINE
  5
325
100
AcDbEntity
  8
1
  6
CONTINUOUS
 62
             7
100
AcDbLine
 10
5.80000000000001
 20
-1.04995000000006
 11
5.80000000000001
 21
1.45004999999994
  0
LINE
  5
324
100
AcDbEntity
  8
1
  6
CONTINUOUS
 62
             7
100
AcDbLine
 10
5.80000000000001
 20
1.45004999999994
 11
5.0
 21
1.45004999999994
  0
LINE
  5
323
100
AcDbEntity
  8
1
  6
CONTINUOUS
 62
             7
100
AcDbLine
 10
5.0
 20
1.45004999999994
 11
5.0
 21
-1.04995000000006
  0
LINE
  5
322
100
AcDbEntity
  8
1
  6
CONTINUOUS
 62
             7
100
AcDbLine
 10
18.20000000000002
 20
-1.04995000000006
 11
19.0
 21
-1.04995000000006
  0
LINE
  5
321
100
AcDbEntity
  8
1
  6
CONTINUOUS
 62
             7
100
AcDbLine
 10
19.0
 20
-1.04995000000006
 11
19.0
 21
1.45004999999994
  0
LINE
  5
320
100
AcDbEntity
  8
1
  6
CONTINUOUS
 62
             7
100
AcDbLine
 10
19.0
 20
1.45004999999994
 11
18.20000000000002
 21
1.45004999999994
  0
LINE
  5
31F
100
AcDbEntity
  8
1
  6
CONTINUOUS
 62
             7
100
AcDbLine
 10
18.20000000000002
 20
1.45004999999994
 11
18.20000000000002
 21
-1.04995000000006
  0
LINE
  5
31E
100
AcDbEntity
  8
1
  6
CONTINUOUS
 62
             7
100
AcDbLine
 10
17.0
 20
-1.04995000000006
 11
17.80000000000001
 21
-1.04995000000006
  0
LINE
  5
31D
100
AcDbEntity
  8
1
  6
CONTINUOUS
 62
             7
100
AcDbLine
 10
17.80000000000001
 20
-1.04995000000006
 11
17.80000000000001
 21
1.45004999999994
  0
LINE
  5
31C
100
AcDbEntity
  8
1
  6
CONTINUOUS
 62
             7
100
AcDbLine
 10
17.80000000000001
 20
1.45004999999994
 11
17.0
 21
1.45004999999994
  0
LINE
  5
31B
100
AcDbEntity
  8
1
  6
CONTINUOUS
 62
             7
100
AcDbLine
 10
17.0
 20
1.45004999999994
 11
17.0
 21
-1.04995000000006
  0
LINE
  5
31A
100
AcDbEntity
  8
1
  6
CONTINUOUS
 62
             7
100
AcDbLine
 10
15.80000000000001
 20
-1.04995000000006
 11
16.60000000000002
 21
-1.04995000000006
  0
LINE
  5
319
100
AcDbEntity
  8
1
  6
CONTINUOUS
 62
             7
100
AcDbLine
 10
16.60000000000002
 20
-1.04995000000006
 11
16.60000000000002
 21
1.45004999999994
  0
LINE
  5
318
100
AcDbEntity
  8
1
  6
CONTINUOUS
 62
             7
100
AcDbLine
 10
16.60000000000002
 20
1.45004999999994
 11
15.80000000000001
 21
1.45004999999994
  0
LINE
  5
317
100
AcDbEntity
  8
1
  6
CONTINUOUS
 62
             7
100
AcDbLine
 10
15.80000000000001
 20
1.45004999999994
 11
15.80000000000001
 21
-1.04995000000006
  0
LINE
  5
316
100
AcDbEntity
  8
1
  6
CONTINUOUS
 62
             7
100
AcDbLine
 10
14.60000000000002
 20
-1.04995000000006
 11
15.40000000000001
 21
-1.04995000000006
  0
LINE
  5
315
100
AcDbEntity
  8
1
  6
CONTINUOUS
 62
             7
100
AcDbLine
 10
15.40000000000001
 20
-1.04995000000006
 11
15.40000000000001
 21
1.45004999999994
  0
LINE
  5
314
100
AcDbEntity
  8
1
  6
CONTINUOUS
 62
             7
100
AcDbLine
 10
15.40000000000001
 20
1.45004999999994
 11
14.60000000000002
 21
1.45004999999994
  0
LINE
  5
313
100
AcDbEntity
  8
1
  6
CONTINUOUS
 62
             7
100
AcDbLine
 10
14.60000000000002
 20
1.45004999999994
 11
14.60000000000002
 21
-1.04995000000006
  0
LINE
  5
312
100
AcDbEntity
  8
1
  6
CONTINUOUS
 62
             7
100
AcDbLine
 10
13.40000000000001
 20
-1.04995000000006
 11
14.20000000000002
 21
-1.04995000000006
  0
LINE
  5
311
100
AcDbEntity
  8
1
  6
CONTINUOUS
 62
             7
100
AcDbLine
 10
14.20000000000002
 20
-1.04995000000006
 11
14.20000000000002
 21
1.45004999999994
  0
LINE
  5
310
100
AcDbEntity
  8
1
  6
CONTINUOUS
 62
             7
100
AcDbLine
 10
14.20000000000002
 20
1.45004999999994
 11
13.40000000000001
 21
1.45004999999994
  0
LINE
  5
30F
100
AcDbEntity
  8
1
  6
CONTINUOUS
 62
             7
100
AcDbLine
 10
13.40000000000001
 20
1.45004999999994
 11
13.40000000000001
 21
-1.04995000000006
  0
LINE
  5
30E
100
AcDbEntity
  8
1
  6
CONTINUOUS
 62
             7
100
AcDbLine
 10
12.20000000000002
 20
-1.04995000000006
 11
13.0
 21
-1.04995000000006
  0
LINE
  5
30D
100
AcDbEntity
  8
1
  6
CONTINUOUS
 62
             7
100
AcDbLine
 10
13.0
 20
-1.04995000000006
 11
13.0
 21
1.45004999999994
  0
LINE
  5
30C
100
AcDbEntity
  8
1
  6
CONTINUOUS
 62
             7
100
AcDbLine
 10
13.0
 20
1.45004999999994
 11
12.20000000000002
 21
1.45004999999994
  0
LINE
  5
30B
100
AcDbEntity
  8
1
  6
CONTINUOUS
 62
             7
100
AcDbLine
 10
12.20000000000002
 20
1.45004999999994
 11
12.20000000000002
 21
-1.04995000000006
  0
LINE
  5
30A
100
AcDbEntity
  8
1
  6
CONTINUOUS
 62
             7
100
AcDbLine
 10
11.0
 20
-1.04995000000006
 11
11.80000000000001
 21
-1.04995000000006
  0
LINE
  5
309
100
AcDbEntity
  8
1
  6
CONTINUOUS
 62
             7
100
AcDbLine
 10
11.80000000000001
 20
-1.04995000000006
 11
11.80000000000001
 21
1.45004999999994
  0
LINE
  5
308
100
AcDbEntity
  8
1
  6
CONTINUOUS
 62
             7
100
AcDbLine
 10
11.80000000000001
 20
1.45004999999994
 11
11.0
 21
1.45004999999994
  0
LINE
  5
307
100
AcDbEntity
  8
1
  6
CONTINUOUS
 62
             7
100
AcDbLine
 10
11.0
 20
1.45004999999994
 11
11.0
 21
-1.04995000000006
  0
LINE
  5
306
100
AcDbEntity
  8
1
  6
CONTINUOUS
 62
             7
100
AcDbLine
 10
9.80000000000001
 20
-1.04995000000006
 11
10.60000000000002
 21
-1.04995000000006
  0
LINE
  5
305
100
AcDbEntity
  8
1
  6
CONTINUOUS
 62
             7
100
AcDbLine
 10
10.60000000000002
 20
-1.04995000000006
 11
10.60000000000002
 21
1.45004999999994
  0
LINE
  5
304
100
AcDbEntity
  8
1
  6
CONTINUOUS
 62
             7
100
AcDbLine
 10
10.60000000000002
 20
1.45004999999994
 11
9.80000000000001
 21
1.45004999999994
  0
LINE
  5
303
100
AcDbEntity
  8
1
  6
CONTINUOUS
 62
             7
100
AcDbLine
 10
9.80000000000001
 20
1.45004999999994
 11
9.80000000000001
 21
-1.04995000000006
  0
LINE
  5
302
100
AcDbEntity
  8
1
  6
CONTINUOUS
 62
             7
100
AcDbLine
 10
8.60000000000002
 20
-1.04995000000006
 11
9.40000000000001
 21
-1.04995000000006
  0
LINE
  5
301
100
AcDbEntity
  8
1
  6
CONTINUOUS
 62
             7
100
AcDbLine
 10
9.40000000000001
 20
-1.04995000000006
 11
9.40000000000001
 21
1.45004999999994
  0
LINE
  5
300
100
AcDbEntity
  8
1
  6
CONTINUOUS
 62
             7
100
AcDbLine
 10
9.40000000000001
 20
1.45004999999994
 11
8.60000000000002
 21
1.45004999999994
  0
LINE
  5
2FF
100
AcDbEntity
  8
1
  6
CONTINUOUS
 62
             7
100
AcDbLine
 10
8.60000000000002
 20
1.45004999999994
 11
8.60000000000002
 21
-1.04995000000006
  0
LINE
  5
2FE
100
AcDbEntity
  8
1
  6
CONTINUOUS
 62
             7
100
AcDbLine
 10
7.40000000000001
 20
-1.04995000000006
 11
8.20000000000002
 21
-1.04995000000006
  0
LINE
  5
2FD
100
AcDbEntity
  8
1
  6
CONTINUOUS
 62
             7
100
AcDbLine
 10
8.20000000000002
 20
-1.04995000000006
 11
8.20000000000002
 21
1.45004999999994
  0
LINE
  5
2FC
100
AcDbEntity
  8
1
  6
CONTINUOUS
 62
             7
100
AcDbLine
 10
8.20000000000002
 20
1.45004999999994
 11
7.40000000000001
 21
1.45004999999994
  0
LINE
  5
2FB
100
AcDbEntity
  8
1
  6
CONTINUOUS
 62
             7
100
AcDbLine
 10
7.40000000000001
 20
1.45004999999994
 11
7.40000000000001
 21
-1.04995000000006
  0
LINE
  5
2FA
100
AcDbEntity
  8
1
  6
CONTINUOUS
 62
             7
100
AcDbLine
 10
-9.61812979357219
 20
14.95004999999995
 11
-9.1358901099232
 21
14.42377773368095
  0
LINE
  5
2F9
100
AcDbEntity
  8
1
  6
CONTINUOUS
 62
             7
100
AcDbLine
 10
-8.51853238475118
 20
13.75004999999995
 11
-5.5063089046125
 21
13.75004999999995
  0
LINE
  5
2F8
100
AcDbEntity
  8
1
  6
CONTINUOUS
 62
             7
100
AcDbLine
 10
-8.60326129667138
 20
26.55004999999994
 11
-8.0222039297108
 21
27.08249097923837
  0
LINE
  5
2F7
100
AcDbEntity
  8
1
  6
CONTINUOUS
 62
             7
100
AcDbLine
 10
-7.29369109538828
 20
27.75004999999995
 11
-4.28146761524948
 21
27.75004999999995
  0
LINE
  5
2F6
100
AcDbEntity
  8
1
  6
CONTINUOUS
 62
             7
100
AcDbLine
 10
-4.28146761524948
 20
27.75004999999995
 11
-3.7992279316006
 21
27.22377773368096
  0
LINE
  5
2F5
100
AcDbEntity
  8
1
  6
CONTINUOUS
 62
             7
100
AcDbLine
 10
-3.18187020642858
 20
26.55004999999994
 11
-3.62391057499428
 21
21.49750546736196
  0
LINE
  5
2F4
100
AcDbEntity
  8
1
  6
CONTINUOUS
 62
             7
100
AcDbLine
 10
-4.19673870332929
 20
14.95004999999995
 11
-3.7536189498656
 21
20.01493195847681
  0
LINE
  5
2F3
100
AcDbEntity
  8
1
  6
CONTINUOUS
 62
             7
100
AcDbLine
 10
-7.8229707676943
 20
20.15004999999995
 11
-8.36711688815319
 21
20.74388128708051
  0
LINE
  5
2F2
100
AcDbEntity
  8
1
  6
CONTINUOUS
 62
             7
100
AcDbLine
 10
-8.36711688815319
 20
20.74388128708051
 11
-7.705599818662
 21
21.35004999999994
  0
LINE
  5
2F1
100
AcDbEntity
  8
1
  6
CONTINUOUS
 62
             7
100
AcDbLine
 10
-7.705599818662
 20
21.35004999999994
 11
-4.97702923230639
 21
21.35004999999994
  0
LINE
  5
2F0
100
AcDbEntity
  8
1
  6
CONTINUOUS
 62
             7
100
AcDbLine
 10
-9.17608942500638
 20
20.00259453263793
 11
-8.51457235551518
 21
20.60876324555737
  0
LINE
  5
2EF
100
AcDbEntity
  8
1
  6
CONTINUOUS
 62
             7
100
AcDbLine
 10
-9.17608942500638
 20
20.00259453263793
 11
-9.61812979357219
 21
14.95004999999995
  0
LINE
  5
2EE
100
AcDbEntity
  8
1
  6
CONTINUOUS
 62
             7
100
AcDbLine
 10
-8.51457235551518
 20
20.60876324555737
 11
-7.97042623505638
 21
20.01493195847681
  0
LINE
  5
2ED
100
AcDbEntity
  8
1
  6
CONTINUOUS
 62
             7
100
AcDbLine
 10
-7.97042623505638
 20
20.01493195847681
 11
-8.39524709969749
 21
15.15920725632435
  0
LINE
  5
2EC
100
AcDbEntity
  8
1
  6
CONTINUOUS
 62
             7
100
AcDbLine
 10
-9.0463810501351
 20
21.48516804152308
 11
-8.50223492967629
 21
20.89133675444252
  0
LINE
  5
2EB
100
AcDbEntity
  8
1
  6
CONTINUOUS
 62
             7
100
AcDbLine
 10
-9.0463810501351
 20
21.48516804152308
 11
-8.60326129667138
 21
26.55004999999994
  0
LINE
  5
2EA
100
AcDbEntity
  8
1
  6
CONTINUOUS
 62
             7
100
AcDbLine
 10
-8.50223492967629
 20
20.89133675444252
 11
-7.84071786018509
 21
21.49750546736196
  0
LINE
  5
2E9
100
AcDbEntity
  8
1
  6
CONTINUOUS
 62
             7
100
AcDbLine
 10
-4.8295737649444
 20
21.48516804152308
 11
-4.28542764448548
 21
20.89133675444252
  0
LINE
  5
2E8
100
AcDbEntity
  8
1
  6
CONTINUOUS
 62
             7
100
AcDbLine
 10
-4.8295737649444
 20
21.48516804152308
 11
-4.39935469324968
 21
26.40259453263792
  0
LINE
  5
2E7
100
AcDbEntity
  8
1
  6
CONTINUOUS
 62
             7
100
AcDbLine
 10
-4.28542764448548
 20
20.89133675444252
 11
-3.62391057499428
 21
21.49750546736196
  0
LINE
  5
2E6
100
AcDbEntity
  8
1
  6
CONTINUOUS
 62
             7
100
AcDbLine
 10
-4.9592821398156
 20
20.00259453263793
 11
-4.2977650703244
 21
20.60876324555737
  0
LINE
  5
2E5
100
AcDbEntity
  8
1
  6
CONTINUOUS
 62
             7
100
AcDbLine
 10
-4.2977650703244
 20
20.60876324555737
 11
-3.7536189498656
 21
20.01493195847681
  0
LINE
  5
2E4
100
AcDbEntity
  8
1
  6
CONTINUOUS
 62
             7
100
AcDbLine
 10
-5.0944001813387
 20
20.15004999999995
 11
-4.43288311184759
 21
20.75621871291938
  0
LINE
  5
2E3
100
AcDbEntity
  8
1
  6
CONTINUOUS
 62
             7
100
AcDbLine
 10
-5.0944001813387
 20
20.15004999999995
 11
-7.8229707676943
 21
20.15004999999995
  0
LINE
  5
2E2
100
AcDbEntity
  8
1
  6
CONTINUOUS
 62
             7
100
AcDbLine
 10
-4.43288311184759
 20
20.75621871291938
 11
-4.97702923230639
 21
21.35004999999994
  0
LINE
  5
2E1
100
AcDbEntity
  8
1
  6
CONTINUOUS
 62
             7
100
AcDbLine
 10
-8.0222039297108
 20
27.08249097923837
 11
-7.41049878849049
 21
26.41493195847681
  0
LINE
  5
2E0
100
AcDbEntity
  8
1
  6
CONTINUOUS
 62
             7
100
AcDbLine
 10
-7.41049878849049
 20
26.41493195847681
 11
-7.84071786018509
 21
21.49750546736196
  0
LINE
  5
2DF
100
AcDbEntity
  8
1
  6
CONTINUOUS
 62
             7
100
AcDbLine
 10
-7.26304332112849
 20
26.55004999999994
 11
-7.87474846234878
 21
27.2176090207615
  0
LINE
  5
2DE
100
AcDbEntity
  8
1
  6
CONTINUOUS
 62
             7
100
AcDbLine
 10
-7.87474846234878
 20
27.2176090207615
 11
-7.29369109538828
 21
27.75004999999995
  0
LINE
  5
2DD
100
AcDbEntity
  8
1
  6
CONTINUOUS
 62
             7
100
AcDbLine
 10
-4.53447273477289
 20
26.55004999999994
 11
-3.7992279316006
 21
27.22377773368096
  0
LINE
  5
2DC
100
AcDbEntity
  8
1
  6
CONTINUOUS
 62
             7
100
AcDbLine
 10
-4.53447273477289
 20
26.55004999999994
 11
-7.26304332112849
 21
26.55004999999994
  0
LINE
  5
2DB
100
AcDbEntity
  8
1
  6
CONTINUOUS
 62
             7
100
AcDbLine
 10
-4.39935469324968
 20
26.40259453263792
 11
-3.6641098900775
 21
27.07632226631894
  0
LINE
  5
2DA
100
AcDbEntity
  8
1
  6
CONTINUOUS
 62
             7
100
AcDbLine
 10
-3.6641098900775
 20
27.07632226631894
 11
-3.18187020642858
 21
26.55004999999994
  0
LINE
  5
2D9
100
AcDbEntity
  8
1
  6
CONTINUOUS
 62
             7
100
AcDbLine
 10
-8.39524709969749
 20
15.15920725632435
 11
-9.1358901099232
 21
14.42377773368095
  0
LINE
  5
2D8
100
AcDbEntity
  8
1
  6
CONTINUOUS
 62
             7
100
AcDbLine
 10
-9.0007720684001
 20
14.27632226631893
 11
-8.26552726522789
 21
14.95004999999995
  0
LINE
  5
2D7
100
AcDbEntity
  8
1
  6
CONTINUOUS
 62
             7
100
AcDbLine
 10
-9.0007720684001
 20
14.27632226631893
 11
-8.51853238475118
 21
13.75004999999995
  0
LINE
  5
2D6
100
AcDbEntity
  8
1
  6
CONTINUOUS
 62
             7
100
AcDbLine
 10
-5.5063089046125
 20
13.75004999999995
 11
-4.92525153765189
 21
14.28249097923838
  0
LINE
  5
2D5
100
AcDbEntity
  8
1
  6
CONTINUOUS
 62
             7
100
AcDbLine
 10
-4.7777960702899
 20
14.4176090207615
 11
-5.38950121151029
 21
15.08516804152308
  0
LINE
  5
2D4
100
AcDbEntity
  8
1
  6
CONTINUOUS
 62
             7
100
AcDbLine
 10
-5.38950121151029
 20
15.08516804152308
 11
-4.9592821398156
 21
20.00259453263793
  0
LINE
  5
2D3
100
AcDbEntity
  8
1
  6
CONTINUOUS
 62
             7
100
AcDbLine
 10
-4.7777960702899
 20
14.4176090207615
 11
-4.19673870332929
 21
14.95004999999995
  0
LINE
  5
2D2
100
AcDbEntity
  8
1
  6
CONTINUOUS
 62
             7
100
AcDbLine
 10
-5.53695667887229
 20
14.95004999999995
 11
-4.92525153765189
 21
14.28249097923838
  0
LINE
  5
2D1
100
AcDbEntity
  8
1
  6
CONTINUOUS
 62
             7
100
AcDbLine
 10
-8.26552726522789
 20
14.95004999999995
 11
-5.53695667887229
 21
14.95004999999995
  0
LINE
  5
2D0
100
AcDbEntity
  8
1
  6
CONTINUOUS
 62
             7
100
AcDbLine
 10
-6.3429023894077
 20
22.55004999999994
 11
-7.21541125681588
 21
26.35004999999994
  0
LINE
  5
2CF
100
AcDbEntity
  8
1
  6
CONTINUOUS
 62
             7
100
AcDbLine
 10
-6.14213842189898
 20
22.55004999999994
 11
-4.6047157116945
 21
26.35004999999994
  0
LINE
  5
2CE
100
AcDbEntity
  8
1
  6
CONTINUOUS
 62
             7
100
AcDbLine
 10
-7.21541125681588
 20
26.35004999999994
 11
-7.441879344923
 21
23.76150790803006
  0
LINE
  5
2CD
100
AcDbEntity
  8
1
  6
CONTINUOUS
 62
             7
100
AcDbLine
 10
-7.441879344923
 20
23.76150790803006
 11
-6.93411180948729
 21
21.55004999999994
  0
LINE
  5
2CC
100
AcDbEntity
  8
1
  6
CONTINUOUS
 62
             7
100
AcDbLine
 10
-6.93411180948729
 20
21.55004999999994
 11
-6.4303910529336
 21
21.55004999999994
  0
LINE
  5
2CB
100
AcDbEntity
  8
1
  6
CONTINUOUS
 62
             7
100
AcDbLine
 10
-6.4303910529336
 20
21.55004999999994
 11
-6.3429023894077
 21
22.55004999999994
  0
LINE
  5
2CA
100
AcDbEntity
  8
1
  6
CONTINUOUS
 62
             7
100
AcDbLine
 10
-6.14213842189898
 20
22.55004999999994
 11
-6.22962708542488
 21
21.55004999999994
  0
LINE
  5
2C9
100
AcDbEntity
  8
1
  6
CONTINUOUS
 62
             7
100
AcDbLine
 10
-6.22962708542488
 20
21.55004999999994
 11
-5.6837280184599
 21
21.55004999999994
  0
LINE
  5
2C8
100
AcDbEntity
  8
1
  6
CONTINUOUS
 62
             7
100
AcDbLine
 10
-5.6837280184599
 20
21.55004999999994
 11
-4.8428210357792
 21
23.62849369214545
  0
LINE
  5
2C7
100
AcDbEntity
  8
1
  6
CONTINUOUS
 62
             7
100
AcDbLine
 10
-4.8428210357792
 20
23.62849369214545
 11
-4.6047157116945
 21
26.35004999999994
  0
LINE
  5
2C6
100
AcDbEntity
  8
1
  6
CONTINUOUS
 62
             7
100
AcDbLine
 10
-8.19528428830628
 20
15.15004999999995
 11
-6.65786157810098
 21
18.95004999999995
  0
LINE
  5
2C5
100
AcDbEntity
  8
1
  6
CONTINUOUS
 62
             7
100
AcDbLine
 10
-6.45709761059229
 20
18.95004999999995
 11
-5.5845887431849
 21
15.15004999999995
  0
LINE
  5
2C4
100
AcDbEntity
  8
1
  6
CONTINUOUS
 62
             7
100
AcDbLine
 10
-6.65786157810098
 20
18.95004999999995
 11
-6.57037291457539
 21
19.95004999999995
  0
LINE
  5
2C3
100
AcDbEntity
  8
1
  6
CONTINUOUS
 62
             7
100
AcDbLine
 10
-6.57037291457539
 20
19.95004999999995
 11
-7.11627198154079
 21
19.95004999999995
  0
LINE
  5
2C2
100
AcDbEntity
  8
1
  6
CONTINUOUS
 62
             7
100
AcDbLine
 10
-7.11627198154079
 20
19.95004999999995
 11
-7.9571789642215
 21
17.87160630785438
  0
LINE
  5
2C1
100
AcDbEntity
  8
1
  6
CONTINUOUS
 62
             7
100
AcDbLine
 10
-7.9571789642215
 20
17.87160630785438
 11
-8.19528428830628
 21
15.15004999999995
  0
LINE
  5
2C0
100
AcDbEntity
  8
1
  6
CONTINUOUS
 62
             7
100
AcDbLine
 10
-6.45709761059229
 20
18.95004999999995
 11
-6.36960894706638
 21
19.95004999999995
  0
LINE
  5
2BF
100
AcDbEntity
  8
1
  6
CONTINUOUS
 62
             7
100
AcDbLine
 10
-6.36960894706638
 20
19.95004999999995
 11
-5.8658881905134
 21
19.95004999999995
  0
LINE
  5
2BE
100
AcDbEntity
  8
1
  6
CONTINUOUS
 62
             7
100
AcDbLine
 10
-5.8658881905134
 20
19.95004999999995
 11
-5.35812065507778
 21
17.73859209196993
  0
LINE
  5
2BD
100
AcDbEntity
  8
1
  6
CONTINUOUS
 62
             7
100
AcDbLine
 10
-5.35812065507778
 20
17.73859209196993
 11
-5.5845887431849
 21
15.15004999999995
  0
LINE
  5
2BC
100
AcDbEntity
  8
1
  6
CONTINUOUS
 62
             7
100
AcDbLine
 10
-3.21812979357208
 20
14.95004999999995
 11
-2.73589010992308
 21
14.42377773368095
  0
LINE
  5
2BB
100
AcDbEntity
  8
1
  6
CONTINUOUS
 62
             7
100
AcDbLine
 10
-2.11853238475078
 20
13.75004999999995
 11
0.89369109538762
 21
13.75004999999995
  0
LINE
  5
2BA
100
AcDbEntity
  8
1
  6
CONTINUOUS
 62
             7
100
AcDbLine
 10
-2.20326129667129
 20
26.55004999999994
 11
-1.62220392971079
 21
27.08249097923837
  0
LINE
  5
2B9
100
AcDbEntity
  8
1
  6
CONTINUOUS
 62
             7
100
AcDbLine
 10
-0.89369109538819
 20
27.75004999999995
 11
2.11853238475061
 21
27.75004999999995
  0
LINE
  5
2B8
100
AcDbEntity
  8
1
  6
CONTINUOUS
 62
             7
100
AcDbLine
 10
2.11853238475061
 20
27.75004999999995
 11
2.60077206839941
 21
27.22377773368096
  0
LINE
  5
2B7
100
AcDbEntity
  8
1
  6
CONTINUOUS
 62
             7
100
AcDbLine
 10
3.21812979357151
 20
26.55004999999994
 11
2.77608942500581
 21
21.49750546736196
  0
LINE
  5
2B6
100
AcDbEntity
  8
1
  6
CONTINUOUS
 62
             7
100
AcDbLine
 10
2.2032612966708
 20
14.95004999999995
 11
2.64638105013452
 21
20.01493195847681
  0
LINE
  5
2B5
100
AcDbEntity
  8
1
  6
CONTINUOUS
 62
             7
100
AcDbLine
 10
-1.42297076769398
 20
20.15004999999995
 11
-1.9671168881531
 21
20.74388128708051
  0
LINE
  5
2B4
100
AcDbEntity
  8
1
  6
CONTINUOUS
 62
             7
100
AcDbLine
 10
-1.9671168881531
 20
20.74388128708051
 11
-1.30559981866159
 21
21.35004999999994
  0
LINE
  5
2B3
100
AcDbEntity
  8
1
  6
CONTINUOUS
 62
             7
100
AcDbLine
 10
-1.30559981866159
 20
21.35004999999994
 11
1.4229707676937
 21
21.35004999999994
  0
LINE
  5
2B2
100
AcDbEntity
  8
1
  6
CONTINUOUS
 62
             7
100
AcDbLine
 10
-2.77608942500629
 20
20.00259453263793
 11
-2.11457235551509
 21
20.60876324555737
  0
LINE
  5
2B1
100
AcDbEntity
  8
1
  6
CONTINUOUS
 62
             7
100
AcDbLine
 10
-2.77608942500629
 20
20.00259453263793
 11
-3.21812979357208
 21
14.95004999999995
  0
LINE
  5
2B0
100
AcDbEntity
  8
1
  6
CONTINUOUS
 62
             7
100
AcDbLine
 10
-2.11457235551509
 20
20.60876324555737
 11
-1.57042623505629
 21
20.01493195847681
  0
LINE
  5
2AF
100
AcDbEntity
  8
1
  6
CONTINUOUS
 62
             7
100
AcDbLine
 10
-1.57042623505629
 20
20.01493195847681
 11
-1.99524709969708
 21
15.15920725632435
  0
LINE
  5
2AE
100
AcDbEntity
  8
1
  6
CONTINUOUS
 62
             7
100
AcDbLine
 10
-2.64638105013498
 20
21.48516804152308
 11
-2.10223492967589
 21
20.89133675444252
  0
LINE
  5
2AD
100
AcDbEntity
  8
1
  6
CONTINUOUS
 62
             7
100
AcDbLine
 10
-2.64638105013498
 20
21.48516804152308
 11
-2.20326129667129
 21
26.55004999999994
  0
LINE
  5
2AC
100
AcDbEntity
  8
1
  6
CONTINUOUS
 62
             7
100
AcDbLine
 10
-2.10223492967589
 20
20.89133675444252
 11
-1.44071786018469
 21
21.49750546736196
  0
LINE
  5
2AB
100
AcDbEntity
  8
1
  6
CONTINUOUS
 62
             7
100
AcDbLine
 10
1.57042623505572
 20
21.48516804152308
 11
2.11457235551461
 21
20.89133675444252
  0
LINE
  5
2AA
100
AcDbEntity
  8
1
  6
CONTINUOUS
 62
             7
100
AcDbLine
 10
1.57042623505572
 20
21.48516804152308
 11
2.00064530675041
 21
26.40259453263792
  0
LINE
  5
2A9
100
AcDbEntity
  8
1
  6
CONTINUOUS
 62
             7
100
AcDbLine
 10
2.11457235551461
 20
20.89133675444252
 11
2.77608942500581
 21
21.49750546736196
  0
LINE
  5
2A8
100
AcDbEntity
  8
1
  6
CONTINUOUS
 62
             7
100
AcDbLine
 10
1.44071786018452
 20
20.00259453263793
 11
2.10223492967572
 21
20.60876324555737
  0
LINE
  5
2A7
100
AcDbEntity
  8
1
  6
CONTINUOUS
 62
             7
100
AcDbLine
 10
2.10223492967572
 20
20.60876324555737
 11
2.64638105013452
 21
20.01493195847681
  0
LINE
  5
2A6
100
AcDbEntity
  8
1
  6
CONTINUOUS
 62
             7
100
AcDbLine
 10
1.30559981866131
 20
20.15004999999995
 11
1.9671168881525
 21
20.75621871291938
  0
LINE
  5
2A5
100
AcDbEntity
  8
1
  6
CONTINUOUS
 62
             7
100
AcDbLine
 10
1.30559981866131
 20
20.15004999999995
 11
-1.42297076769398
 21
20.15004999999995
  0
LINE
  5
2A4
100
AcDbEntity
  8
1
  6
CONTINUOUS
 62
             7
100
AcDbLine
 10
1.9671168881525
 20
20.75621871291938
 11
1.4229707676937
 21
21.35004999999994
  0
LINE
  5
2A3
100
AcDbEntity
  8
1
  6
CONTINUOUS
 62
             7
100
AcDbLine
 10
-1.62220392971079
 20
27.08249097923837
 11
-1.01049878849008
 21
26.41493195847681
  0
LINE
  5
2A2
100
AcDbEntity
  8
1
  6
CONTINUOUS
 62
             7
100
AcDbLine
 10
-1.01049878849008
 20
26.41493195847681
 11
-1.44071786018469
 21
21.49750546736196
  0
LINE
  5
2A1
100
AcDbEntity
  8
1
  6
CONTINUOUS
 62
             7
100
AcDbLine
 10
-0.86304332112809
 20
26.55004999999994
 11
-1.47474846234869
 21
27.2176090207615
  0
LINE
  5
2A0
100
AcDbEntity
  8
1
  6
CONTINUOUS
 62
             7
100
AcDbLine
 10
-1.47474846234869
 20
27.2176090207615
 11
-0.89369109538819
 21
27.75004999999995
  0
LINE
  5
29F
100
AcDbEntity
  8
1
  6
CONTINUOUS
 62
             7
100
AcDbLine
 10
1.8655272652272
 20
26.55004999999994
 11
2.60077206839941
 21
27.22377773368096
  0
LINE
  5
29E
100
AcDbEntity
  8
1
  6
CONTINUOUS
 62
             7
100
AcDbLine
 10
1.8655272652272
 20
26.55004999999994
 11
-0.86304332112809
 21
26.55004999999994
  0
LINE
  5
29D
100
AcDbEntity
  8
1
  6
CONTINUOUS
 62
             7
100
AcDbLine
 10
2.00064530675041
 20
26.40259453263792
 11
2.73589010992251
 21
27.07632226631894
  0
LINE
  5
29C
100
AcDbEntity
  8
1
  6
CONTINUOUS
 62
             7
100
AcDbLine
 10
2.73589010992251
 20
27.07632226631894
 11
3.21812979357151
 21
26.55004999999994
  0
LINE
  5
29B
100
AcDbEntity
  8
1
  6
CONTINUOUS
 62
             7
100
AcDbLine
 10
-1.99524709969708
 20
15.15920725632435
 11
-2.73589010992308
 21
14.42377773368095
  0
LINE
  5
29A
100
AcDbEntity
  8
1
  6
CONTINUOUS
 62
             7
100
AcDbLine
 10
-2.60077206839998
 20
14.27632226631893
 11
-1.8655272652278
 21
14.95004999999995
  0
LINE
  5
299
100
AcDbEntity
  8
1
  6
CONTINUOUS
 62
             7
100
AcDbLine
 10
-2.60077206839998
 20
14.27632226631893
 11
-2.11853238475078
 21
13.75004999999995
  0
LINE
  5
298
100
AcDbEntity
  8
1
  6
CONTINUOUS
 62
             7
100
AcDbLine
 10
0.89369109538762
 20
13.75004999999995
 11
1.4747484623482
 21
14.28249097923838
  0
LINE
  5
297
100
AcDbEntity
  8
1
  6
CONTINUOUS
 62
             7
100
AcDbLine
 10
1.62220392971022
 20
14.4176090207615
 11
1.0104987884898
 21
15.08516804152308
  0
LINE
  5
296
100
AcDbEntity
  8
1
  6
CONTINUOUS
 62
             7
100
AcDbLine
 10
1.0104987884898
 20
15.08516804152308
 11
1.44071786018452
 21
20.00259453263793
  0
LINE
  5
295
100
AcDbEntity
  8
1
  6
CONTINUOUS
 62
             7
100
AcDbLine
 10
1.62220392971022
 20
14.4176090207615
 11
2.2032612966708
 21
14.95004999999995
  0
LINE
  5
294
100
AcDbEntity
  8
1
  6
CONTINUOUS
 62
             7
100
AcDbLine
 10
0.8630433211278
 20
14.95004999999995
 11
1.4747484623482
 21
14.28249097923838
  0
LINE
  5
293
100
AcDbEntity
  8
1
  6
CONTINUOUS
 62
             7
100
AcDbLine
 10
-1.8655272652278
 20
14.95004999999995
 11
0.8630433211278
 21
14.95004999999995
  0
LINE
  5
292
100
AcDbEntity
  8
1
  6
CONTINUOUS
 62
             7
100
AcDbLine
 10
0.05709761059211
 20
22.55004999999994
 11
-0.81541125681548
 21
26.35004999999994
  0
LINE
  5
291
100
AcDbEntity
  8
1
  6
CONTINUOUS
 62
             7
100
AcDbLine
 10
0.25786157810072
 20
22.55004999999994
 11
1.79528428830562
 21
26.35004999999994
  0
LINE
  5
290
100
AcDbEntity
  8
1
  6
CONTINUOUS
 62
             7
100
AcDbLine
 10
-0.81541125681548
 20
26.35004999999994
 11
-1.04187934492288
 21
23.76150790803006
  0
LINE
  5
28F
100
AcDbEntity
  8
1
  6
CONTINUOUS
 62
             7
100
AcDbLine
 10
-1.04187934492288
 20
23.76150790803006
 11
-0.5341118094872
 21
21.55004999999994
  0
LINE
  5
28E
100
AcDbEntity
  8
1
  6
CONTINUOUS
 62
             7
100
AcDbLine
 10
-0.5341118094872
 20
21.55004999999994
 11
-0.03039105293388
 21
21.55004999999994
  0
LINE
  5
28D
100
AcDbEntity
  8
1
  6
CONTINUOUS
 62
             7
100
AcDbLine
 10
-0.03039105293388
 20
21.55004999999994
 11
0.05709761059211
 21
22.55004999999994
  0
LINE
  5
28C
100
AcDbEntity
  8
1
  6
CONTINUOUS
 62
             7
100
AcDbLine
 10
0.25786157810072
 20
22.55004999999994
 11
0.17037291457481
 21
21.55004999999994
  0
LINE
  5
28B
100
AcDbEntity
  8
1
  6
CONTINUOUS
 62
             7
100
AcDbLine
 10
0.17037291457481
 20
21.55004999999994
 11
0.71627198154022
 21
21.55004999999994
  0
LINE
  5
28A
100
AcDbEntity
  8
1
  6
CONTINUOUS
 62
             7
100
AcDbLine
 10
0.71627198154022
 20
21.55004999999994
 11
1.55717896422092
 21
23.62849369214545
  0
LINE
  5
289
100
AcDbEntity
  8
1
  6
CONTINUOUS
 62
             7
100
AcDbLine
 10
1.55717896422092
 20
23.62849369214545
 11
1.79528428830562
 21
26.35004999999994
  0
LINE
  5
288
100
AcDbEntity
  8
1
  6
CONTINUOUS
 62
             7
100
AcDbLine
 10
-1.79528428830588
 20
15.15004999999995
 11
-0.25786157810128
 21
18.95004999999995
  0
LINE
  5
287
100
AcDbEntity
  8
1
  6
CONTINUOUS
 62
             7
100
AcDbLine
 10
-0.05709761059259
 20
18.95004999999995
 11
0.81541125681522
 21
15.15004999999995
  0
LINE
  5
286
100
AcDbEntity
  8
1
  6
CONTINUOUS
 62
             7
100
AcDbLine
 10
-0.25786157810128
 20
18.95004999999995
 11
-0.1703729145753
 21
19.95004999999995
  0
LINE
  5
285
100
AcDbEntity
  8
1
  6
CONTINUOUS
 62
             7
100
AcDbLine
 10
-0.1703729145753
 20
19.95004999999995
 11
-0.7162719815407
 21
19.95004999999995
  0
LINE
  5
284
100
AcDbEntity
  8
1
  6
CONTINUOUS
 62
             7
100
AcDbLine
 10
-0.7162719815407
 20
19.95004999999995
 11
-1.55717896422149
 21
17.87160630785438
  0
LINE
  5
283
100
AcDbEntity
  8
1
  6
CONTINUOUS
 62
             7
100
AcDbLine
 10
-1.55717896422149
 20
17.87160630785438
 11
-1.79528428830588
 21
15.15004999999995
  0
LINE
  5
282
100
AcDbEntity
  8
1
  6
CONTINUOUS
 62
             7
100
AcDbLine
 10
-0.05709761059259
 20
18.95004999999995
 11
0.03039105293331
 21
19.95004999999995
  0
LINE
  5
281
100
AcDbEntity
  8
1
  6
CONTINUOUS
 62
             7
100
AcDbLine
 10
0.03039105293331
 20
19.95004999999995
 11
0.53411180948672
 21
19.95004999999995
  0
LINE
  5
280
100
AcDbEntity
  8
1
  6
CONTINUOUS
 62
             7
100
AcDbLine
 10
0.53411180948672
 20
19.95004999999995
 11
1.04187934492231
 21
17.73859209196993
  0
LINE
  5
27F
100
AcDbEntity
  8
1
  6
CONTINUOUS
 62
             7
100
AcDbLine
 10
1.04187934492231
 20
17.73859209196993
 11
0.81541125681522
 21
15.15004999999995
  0
LINE
  5
27E
100
AcDbEntity
  8
1
  6
CONTINUOUS
 62
             7
100
AcDbLine
 10
3.18187020642802
 20
14.95004999999995
 11
3.66410989007702
 21
14.42377773368095
  0
LINE
  5
27D
100
AcDbEntity
  8
1
  6
CONTINUOUS
 62
             7
100
AcDbLine
 10
4.281467615249
 20
13.75004999999995
 11
7.29369109538772
 21
13.75004999999995
  0
LINE
  5
27C
100
AcDbEntity
  8
1
  6
CONTINUOUS
 62
             7
100
AcDbLine
 10
4.1967387033288
 20
26.55004999999994
 11
4.7777960702893
 21
27.08249097923837
  0
LINE
  5
27B
100
AcDbEntity
  8
1
  6
CONTINUOUS
 62
             7
100
AcDbLine
 10
5.5063089046119
 20
27.75004999999995
 11
8.5185323847507
 21
27.75004999999995
  0
LINE
  5
27A
100
AcDbEntity
  8
1
  6
CONTINUOUS
 62
             7
100
AcDbLine
 10
8.5185323847507
 20
27.75004999999995
 11
9.0007720683995
 21
27.22377773368096
  0
LINE
  5
279
100
AcDbEntity
  8
1
  6
CONTINUOUS
 62
             7
100
AcDbLine
 10
9.6181297935716
 20
26.55004999999994
 11
9.1760894250059
 21
21.49750546736196
  0
LINE
  5
278
100
AcDbEntity
  8
1
  6
CONTINUOUS
 62
             7
100
AcDbLine
 10
8.60326129667081
 20
14.95004999999995
 11
9.04638105013461
 21
20.01493195847681
  0
LINE
  5
277
100
AcDbEntity
  8
1
  6
CONTINUOUS
 62
             7
100
AcDbLine
 10
4.97702923230582
 20
20.15004999999995
 11
4.43288311184702
 21
20.74388128708051
  0
LINE
  5
276
100
AcDbEntity
  8
1
  6
CONTINUOUS
 62
             7
100
AcDbLine
 10
4.43288311184702
 20
20.74388128708051
 11
5.09440018133822
 21
21.35004999999994
  0
LINE
  5
275
100
AcDbEntity
  8
1
  6
CONTINUOUS
 62
             7
100
AcDbLine
 10
5.09440018133822
 20
21.35004999999994
 11
7.82297076769382
 21
21.35004999999994
  0
LINE
  5
274
100
AcDbEntity
  8
1
  6
CONTINUOUS
 62
             7
100
AcDbLine
 10
3.6239105749938
 20
20.00259453263793
 11
4.285427644485
 21
20.60876324555737
  0
LINE
  5
273
100
AcDbEntity
  8
1
  6
CONTINUOUS
 62
             7
100
AcDbLine
 10
3.6239105749938
 20
20.00259453263793
 11
3.18187020642802
 21
14.95004999999995
  0
LINE
  5
272
100
AcDbEntity
  8
1
  6
CONTINUOUS
 62
             7
100
AcDbLine
 10
4.285427644485
 20
20.60876324555737
 11
4.8295737649438
 21
20.01493195847681
  0
LINE
  5
271
100
AcDbEntity
  8
1
  6
CONTINUOUS
 62
             7
100
AcDbLine
 10
4.8295737649438
 20
20.01493195847681
 11
4.40475290030273
 21
15.15920725632435
  0
LINE
  5
270
100
AcDbEntity
  8
1
  6
CONTINUOUS
 62
             7
100
AcDbLine
 10
3.75361894986511
 20
21.48516804152308
 11
4.29776507032392
 21
20.89133675444252
  0
LINE
  5
26F
100
AcDbEntity
  8
1
  6
CONTINUOUS
 62
             7
100
AcDbLine
 10
3.75361894986511
 20
21.48516804152308
 11
4.1967387033288
 21
26.55004999999994
  0
LINE
  5
26E
100
AcDbEntity
  8
1
  6
CONTINUOUS
 62
             7
100
AcDbLine
 10
4.29776507032392
 20
20.89133675444252
 11
4.95928213981512
 21
21.49750546736196
  0
LINE
  5
26D
100
AcDbEntity
  8
1
  6
CONTINUOUS
 62
             7
100
AcDbLine
 10
7.97042623505581
 20
21.48516804152308
 11
8.51457235551482
 21
20.89133675444252
  0
LINE
  5
26C
100
AcDbEntity
  8
1
  6
CONTINUOUS
 62
             7
100
AcDbLine
 10
7.97042623505581
 20
21.48516804152308
 11
8.4006453067505
 21
26.40259453263792
  0
LINE
  5
26B
100
AcDbEntity
  8
1
  6
CONTINUOUS
 62
             7
100
AcDbLine
 10
8.51457235551482
 20
20.89133675444252
 11
9.1760894250059
 21
21.49750546736196
  0
LINE
  5
26A
100
AcDbEntity
  8
1
  6
CONTINUOUS
 62
             7
100
AcDbLine
 10
7.84071786018461
 20
20.00259453263793
 11
8.50223492967581
 21
20.60876324555737
  0
LINE
  5
269
100
AcDbEntity
  8
1
  6
CONTINUOUS
 62
             7
100
AcDbLine
 10
8.50223492967581
 20
20.60876324555737
 11
9.04638105013461
 21
20.01493195847681
  0
LINE
  5
268
100
AcDbEntity
  8
1
  6
CONTINUOUS
 62
             7
100
AcDbLine
 10
7.7055998186614
 20
20.15004999999995
 11
8.36711688815262
 21
20.75621871291938
  0
LINE
  5
267
100
AcDbEntity
  8
1
  6
CONTINUOUS
 62
             7
100
AcDbLine
 10
7.7055998186614
 20
20.15004999999995
 11
4.97702923230582
 21
20.15004999999995
  0
LINE
  5
266
100
AcDbEntity
  8
1
  6
CONTINUOUS
 62
             7
100
AcDbLine
 10
8.36711688815262
 20
20.75621871291938
 11
7.82297076769382
 21
21.35004999999994
  0
LINE
  5
265
100
AcDbEntity
  8
1
  6
CONTINUOUS
 62
             7
100
AcDbLine
 10
4.7777960702893
 20
27.08249097923837
 11
5.38950121150973
 21
26.41493195847681
  0
LINE
  5
264
100
AcDbEntity
  8
1
  6
CONTINUOUS
 62
             7
100
AcDbLine
 10
5.38950121150973
 20
26.41493195847681
 11
4.95928213981512
 21
21.49750546736196
  0
LINE
  5
263
100
AcDbEntity
  8
1
  6
CONTINUOUS
 62
             7
100
AcDbLine
 10
5.53695667887172
 20
26.55004999999994
 11
4.92525153765141
 21
27.2176090207615
  0
LINE
  5
262
100
AcDbEntity
  8
1
  6
CONTINUOUS
 62
             7
100
AcDbLine
 10
4.92525153765141
 20
27.2176090207615
 11
5.5063089046119
 21
27.75004999999995
  0
LINE
  5
261
100
AcDbEntity
  8
1
  6
CONTINUOUS
 62
             7
100
AcDbLine
 10
8.26552726522732
 20
26.55004999999994
 11
9.0007720683995
 21
27.22377773368096
  0
LINE
  5
260
100
AcDbEntity
  8
1
  6
CONTINUOUS
 62
             7
100
AcDbLine
 10
8.26552726522732
 20
26.55004999999994
 11
5.53695667887172
 21
26.55004999999994
  0
LINE
  5
25F
100
AcDbEntity
  8
1
  6
CONTINUOUS
 62
             7
100
AcDbLine
 10
8.4006453067505
 20
26.40259453263792
 11
9.1358901099226
 21
27.07632226631894
  0
LINE
  5
25E
100
AcDbEntity
  8
1
  6
CONTINUOUS
 62
             7
100
AcDbLine
 10
9.1358901099226
 20
27.07632226631894
 11
9.6181297935716
 21
26.55004999999994
  0
LINE
  5
25D
100
AcDbEntity
  8
1
  6
CONTINUOUS
 62
             7
100
AcDbLine
 10
4.40475290030273
 20
15.15920725632435
 11
3.66410989007702
 21
14.42377773368095
  0
LINE
  5
25C
100
AcDbEntity
  8
1
  6
CONTINUOUS
 62
             7
100
AcDbLine
 10
3.79922793160012
 20
14.27632226631893
 11
4.53447273477232
 21
14.95004999999995
  0
LINE
  5
25B
100
AcDbEntity
  8
1
  6
CONTINUOUS
 62
             7
100
AcDbLine
 10
3.79922793160012
 20
14.27632226631893
 11
4.281467615249
 21
13.75004999999995
  0
LINE
  5
25A
100
AcDbEntity
  8
1
  6
CONTINUOUS
 62
             7
100
AcDbLine
 10
7.29369109538772
 20
13.75004999999995
 11
7.87474846234832
 21
14.28249097923838
  0
LINE
  5
259
100
AcDbEntity
  8
1
  6
CONTINUOUS
 62
             7
100
AcDbLine
 10
8.02220392971032
 20
14.4176090207615
 11
7.41049878848992
 21
15.08516804152308
  0
LINE
  5
258
100
AcDbEntity
  8
1
  6
CONTINUOUS
 62
             7
100
AcDbLine
 10
7.41049878848992
 20
15.08516804152308
 11
7.84071786018461
 21
20.00259453263793
  0
LINE
  5
257
100
AcDbEntity
  8
1
  6
CONTINUOUS
 62
             7
100
AcDbLine
 10
8.02220392971032
 20
14.4176090207615
 11
8.60326129667081
 21
14.95004999999995
  0
LINE
  5
256
100
AcDbEntity
  8
1
  6
CONTINUOUS
 62
             7
100
AcDbLine
 10
7.26304332112792
 20
14.95004999999995
 11
7.87474846234832
 21
14.28249097923838
  0
LINE
  5
255
100
AcDbEntity
  8
1
  6
CONTINUOUS
 62
             7
100
AcDbLine
 10
4.53447273477232
 20
14.95004999999995
 11
7.26304332112792
 21
14.95004999999995
  0
LINE
  5
254
100
AcDbEntity
  8
1
  6
CONTINUOUS
 62
             7
100
AcDbLine
 10
6.4570976105922
 20
22.55004999999994
 11
5.5845887431843
 21
26.35004999999994
  0
LINE
  5
253
100
AcDbEntity
  8
1
  6
CONTINUOUS
 62
             7
100
AcDbLine
 10
6.65786157810081
 20
22.55004999999994
 11
8.19528428830571
 21
26.35004999999994
  0
LINE
  5
252
100
AcDbEntity
  8
1
  6
CONTINUOUS
 62
             7
100
AcDbLine
 10
5.5845887431843
 20
26.35004999999994
 11
5.35812065507722
 21
23.76150790803006
  0
LINE
  5
251
100
AcDbEntity
  8
1
  6
CONTINUOUS
 62
             7
100
AcDbLine
 10
5.35812065507722
 20
23.76150790803006
 11
5.86588819051292
 21
21.55004999999994
  0
LINE
  5
250
100
AcDbEntity
  8
1
  6
CONTINUOUS
 62
             7
100
AcDbLine
 10
5.86588819051292
 20
21.55004999999994
 11
6.36960894706621
 21
21.55004999999994
  0
LINE
  5
24F
100
AcDbEntity
  8
1
  6
CONTINUOUS
 62
             7
100
AcDbLine
 10
6.36960894706621
 20
21.55004999999994
 11
6.4570976105922
 21
22.55004999999994
  0
LINE
  5
24E
100
AcDbEntity
  8
1
  6
CONTINUOUS
 62
             7
100
AcDbLine
 10
6.65786157810081
 20
22.55004999999994
 11
6.5703729145749
 21
21.55004999999994
  0
LINE
  5
24D
100
AcDbEntity
  8
1
  6
CONTINUOUS
 62
             7
100
AcDbLine
 10
6.5703729145749
 20
21.55004999999994
 11
7.11627198154031
 21
21.55004999999994
  0
LINE
  5
24C
100
AcDbEntity
  8
1
  6
CONTINUOUS
 62
             7
100
AcDbLine
 10
7.11627198154031
 20
21.55004999999994
 11
7.95717896422101
 21
23.62849369214545
  0
LINE
  5
24B
100
AcDbEntity
  8
1
  6
CONTINUOUS
 62
             7
100
AcDbLine
 10
7.95717896422101
 20
23.62849369214545
 11
8.19528428830571
 21
26.35004999999994
  0
LINE
  5
24A
100
AcDbEntity
  8
1
  6
CONTINUOUS
 62
             7
100
AcDbLine
 10
4.6047157116939
 20
15.15004999999995
 11
6.14213842189881
 21
18.95004999999995
  0
LINE
  5
249
100
AcDbEntity
  8
1
  6
CONTINUOUS
 62
             7
100
AcDbLine
 10
6.3429023894075
 20
18.95004999999995
 11
7.21541125681532
 21
15.15004999999995
  0
LINE
  5
248
100
AcDbEntity
  8
1
  6
CONTINUOUS
 62
             7
100
AcDbLine
 10
6.14213842189881
 20
18.95004999999995
 11
6.22962708542482
 21
19.95004999999995
  0
LINE
  5
247
100
AcDbEntity
  8
1
  6
CONTINUOUS
 62
             7
100
AcDbLine
 10
6.22962708542482
 20
19.95004999999995
 11
5.68372801845942
 21
19.95004999999995
  0
LINE
  5
246
100
AcDbEntity
  8
1
  6
CONTINUOUS
 62
             7
100
AcDbLine
 10
5.68372801845942
 20
19.95004999999995
 11
4.8428210357786
 21
17.87160630785438
  0
LINE
  5
245
100
AcDbEntity
  8
1
  6
CONTINUOUS
 62
             7
100
AcDbLine
 10
4.8428210357786
 20
17.87160630785438
 11
4.6047157116939
 21
15.15004999999995
  0
LINE
  5
244
100
AcDbEntity
  8
1
  6
CONTINUOUS
 62
             7
100
AcDbLine
 10
6.3429023894075
 20
18.95004999999995
 11
6.4303910529334
 21
19.95004999999995
  0
LINE
  5
243
100
AcDbEntity
  8
1
  6
CONTINUOUS
 62
             7
100
AcDbLine
 10
6.4303910529334
 20
19.95004999999995
 11
6.93411180948681
 21
19.95004999999995
  0
LINE
  5
242
100
AcDbEntity
  8
1
  6
CONTINUOUS
 62
             7
100
AcDbLine
 10
6.93411180948681
 20
19.95004999999995
 11
7.4418793449224
 21
17.73859209196993
  0
LINE
  5
241
100
AcDbEntity
  8
1
  6
CONTINUOUS
 62
             7
100
AcDbLine
 10
7.4418793449224
 20
17.73859209196993
 11
7.21541125681532
 21
15.15004999999995
  0
LINE
  5
240
100
AcDbEntity
  8
1
  6
CONTINUOUS
 62
             7
100
AcDbLine
 10
9.58187020642811
 20
14.95004999999995
 11
10.06410989007711
 21
14.42377773368095
  0
LINE
  5
23F
100
AcDbEntity
  8
1
  6
CONTINUOUS
 62
             7
100
AcDbLine
 10
10.68146761524912
 20
13.75004999999995
 11
13.69369109538781
 21
13.75004999999995
  0
LINE
  5
23E
100
AcDbEntity
  8
1
  6
CONTINUOUS
 62
             7
100
AcDbLine
 10
10.59673870332892
 20
26.55004999999994
 11
11.17779607028942
 21
27.08249097923837
  0
LINE
  5
23D
100
AcDbEntity
  8
1
  6
CONTINUOUS
 62
             7
100
AcDbLine
 10
11.90630890461202
 20
27.75004999999995
 11
14.91853238475071
 21
27.75004999999995
  0
LINE
  5
23C
100
AcDbEntity
  8
1
  6
CONTINUOUS
 62
             7
100
AcDbLine
 10
14.91853238475071
 20
27.75004999999995
 11
15.40077206839962
 21
27.22377773368096
  0
LINE
  5
23B
100
AcDbEntity
  8
1
  6
CONTINUOUS
 62
             7
100
AcDbLine
 10
16.01812979357172
 20
26.55004999999994
 11
15.5760894250059
 21
21.49750546736196
  0
LINE
  5
23A
100
AcDbEntity
  8
1
  6
CONTINUOUS
 62
             7
100
AcDbLine
 10
15.0032612966709
 20
14.95004999999995
 11
15.4463810501347
 21
20.01493195847681
  0
LINE
  5
239
100
AcDbEntity
  8
1
  6
CONTINUOUS
 62
             7
100
AcDbLine
 10
11.37702923230592
 20
20.15004999999995
 11
10.83288311184711
 21
20.74388128708051
  0
LINE
  5
238
100
AcDbEntity
  8
1
  6
CONTINUOUS
 62
             7
100
AcDbLine
 10
10.83288311184711
 20
20.74388128708051
 11
11.49440018133831
 21
21.35004999999994
  0
LINE
  5
237
100
AcDbEntity
  8
1
  6
CONTINUOUS
 62
             7
100
AcDbLine
 10
11.49440018133831
 20
21.35004999999994
 11
14.22297076769391
 21
21.35004999999994
  0
LINE
  5
236
100
AcDbEntity
  8
1
  6
CONTINUOUS
 62
             7
100
AcDbLine
 10
10.02391057499392
 20
20.00259453263793
 11
10.68542764448512
 21
20.60876324555737
  0
LINE
  5
235
100
AcDbEntity
  8
1
  6
CONTINUOUS
 62
             7
100
AcDbLine
 10
10.02391057499392
 20
20.00259453263793
 11
9.58187020642811
 21
14.95004999999995
  0
LINE
  5
234
100
AcDbEntity
  8
1
  6
CONTINUOUS
 62
             7
100
AcDbLine
 10
10.68542764448512
 20
20.60876324555737
 11
11.22957376494392
 21
20.01493195847681
  0
LINE
  5
233
100
AcDbEntity
  8
1
  6
CONTINUOUS
 62
             7
100
AcDbLine
 10
11.22957376494392
 20
20.01493195847681
 11
10.80475290030282
 21
15.15920725632435
  0
LINE
  5
232
100
AcDbEntity
  8
1
  6
CONTINUOUS
 62
             7
100
AcDbLine
 10
10.15361894986521
 20
21.48516804152308
 11
10.69776507032401
 21
20.89133675444252
  0
LINE
  5
231
100
AcDbEntity
  8
1
  6
CONTINUOUS
 62
             7
100
AcDbLine
 10
10.15361894986521
 20
21.48516804152308
 11
10.59673870332892
 21
26.55004999999994
  0
LINE
  5
230
100
AcDbEntity
  8
1
  6
CONTINUOUS
 62
             7
100
AcDbLine
 10
10.69776507032401
 20
20.89133675444252
 11
11.35928213981521
 21
21.49750546736196
  0
LINE
  5
22F
100
AcDbEntity
  8
1
  6
CONTINUOUS
 62
             7
100
AcDbLine
 10
14.3704262350559
 20
21.48516804152308
 11
14.91457235551471
 21
20.89133675444252
  0
LINE
  5
22E
100
AcDbEntity
  8
1
  6
CONTINUOUS
 62
             7
100
AcDbLine
 10
14.3704262350559
 20
21.48516804152308
 11
14.80064530675062
 21
26.40259453263792
  0
LINE
  5
22D
100
AcDbEntity
  8
1
  6
CONTINUOUS
 62
             7
100
AcDbLine
 10
14.91457235551471
 20
20.89133675444252
 11
15.5760894250059
 21
21.49750546736196
  0
LINE
  5
22C
100
AcDbEntity
  8
1
  6
CONTINUOUS
 62
             7
100
AcDbLine
 10
14.2407178601847
 20
20.00259453263793
 11
14.9022349296759
 21
20.60876324555737
  0
LINE
  5
22B
100
AcDbEntity
  8
1
  6
CONTINUOUS
 62
             7
100
AcDbLine
 10
14.9022349296759
 20
20.60876324555737
 11
15.4463810501347
 21
20.01493195847681
  0
LINE
  5
22A
100
AcDbEntity
  8
1
  6
CONTINUOUS
 62
             7
100
AcDbLine
 10
14.10559981866152
 20
20.15004999999995
 11
14.76711688815271
 21
20.75621871291938
  0
LINE
  5
229
100
AcDbEntity
  8
1
  6
CONTINUOUS
 62
             7
100
AcDbLine
 10
14.10559981866152
 20
20.15004999999995
 11
11.37702923230592
 21
20.15004999999995
  0
LINE
  5
228
100
AcDbEntity
  8
1
  6
CONTINUOUS
 62
             7
100
AcDbLine
 10
14.76711688815271
 20
20.75621871291938
 11
14.22297076769391
 21
21.35004999999994
  0
LINE
  5
227
100
AcDbEntity
  8
1
  6
CONTINUOUS
 62
             7
100
AcDbLine
 10
11.17779607028942
 20
27.08249097923837
 11
11.78950121150982
 21
26.41493195847681
  0
LINE
  5
226
100
AcDbEntity
  8
1
  6
CONTINUOUS
 62
             7
100
AcDbLine
 10
11.78950121150982
 20
26.41493195847681
 11
11.35928213981521
 21
21.49750546736196
  0
LINE
  5
225
100
AcDbEntity
  8
1
  6
CONTINUOUS
 62
             7
100
AcDbLine
 10
11.93695667887181
 20
26.55004999999994
 11
11.32525153765153
 21
27.2176090207615
  0
LINE
  5
224
100
AcDbEntity
  8
1
  6
CONTINUOUS
 62
             7
100
AcDbLine
 10
11.32525153765153
 20
27.2176090207615
 11
11.90630890461202
 21
27.75004999999995
  0
LINE
  5
223
100
AcDbEntity
  8
1
  6
CONTINUOUS
 62
             7
100
AcDbLine
 10
14.66552726522741
 20
26.55004999999994
 11
15.40077206839962
 21
27.22377773368096
  0
LINE
  5
222
100
AcDbEntity
  8
1
  6
CONTINUOUS
 62
             7
100
AcDbLine
 10
14.66552726522741
 20
26.55004999999994
 11
11.93695667887181
 21
26.55004999999994
  0
LINE
  5
221
100
AcDbEntity
  8
1
  6
CONTINUOUS
 62
             7
100
AcDbLine
 10
14.80064530675062
 20
26.40259453263792
 11
15.53589010992272
 21
27.07632226631894
  0
LINE
  5
220
100
AcDbEntity
  8
1
  6
CONTINUOUS
 62
             7
100
AcDbLine
 10
15.53589010992272
 20
27.07632226631894
 11
16.01812979357172
 21
26.55004999999994
  0
LINE
  5
21F
100
AcDbEntity
  8
1
  6
CONTINUOUS
 62
             7
100
AcDbLine
 10
10.80475290030282
 20
15.15920725632435
 11
10.06410989007711
 21
14.42377773368095
  0
LINE
  5
21E
100
AcDbEntity
  8
1
  6
CONTINUOUS
 62
             7
100
AcDbLine
 10
10.19922793160021
 20
14.27632226631893
 11
10.93447273477241
 21
14.95004999999995
  0
LINE
  5
21D
100
AcDbEntity
  8
1
  6
CONTINUOUS
 62
             7
100
AcDbLine
 10
10.19922793160021
 20
14.27632226631893
 11
10.68146761524912
 21
13.75004999999995
  0
LINE
  5
21C
100
AcDbEntity
  8
1
  6
CONTINUOUS
 62
             7
100
AcDbLine
 10
13.69369109538781
 20
13.75004999999995
 11
14.27474846234841
 21
14.28249097923838
  0
LINE
  5
21B
100
AcDbEntity
  8
1
  6
CONTINUOUS
 62
             7
100
AcDbLine
 10
14.42220392971041
 20
14.4176090207615
 11
13.81049878849001
 21
15.08516804152308
  0
LINE
  5
21A
100
AcDbEntity
  8
1
  6
CONTINUOUS
 62
             7
100
AcDbLine
 10
13.81049878849001
 20
15.08516804152308
 11
14.2407178601847
 21
20.00259453263793
  0
LINE
  5
219
100
AcDbEntity
  8
1
  6
CONTINUOUS
 62
             7
100
AcDbLine
 10
14.42220392971041
 20
14.4176090207615
 11
15.0032612966709
 21
14.95004999999995
  0
LINE
  5
218
100
AcDbEntity
  8
1
  6
CONTINUOUS
 62
             7
100
AcDbLine
 10
13.66304332112802
 20
14.95004999999995
 11
14.27474846234841
 21
14.28249097923838
  0
LINE
  5
217
100
AcDbEntity
  8
1
  6
CONTINUOUS
 62
             7
100
AcDbLine
 10
10.93447273477241
 20
14.95004999999995
 11
13.66304332112802
 21
14.95004999999995
  0
LINE
  5
216
100
AcDbEntity
  8
1
  6
CONTINUOUS
 62
             7
100
AcDbLine
 10
12.85709761059221
 20
22.55004999999994
 11
11.9845887431843
 21
26.35004999999994
  0
LINE
  5
215
100
AcDbEntity
  8
1
  6
CONTINUOUS
 62
             7
100
AcDbLine
 10
13.0578615781009
 20
22.55004999999994
 11
14.59528428830581
 21
26.35004999999994
  0
LINE
  5
214
100
AcDbEntity
  8
1
  6
CONTINUOUS
 62
             7
100
AcDbLine
 10
11.9845887431843
 20
26.35004999999994
 11
11.75812065507731
 21
23.76150790803006
  0
LINE
  5
213
100
AcDbEntity
  8
1
  6
CONTINUOUS
 62
             7
100
AcDbLine
 10
11.75812065507731
 20
23.76150790803006
 11
12.26588819051301
 21
21.55004999999994
  0
LINE
  5
212
100
AcDbEntity
  8
1
  6
CONTINUOUS
 62
             7
100
AcDbLine
 10
12.26588819051301
 20
21.55004999999994
 11
12.7696089470663
 21
21.55004999999994
  0
LINE
  5
211
100
AcDbEntity
  8
1
  6
CONTINUOUS
 62
             7
100
AcDbLine
 10
12.7696089470663
 20
21.55004999999994
 11
12.85709761059221
 21
22.55004999999994
  0
LINE
  5
210
100
AcDbEntity
  8
1
  6
CONTINUOUS
 62
             7
100
AcDbLine
 10
13.0578615781009
 20
22.55004999999994
 11
12.97037291457502
 21
21.55004999999994
  0
LINE
  5
20F
100
AcDbEntity
  8
1
  6
CONTINUOUS
 62
             7
100
AcDbLine
 10
12.97037291457502
 20
21.55004999999994
 11
13.5162719815404
 21
21.55004999999994
  0
LINE
  5
20E
100
AcDbEntity
  8
1
  6
CONTINUOUS
 62
             7
100
AcDbLine
 10
13.5162719815404
 20
21.55004999999994
 11
14.35717896422111
 21
23.62849369214545
  0
LINE
  5
20D
100
AcDbEntity
  8
1
  6
CONTINUOUS
 62
             7
100
AcDbLine
 10
14.35717896422111
 20
23.62849369214545
 11
14.59528428830581
 21
26.35004999999994
  0
LINE
  5
20C
100
AcDbEntity
  8
1
  6
CONTINUOUS
 62
             7
100
AcDbLine
 10
11.00471571169402
 20
15.15004999999995
 11
12.5421384218989
 21
18.95004999999995
  0
LINE
  5
20B
100
AcDbEntity
  8
1
  6
CONTINUOUS
 62
             7
100
AcDbLine
 10
12.74290238940762
 20
18.95004999999995
 11
13.61541125681541
 21
15.15004999999995
  0
LINE
  5
20A
100
AcDbEntity
  8
1
  6
CONTINUOUS
 62
             7
100
AcDbLine
 10
12.5421384218989
 20
18.95004999999995
 11
12.6296270854248
 21
19.95004999999995
  0
LINE
  5
209
100
AcDbEntity
  8
1
  6
CONTINUOUS
 62
             7
100
AcDbLine
 10
12.6296270854248
 20
19.95004999999995
 11
12.08372801845951
 21
19.95004999999995
  0
LINE
  5
208
100
AcDbEntity
  8
1
  6
CONTINUOUS
 62
             7
100
AcDbLine
 10
12.08372801845951
 20
19.95004999999995
 11
11.24282103577872
 21
17.87160630785438
  0
LINE
  5
207
100
AcDbEntity
  8
1
  6
CONTINUOUS
 62
             7
100
AcDbLine
 10
11.24282103577872
 20
17.87160630785438
 11
11.00471571169402
 21
15.15004999999995
  0
LINE
  5
206
100
AcDbEntity
  8
1
  6
CONTINUOUS
 62
             7
100
AcDbLine
 10
12.74290238940762
 20
18.95004999999995
 11
12.83039105293352
 21
19.95004999999995
  0
LINE
  5
205
100
AcDbEntity
  8
1
  6
CONTINUOUS
 62
             7
100
AcDbLine
 10
12.83039105293352
 20
19.95004999999995
 11
13.3341118094869
 21
19.95004999999995
  0
LINE
  5
204
100
AcDbEntity
  8
1
  6
CONTINUOUS
 62
             7
100
AcDbLine
 10
13.3341118094869
 20
19.95004999999995
 11
13.84187934492252
 21
17.73859209196993
  0
LINE
  5
203
100
AcDbEntity
  8
1
  6
CONTINUOUS
 62
             7
100
AcDbLine
 10
13.84187934492252
 20
17.73859209196993
 11
13.61541125681541
 21
15.15004999999995
  0
LINE
  5
202
100
AcDbEntity
  8
1
  6
CONTINUOUS
 62
             7
100
AcDbLine
 10
20.24187934492261
 20
17.73859209196993
 11
20.01541125681553
 21
15.15004999999995
  0
LINE
  5
201
100
AcDbEntity
  8
1
  6
CONTINUOUS
 62
             7
100
AcDbLine
 10
19.73411180948691
 20
19.95004999999995
 11
20.24187934492261
 21
17.73859209196993
  0
LINE
  5
200
100
AcDbEntity
  8
1
  6
CONTINUOUS
 62
             7
100
AcDbLine
 10
19.23039105293361
 20
19.95004999999995
 11
19.73411180948691
 21
19.95004999999995
  0
LINE
  5
1FF
100
AcDbEntity
  8
1
  6
CONTINUOUS
 62
             7
100
AcDbLine
 10
19.14290238940771
 20
18.95004999999995
 11
19.23039105293361
 21
19.95004999999995
  0
LINE
  5
1FE
100
AcDbEntity
  8
1
  6
CONTINUOUS
 62
             7
100
AcDbLine
 10
17.64282103577881
 20
17.87160630785438
 11
17.40471571169411
 21
15.15004999999995
  0
LINE
  5
1FD
100
AcDbEntity
  8
1
  6
CONTINUOUS
 62
             7
100
AcDbLine
 10
18.4837280184596
 20
19.95004999999995
 11
17.64282103577881
 21
17.87160630785438
  0
LINE
  5
1FC
100
AcDbEntity
  8
1
  6
CONTINUOUS
 62
             7
100
AcDbLine
 10
19.02962708542492
 20
19.95004999999995
 11
18.4837280184596
 21
19.95004999999995
  0
LINE
  5
1FB
100
AcDbEntity
  8
1
  6
CONTINUOUS
 62
             7
100
AcDbLine
 10
18.94213842189902
 20
18.95004999999995
 11
19.02962708542492
 21
19.95004999999995
  0
LINE
  5
1FA
100
AcDbEntity
  8
1
  6
CONTINUOUS
 62
             7
100
AcDbLine
 10
19.14290238940771
 20
18.95004999999995
 11
20.01541125681553
 21
15.15004999999995
  0
LINE
  5
1F9
100
AcDbEntity
  8
1
  6
CONTINUOUS
 62
             7
100
AcDbLine
 10
17.40471571169411
 20
15.15004999999995
 11
18.94213842189902
 21
18.95004999999995
  0
LINE
  5
1F8
100
AcDbEntity
  8
1
  6
CONTINUOUS
 62
             7
100
AcDbLine
 10
20.75717896422123
 20
23.62849369214545
 11
20.99528428830593
 21
26.35004999999994
  0
LINE
  5
1F7
100
AcDbEntity
  8
1
  6
CONTINUOUS
 62
             7
100
AcDbLine
 10
19.91627198154041
 20
21.55004999999994
 11
20.75717896422123
 21
23.62849369214545
  0
LINE
  5
1F6
100
AcDbEntity
  8
1
  6
CONTINUOUS
 62
             7
100
AcDbLine
 10
19.370372914575
 20
21.55004999999994
 11
19.91627198154041
 21
21.55004999999994
  0
LINE
  5
1F5
100
AcDbEntity
  8
1
  6
CONTINUOUS
 62
             7
100
AcDbLine
 10
19.45786157810102
 20
22.55004999999994
 11
19.370372914575
 21
21.55004999999994
  0
LINE
  5
1F4
100
AcDbEntity
  8
1
  6
CONTINUOUS
 62
             7
100
AcDbLine
 10
19.16960894706642
 20
21.55004999999994
 11
19.25709761059233
 21
22.55004999999994
  0
LINE
  5
1F3
100
AcDbEntity
  8
1
  6
CONTINUOUS
 62
             7
100
AcDbLine
 10
18.6658881905131
 20
21.55004999999994
 11
19.16960894706642
 21
21.55004999999994
  0
LINE
  5
1F2
100
AcDbEntity
  8
1
  6
CONTINUOUS
 62
             7
100
AcDbLine
 10
18.15812065507743
 20
23.76150790803006
 11
18.6658881905131
 21
21.55004999999994
  0
LINE
  5
1F1
100
AcDbEntity
  8
1
  6
CONTINUOUS
 62
             7
100
AcDbLine
 10
18.38458874318442
 20
26.35004999999994
 11
18.15812065507743
 21
23.76150790803006
  0
LINE
  5
1F0
100
AcDbEntity
  8
1
  6
CONTINUOUS
 62
             7
100
AcDbLine
 10
19.45786157810102
 20
22.55004999999994
 11
20.99528428830593
 21
26.35004999999994
  0
LINE
  5
1EF
100
AcDbEntity
  8
1
  6
CONTINUOUS
 62
             7
100
AcDbLine
 10
19.25709761059233
 20
22.55004999999994
 11
18.38458874318442
 21
26.35004999999994
  0
LINE
  5
1EE
100
AcDbEntity
  8
1
  6
CONTINUOUS
 62
             7
100
AcDbLine
 10
17.3344727347725
 20
14.95004999999995
 11
20.06304332112811
 21
14.95004999999995
  0
LINE
  5
1ED
100
AcDbEntity
  8
1
  6
CONTINUOUS
 62
             7
100
AcDbLine
 10
20.06304332112811
 20
14.95004999999995
 11
20.6747484623485
 21
14.28249097923838
  0
LINE
  5
1EC
100
AcDbEntity
  8
1
  6
CONTINUOUS
 62
             7
100
AcDbLine
 10
20.82220392971053
 20
14.4176090207615
 11
21.40326129667102
 21
14.95004999999995
  0
LINE
  5
1EB
100
AcDbEntity
  8
1
  6
CONTINUOUS
 62
             7
100
AcDbLine
 10
20.2104987884901
 20
15.08516804152308
 11
20.64071786018471
 21
20.00259453263793
  0
LINE
  5
1EA
100
AcDbEntity
  8
1
  6
CONTINUOUS
 62
             7
100
AcDbLine
 10
20.82220392971053
 20
14.4176090207615
 11
20.2104987884901
 21
15.08516804152308
  0
LINE
  5
1E9
100
AcDbEntity
  8
1
  6
CONTINUOUS
 62
             7
100
AcDbLine
 10
20.09369109538793
 20
13.75004999999995
 11
20.6747484623485
 21
14.28249097923838
  0
LINE
  5
1E8
100
AcDbEntity
  8
1
  6
CONTINUOUS
 62
             7
100
AcDbLine
 10
16.59922793160033
 20
14.27632226631893
 11
17.08146761524921
 21
13.75004999999995
  0
LINE
  5
1E7
100
AcDbEntity
  8
1
  6
CONTINUOUS
 62
             7
100
AcDbLine
 10
16.59922793160033
 20
14.27632226631893
 11
17.3344727347725
 21
14.95004999999995
  0
LINE
  5
1E6
100
AcDbEntity
  8
1
  6
CONTINUOUS
 62
             7
100
AcDbLine
 10
17.20475290030291
 20
15.15920725632435
 11
16.46410989007723
 21
14.42377773368095
  0
LINE
  5
1E5
100
AcDbEntity
  8
1
  6
CONTINUOUS
 62
             7
100
AcDbLine
 10
21.93589010992281
 20
26.92632226631893
 11
22.41812979357181
 21
26.40004999999995
  0
LINE
  5
1E4
100
AcDbEntity
  8
1
  6
CONTINUOUS
 62
             7
100
AcDbLine
 10
21.2006453067506
 20
26.25259453263791
 11
21.93589010992281
 21
26.92632226631893
  0
LINE
  5
1E3
100
AcDbEntity
  8
1
  6
CONTINUOUS
 62
             7
100
AcDbLine
 10
21.0655272652275
 20
26.55004999999994
 11
18.3369566788719
 21
26.55004999999994
  0
LINE
  5
1E2
100
AcDbEntity
  8
1
  6
CONTINUOUS
 62
             7
100
AcDbLine
 10
21.0655272652275
 20
26.40004999999995
 11
21.80077206839971
 21
27.07377773368097
  0
LINE
  5
1E1
100
AcDbEntity
  8
1
  6
CONTINUOUS
 62
             7
100
AcDbLine
 10
17.7252515376515
 20
27.2176090207615
 11
18.30630890461211
 21
27.75004999999995
  0
LINE
  5
1E0
100
AcDbEntity
  8
1
  6
CONTINUOUS
 62
             7
100
AcDbLine
 10
18.3369566788719
 20
26.55004999999994
 11
17.7252515376515
 21
27.2176090207615
  0
LINE
  5
1DF
100
AcDbEntity
  8
1
  6
CONTINUOUS
 62
             7
100
AcDbLine
 10
18.18950121150991
 20
26.41493195847681
 11
17.7592821398153
 21
21.49750546736196
  0
LINE
  5
1DE
100
AcDbEntity
  8
1
  6
CONTINUOUS
 62
             7
100
AcDbLine
 10
17.57779607028951
 20
27.08249097923837
 11
18.18950121150991
 21
26.41493195847681
  0
LINE
  5
1DD
100
AcDbEntity
  8
1
  6
CONTINUOUS
 62
             7
100
AcDbLine
 10
21.16711688815281
 20
20.75621871291938
 11
20.622970767694
 21
21.35004999999994
  0
LINE
  5
1DC
100
AcDbEntity
  8
1
  6
CONTINUOUS
 62
             7
100
AcDbLine
 10
20.50559981866161
 20
20.15004999999995
 11
17.77702923230601
 21
20.15004999999995
  0
LINE
  5
1DB
100
AcDbEntity
  8
1
  6
CONTINUOUS
 62
             7
100
AcDbLine
 10
20.50559981866161
 20
20.15004999999995
 11
21.16711688815281
 21
20.75621871291938
  0
LINE
  5
1DA
100
AcDbEntity
  8
1
  6
CONTINUOUS
 62
             7
100
AcDbLine
 10
21.30223492967591
 20
20.45876324555736
 11
21.84638105013482
 21
19.8649319584768
  0
LINE
  5
1D9
100
AcDbEntity
  8
1
  6
CONTINUOUS
 62
             7
100
AcDbLine
 10
20.64071786018471
 20
20.00259453263793
 11
21.30223492967591
 21
20.60876324555737
  0
LINE
  5
1D8
100
AcDbEntity
  8
1
  6
CONTINUOUS
 62
             7
100
AcDbLine
 10
21.3145723555148
 20
20.74133675444251
 11
21.97608942500602
 21
21.34750546736197
  0
LINE
  5
1D7
100
AcDbEntity
  8
1
  6
CONTINUOUS
 62
             7
100
AcDbLine
 10
20.77042623505602
 20
21.48516804152308
 11
21.2006453067506
 21
26.40259453263792
  0
LINE
  5
1D6
100
AcDbEntity
  8
1
  6
CONTINUOUS
 62
             7
100
AcDbLine
 10
20.77042623505602
 20
21.48516804152308
 11
21.3145723555148
 21
20.89133675444252
  0
LINE
  5
1D5
100
AcDbEntity
  8
1
  6
CONTINUOUS
 62
             7
100
AcDbLine
 10
17.0977650703241
 20
20.89133675444252
 11
17.7592821398153
 21
21.49750546736196
  0
LINE
  5
1D4
100
AcDbEntity
  8
1
  6
CONTINUOUS
 62
             7
100
AcDbLine
 10
16.55361894986532
 20
21.48516804152308
 11
16.99673870332902
 21
26.55004999999994
  0
LINE
  5
1D3
100
AcDbEntity
  8
1
  6
CONTINUOUS
 62
             7
100
AcDbLine
 10
16.55361894986532
 20
21.48516804152308
 11
17.0977650703241
 21
20.89133675444252
  0
LINE
  5
1D2
100
AcDbEntity
  8
1
  6
CONTINUOUS
 62
             7
100
AcDbLine
 10
17.62957376494401
 20
20.01493195847681
 11
17.20475290030291
 21
15.15920725632435
  0
LINE
  5
1D1
100
AcDbEntity
  8
1
  6
CONTINUOUS
 62
             7
100
AcDbLine
 10
17.08542764448521
 20
20.60876324555737
 11
17.62957376494401
 21
20.01493195847681
  0
LINE
  5
1D0
100
AcDbEntity
  8
1
  6
CONTINUOUS
 62
             7
100
AcDbLine
 10
16.42391057499401
 20
20.00259453263793
 11
15.9818702064282
 21
14.95004999999995
  0
LINE
  5
1CF
100
AcDbEntity
  8
1
  6
CONTINUOUS
 62
             7
100
AcDbLine
 10
16.42391057499401
 20
20.00259453263793
 11
17.08542764448521
 21
20.60876324555737
  0
LINE
  5
1CE
100
AcDbEntity
  8
1
  6
CONTINUOUS
 62
             7
100
AcDbLine
 10
17.8944001813384
 20
21.35004999999994
 11
20.622970767694
 21
21.35004999999994
  0
LINE
  5
1CD
100
AcDbEntity
  8
1
  6
CONTINUOUS
 62
             7
100
AcDbLine
 10
17.2328831118472
 20
20.74388128708051
 11
17.8944001813384
 21
21.35004999999994
  0
LINE
  5
1CC
100
AcDbEntity
  8
1
  6
CONTINUOUS
 62
             7
100
AcDbLine
 10
17.77702923230601
 20
20.15004999999995
 11
17.2328831118472
 21
20.74388128708051
  0
LINE
  5
1CB
100
AcDbEntity
  8
1
  6
CONTINUOUS
 62
             7
100
AcDbLine
 10
21.40326129667102
 20
14.80004999999994
 11
21.84638105013482
 21
19.8649319584768
  0
LINE
  5
1CA
100
AcDbEntity
  8
1
  6
CONTINUOUS
 62
             7
100
AcDbLine
 10
22.41812979357181
 20
26.40004999999995
 11
21.97608942500602
 21
21.34750546736197
  0
LINE
  5
1C9
100
AcDbEntity
  8
1
  6
CONTINUOUS
 62
             7
100
AcDbLine
 10
21.31853238475082
 20
27.60004999999994
 11
21.80077206839971
 21
27.07377773368097
  0
LINE
  5
1C8
100
AcDbEntity
  8
1
  6
CONTINUOUS
 62
             7
100
AcDbLine
 10
18.30630890461211
 20
27.75004999999995
 11
21.31853238475082
 21
27.75004999999995
  0
LINE
  5
1C7
100
AcDbEntity
  8
1
  6
CONTINUOUS
 62
             7
100
AcDbLine
 10
16.99673870332902
 20
26.55004999999994
 11
17.57779607028951
 21
27.08249097923837
  0
LINE
  5
1C6
100
AcDbEntity
  8
1
  6
CONTINUOUS
 62
             7
100
AcDbLine
 10
17.08146761524921
 20
13.75004999999995
 11
20.09369109538793
 21
13.75004999999995
  0
LINE
  5
1C5
100
AcDbEntity
  8
1
  6
CONTINUOUS
 62
             7
100
AcDbLine
 10
15.9818702064282
 20
14.95004999999995
 11
16.46410989007723
 21
14.42377773368095
  0
LINE
  5
1C4
100
AcDbEntity
  8
1
  6
CONTINUOUS
 62
             7
100
AcDbLine
 10
21.1872864391467
 20
3.01760902076151
 11
21.65921295600032
 21
3.45004999999995
  0
LINE
  5
1C3
100
AcDbEntity
  8
1
  6
CONTINUOUS
 62
             7
100
AcDbLine
 10
21.1872864391467
 20
3.01760902076151
 11
20.667214415328
 21
3.58516804152308
  0
LINE
  5
1C2
100
AcDbEntity
  8
1
  6
CONTINUOUS
 62
             7
100
AcDbLine
 10
20.51975894796601
 20
3.45004999999995
 11
18.19271629662782
 21
3.45004999999995
  0
LINE
  5
1C1
100
AcDbEntity
  8
1
  6
CONTINUOUS
 62
             7
100
AcDbLine
 10
20.51975894796601
 20
3.45004999999995
 11
21.03983097178471
 21
2.88249097923838
  0
LINE
  5
1C0
100
AcDbEntity
  8
1
  6
CONTINUOUS
 62
             7
100
AcDbLine
 10
17.56660234356252
 20
2.87632226631892
 11
17.95720890980971
 21
2.45004999999995
  0
LINE
  5
1BF
100
AcDbEntity
  8
1
  6
CONTINUOUS
 62
             7
100
AcDbLine
 10
18.19271629662782
 20
3.45004999999995
 11
17.56660234356252
 21
2.87632226631892
  0
LINE
  5
1BE
100
AcDbEntity
  8
1
  6
CONTINUOUS
 62
             7
100
AcDbLine
 10
18.05759825510472
 20
3.59750546736197
 11
18.33908659880521
 21
6.81493195847681
  0
LINE
  5
1BD
100
AcDbEntity
  8
1
  6
CONTINUOUS
 62
             7
100
AcDbLine
 10
18.05759825510472
 20
3.59750546736197
 11
17.43148430203942
 21
3.02377773368094
  0
LINE
  5
1BC
100
AcDbEntity
  8
1
  6
CONTINUOUS
 62
             7
100
AcDbLine
 10
21.96851569796061
 20
11.87632226631894
 11
22.35912226420771
 21
11.45004999999995
  0
LINE
  5
1BB
100
AcDbEntity
  8
1
  6
CONTINUOUS
 62
             7
100
AcDbLine
 10
21.34240174489531
 20
11.30259453263793
 11
21.06091340119471
 21
8.08516804152309
  0
LINE
  5
1BA
100
AcDbEntity
  8
1
  6
CONTINUOUS
 62
             7
100
AcDbLine
 10
21.34240174489531
 20
11.30259453263793
 11
21.96851569796061
 21
11.87632226631894
  0
LINE
  5
1B9
100
AcDbEntity
  8
1
  6
CONTINUOUS
 62
             7
100
AcDbLine
 10
21.2072837033721
 20
11.45004999999995
 11
21.8333976564374
 21
12.02377773368096
  0
LINE
  5
1B8
100
AcDbEntity
  8
1
  6
CONTINUOUS
 62
             7
100
AcDbLine
 10
18.36016902821532
 20
12.01760902076151
 11
18.83209554506891
 21
12.45004999999995
  0
LINE
  5
1B7
100
AcDbEntity
  8
1
  6
CONTINUOUS
 62
             7
100
AcDbLine
 10
18.88024105203391
 20
11.45004999999995
 11
21.2072837033721
 21
11.45004999999995
  0
LINE
  5
1B6
100
AcDbEntity
  8
1
  6
CONTINUOUS
 62
             7
100
AcDbLine
 10
18.88024105203391
 20
11.45004999999995
 11
18.36016902821532
 21
12.01760902076151
  0
LINE
  5
1B5
100
AcDbEntity
  8
1
  6
CONTINUOUS
 62
             7
100
AcDbLine
 10
18.2127135608533
 20
11.88249097923838
 11
18.73278558467192
 21
11.31493195847682
  0
LINE
  5
1B4
100
AcDbEntity
  8
1
  6
CONTINUOUS
 62
             7
100
AcDbLine
 10
22.06581262363611
 20
8.09750546736197
 11
22.35912226420771
 21
11.45004999999995
  0
LINE
  5
1B3
100
AcDbEntity
  8
1
  6
CONTINUOUS
 62
             7
100
AcDbLine
 10
21.51342640425182
 20
7.59133675444251
 11
22.06581262363611
 21
8.09750546736197
  0
LINE
  5
1B2
100
AcDbEntity
  8
1
  6
CONTINUOUS
 62
             7
100
AcDbLine
 10
21.06091340119471
 20
8.08516804152309
 11
21.51342640425182
 21
7.59133675444251
  0
LINE
  5
1B1
100
AcDbEntity
  8
1
  6
CONTINUOUS
 62
             7
100
AcDbLine
 10
21.50108897841292
 20
7.30876324555736
 11
21.95360198147
 21
6.81493195847681
  0
LINE
  5
1B0
100
AcDbEntity
  8
1
  6
CONTINUOUS
 62
             7
100
AcDbLine
 10
20.94870275902861
 20
6.80259453263791
 11
20.667214415328
 21
3.58516804152308
  0
LINE
  5
1AF
100
AcDbEntity
  8
1
  6
CONTINUOUS
 62
             7
100
AcDbLine
 10
20.94870275902861
 20
6.80259453263791
 11
21.50108897841292
 21
7.30876324555736
  0
LINE
  5
1AE
100
AcDbEntity
  8
1
  6
CONTINUOUS
 62
             7
100
AcDbLine
 10
20.81358471750551
 20
6.95004999999995
 11
18.4865420661672
 21
6.95004999999995
  0
LINE
  5
1AD
100
AcDbEntity
  8
1
  6
CONTINUOUS
 62
             7
100
AcDbLine
 10
21.36597093688982
 20
7.45621871291939
 11
20.81358471750551
 21
6.95004999999995
  0
LINE
  5
1AC
100
AcDbEntity
  8
1
  6
CONTINUOUS
 62
             7
100
AcDbLine
 10
20.91345793383272
 20
7.95004999999995
 11
21.36597093688982
 21
7.45621871291939
  0
LINE
  5
1AB
100
AcDbEntity
  8
1
  6
CONTINUOUS
 62
             7
100
AcDbLine
 10
18.5864152824945
 20
7.95004999999995
 11
20.91345793383272
 21
7.95004999999995
  0
LINE
  5
1AA
100
AcDbEntity
  8
1
  6
CONTINUOUS
 62
             7
100
AcDbLine
 10
18.03402906311021
 20
7.44388128708049
 11
18.5864152824945
 21
7.95004999999995
  0
LINE
  5
1A9
100
AcDbEntity
  8
1
  6
CONTINUOUS
 62
             7
100
AcDbLine
 10
18.4865420661672
 20
6.95004999999995
 11
18.03402906311021
 21
7.44388128708049
  0
LINE
  5
1A8
100
AcDbEntity
  8
1
  6
CONTINUOUS
 62
             7
100
AcDbLine
 10
17.88657359574822
 20
7.30876324555736
 11
18.33908659880521
 21
6.81493195847681
  0
LINE
  5
1A7
100
AcDbEntity
  8
1
  6
CONTINUOUS
 62
             7
100
AcDbLine
 10
17.3341873763639
 20
6.80259453263793
 11
17.04087773579221
 21
3.45004999999995
  0
LINE
  5
1A6
100
AcDbEntity
  8
1
  6
CONTINUOUS
 62
             7
100
AcDbLine
 10
17.3341873763639
 20
6.80259453263793
 11
17.88657359574822
 21
7.30876324555736
  0
LINE
  5
1A5
100
AcDbEntity
  8
1
  6
CONTINUOUS
 62
             7
100
AcDbLine
 10
18.45129724097131
 20
8.09750546736197
 11
18.73278558467192
 21
11.31493195847682
  0
LINE
  5
1A4
100
AcDbEntity
  8
1
  6
CONTINUOUS
 62
             7
100
AcDbLine
 10
17.89891102158703
 20
7.59133675444251
 11
18.45129724097131
 21
8.09750546736197
  0
LINE
  5
1A3
100
AcDbEntity
  8
1
  6
CONTINUOUS
 62
             7
100
AcDbLine
 10
17.44639801853
 20
8.08516804152309
 11
17.7407870439996
 21
11.45004999999995
  0
LINE
  5
1A2
100
AcDbEntity
  8
1
  6
CONTINUOUS
 62
             7
100
AcDbLine
 10
17.44639801853
 20
8.08516804152309
 11
17.89891102158703
 21
7.59133675444251
  0
LINE
  5
1A1
100
AcDbEntity
  8
1
  6
CONTINUOUS
 62
             7
100
AcDbLine
 10
21.65921295600032
 20
3.45004999999995
 11
21.95360198147
 21
6.81493195847681
  0
LINE
  5
1A0
100
AcDbEntity
  8
1
  6
CONTINUOUS
 62
             7
100
AcDbLine
 10
20.56790445493101
 20
2.45004999999995
 11
21.03983097178471
 21
2.88249097923838
  0
LINE
  5
19F
100
AcDbEntity
  8
1
  6
CONTINUOUS
 62
             7
100
AcDbLine
 10
17.95720890980971
 20
2.45004999999995
 11
20.56790445493101
 21
2.45004999999995
  0
LINE
  5
19E
100
AcDbEntity
  8
1
  6
CONTINUOUS
 62
             7
100
AcDbLine
 10
17.04087773579221
 20
3.45004999999995
 11
17.43148430203942
 21
3.02377773368094
  0
LINE
  5
19D
100
AcDbEntity
  8
1
  6
CONTINUOUS
 62
             7
100
AcDbLine
 10
21.4427910901903
 20
12.45004999999995
 11
21.8333976564374
 21
12.02377773368096
  0
LINE
  5
19C
100
AcDbEntity
  8
1
  6
CONTINUOUS
 62
             7
100
AcDbLine
 10
18.83209554506891
 20
12.45004999999995
 11
21.4427910901903
 21
12.45004999999995
  0
LINE
  5
19B
100
AcDbEntity
  8
1
  6
CONTINUOUS
 62
             7
100
AcDbLine
 10
17.7407870439996
 20
11.45004999999995
 11
18.2127135608533
 21
11.88249097923838
  0
LINE
  5
19A
100
AcDbEntity
  8
1
  6
CONTINUOUS
 62
             7
100
AcDbLine
 10
6.20000000000002
 20
1.45004999999994
 11
6.20000000000002
 21
-1.04995000000006
  0
LINE
  5
199
100
AcDbEntity
  8
1
  6
CONTINUOUS
 62
             7
100
AcDbLine
 10
7.0
 20
1.45004999999994
 11
6.20000000000002
 21
1.45004999999994
  0
LINE
  5
198
100
AcDbEntity
  8
1
  6
CONTINUOUS
 62
             7
100
AcDbLine
 10
7.0
 20
-1.04995000000006
 11
7.0
 21
1.45004999999994
  0
LINE
  5
197
100
AcDbEntity
  8
1
  6
CONTINUOUS
 62
             7
100
AcDbLine
 10
6.20000000000002
 20
-1.04995000000006
 11
7.0
 21
-1.04995000000006
  0
LINE
  5
196
100
AcDbEntity
  8
1
  6
CONTINUOUS
 62
             7
100
AcDbLine
 10
5.25
 20
-2.54995000000006
 11
6.75
 21
-2.54995000000006
  0
LINE
  5
195
100
AcDbEntity
  8
1
  6
CONTINUOUS
 62
             7
100
AcDbLine
 10
6.75
 20
-2.54995000000006
 11
6.75
 21
-1.54995000000006
  0
LINE
  5
194
100
AcDbEntity
  8
1
  6
CONTINUOUS
 62
             7
100
AcDbLine
 10
6.75
 20
-1.54995000000006
 11
5.25
 21
-1.54995000000006
  0
LINE
  5
193
100
AcDbEntity
  8
1
  6
CONTINUOUS
 62
             7
100
AcDbLine
 10
5.25
 20
-1.54995000000006
 11
5.25
 21
-2.54995000000006
  0
LINE
  5
192
100
AcDbEntity
  8
1
  6
CONTINUOUS
 62
             7
100
AcDbLine
 10
19.7308510115345
 20
8.95004999999995
 11
18.92787311634652
 21
11.25004999999996
  0
LINE
  5
191
100
AcDbEntity
  8
1
  6
CONTINUOUS
 62
             7
100
AcDbLine
 10
19.93161497904322
 20
8.95004999999995
 11
21.13704072645052
 21
11.25004999999996
  0
LINE
  5
190
100
AcDbEntity
  8
1
  6
CONTINUOUS
 62
             7
100
AcDbLine
 10
19.7308510115345
 20
8.95004999999995
 11
19.6608600807138
 21
8.15004999999995
  0
LINE
  5
18F
100
AcDbEntity
  8
1
  6
CONTINUOUS
 62
             7
100
AcDbLine
 10
19.6608600807138
 20
8.15004999999995
 11
19.1627949556005
 21
8.15004999999995
  0
LINE
  5
18E
100
AcDbEntity
  8
1
  6
CONTINUOUS
 62
             7
100
AcDbLine
 10
19.1627949556005
 20
8.15004999999995
 11
18.75807892107432
 21
9.30929346733386
  0
LINE
  5
18D
100
AcDbEntity
  8
1
  6
CONTINUOUS
 62
             7
100
AcDbLine
 10
18.75807892107432
 20
9.30929346733386
 11
18.92787311634652
 21
11.25004999999996
  0
LINE
  5
18C
100
AcDbEntity
  8
1
  6
CONTINUOUS
 62
             7
100
AcDbLine
 10
19.93161497904322
 20
8.95004999999995
 11
19.86162404822252
 21
8.15004999999995
  0
LINE
  5
18B
100
AcDbEntity
  8
1
  6
CONTINUOUS
 62
             7
100
AcDbLine
 10
19.86162404822252
 20
8.15004999999995
 11
20.41554987597363
 21
8.15004999999995
  0
LINE
  5
18A
100
AcDbEntity
  8
1
  6
CONTINUOUS
 62
             7
100
AcDbLine
 10
20.41554987597363
 20
8.15004999999995
 11
20.95605305426801
 21
9.18135144079885
  0
LINE
  5
189
100
AcDbEntity
  8
1
  6
CONTINUOUS
 62
             7
100
AcDbLine
 10
20.95605305426801
 20
9.18135144079885
 11
21.13704072645052
 21
11.25004999999996
  0
LINE
  5
188
100
AcDbEntity
  8
1
  6
CONTINUOUS
 62
             7
100
AcDbLine
 10
19.7391399192862
 20
6.75004999999996
 11
20.23720504439942
 21
6.75004999999996
  0
LINE
  5
187
100
AcDbEntity
  8
1
  6
CONTINUOUS
 62
             7
100
AcDbLine
 10
19.66914898846542
 20
5.95004999999995
 11
19.7391399192862
 21
6.75004999999996
  0
LINE
  5
186
100
AcDbEntity
  8
1
  6
CONTINUOUS
 62
             7
100
AcDbLine
 10
19.53837595177751
 20
6.75004999999996
 11
18.98445012402641
 21
6.75004999999996
  0
LINE
  5
185
100
AcDbEntity
  8
1
  6
CONTINUOUS
 62
             7
100
AcDbLine
 10
19.4683850209567
 20
5.95004999999995
 11
19.53837595177751
 21
6.75004999999996
  0
LINE
  5
184
100
AcDbEntity
  8
1
  6
CONTINUOUS
 62
             7
100
AcDbLine
 10
20.64192107892561
 20
5.59080653266602
 11
20.47212688365352
 21
3.65004999999995
  0
LINE
  5
183
100
AcDbEntity
  8
1
  6
CONTINUOUS
 62
             7
100
AcDbLine
 10
19.66914898846542
 20
5.95004999999995
 11
20.47212688365352
 21
3.65004999999995
  0
LINE
  5
182
100
AcDbEntity
  8
1
  6
CONTINUOUS
 62
             7
100
AcDbLine
 10
19.4683850209567
 20
5.95004999999995
 11
18.2629592735494
 21
3.65004999999995
  0
LINE
  5
181
100
AcDbEntity
  8
1
  6
CONTINUOUS
 62
             7
100
AcDbLine
 10
18.44394694573191
 20
5.71874855920105
 11
18.2629592735494
 21
3.65004999999995
  0
LINE
  5
180
100
AcDbEntity
  8
1
  6
CONTINUOUS
 62
             7
100
AcDbLine
 10
20.23720504439942
 20
6.75004999999996
 11
20.64192107892561
 21
5.59080653266602
  0
LINE
  5
17F
100
AcDbEntity
  8
1
  6
CONTINUOUS
 62
             7
100
AcDbLine
 10
18.98445012402641
 20
6.75004999999996
 11
18.44394694573191
 21
5.71874855920105
  0
LINE
  5
17E
100
AcDbEntity
  8
1
  6
CONTINUOUS
 62
             7
100
AcDbLine
 10
13.5844501240264
 20
6.75004999999996
 11
13.0439469457319
 21
5.71874855920105
  0
LINE
  5
17D
100
AcDbEntity
  8
1
  6
CONTINUOUS
 62
             7
100
AcDbLine
 10
14.83720504439941
 20
6.75004999999996
 11
15.2419210789256
 21
5.59080653266602
  0
LINE
  5
17C
100
AcDbEntity
  8
1
  6
CONTINUOUS
 62
             7
100
AcDbLine
 10
13.0439469457319
 20
5.71874855920105
 11
12.86295927354942
 21
3.65004999999995
  0
LINE
  5
17B
100
AcDbEntity
  8
1
  6
CONTINUOUS
 62
             7
100
AcDbLine
 10
14.06838502095673
 20
5.95004999999995
 11
12.86295927354942
 21
3.65004999999995
  0
LINE
  5
17A
100
AcDbEntity
  8
1
  6
CONTINUOUS
 62
             7
100
AcDbLine
 10
14.26914898846542
 20
5.95004999999995
 11
15.07212688365351
 21
3.65004999999995
  0
LINE
  5
179
100
AcDbEntity
  8
1
  6
CONTINUOUS
 62
             7
100
AcDbLine
 10
15.2419210789256
 20
5.59080653266602
 11
15.07212688365351
 21
3.65004999999995
  0
LINE
  5
178
100
AcDbEntity
  8
1
  6
CONTINUOUS
 62
             7
100
AcDbLine
 10
14.06838502095673
 20
5.95004999999995
 11
14.13837595177751
 21
6.75004999999996
  0
LINE
  5
177
100
AcDbEntity
  8
1
  6
CONTINUOUS
 62
             7
100
AcDbLine
 10
14.13837595177751
 20
6.75004999999996
 11
13.5844501240264
 21
6.75004999999996
  0
LINE
  5
176
100
AcDbEntity
  8
1
  6
CONTINUOUS
 62
             7
100
AcDbLine
 10
14.26914898846542
 20
5.95004999999995
 11
14.33913991928623
 21
6.75004999999996
  0
LINE
  5
175
100
AcDbEntity
  8
1
  6
CONTINUOUS
 62
             7
100
AcDbLine
 10
14.33913991928623
 20
6.75004999999996
 11
14.83720504439941
 21
6.75004999999996
  0
LINE
  5
174
100
AcDbEntity
  8
1
  6
CONTINUOUS
 62
             7
100
AcDbLine
 10
15.55605305426801
 20
9.18135144079885
 11
15.73704072645052
 21
11.25004999999996
  0
LINE
  5
173
100
AcDbEntity
  8
1
  6
CONTINUOUS
 62
             7
100
AcDbLine
 10
15.01554987597351
 20
8.15004999999995
 11
15.55605305426801
 21
9.18135144079885
  0
LINE
  5
172
100
AcDbEntity
  8
1
  6
CONTINUOUS
 62
             7
100
AcDbLine
 10
14.4616240482224
 20
8.15004999999995
 11
15.01554987597351
 21
8.15004999999995
  0
LINE
  5
171
100
AcDbEntity
  8
1
  6
CONTINUOUS
 62
             7
100
AcDbLine
 10
14.53161497904321
 20
8.95004999999995
 11
14.4616240482224
 21
8.15004999999995
  0
LINE
  5
170
100
AcDbEntity
  8
1
  6
CONTINUOUS
 62
             7
100
AcDbLine
 10
13.35807892107431
 20
9.30929346733386
 11
13.52787311634651
 21
11.25004999999996
  0
LINE
  5
16F
100
AcDbEntity
  8
1
  6
CONTINUOUS
 62
             7
100
AcDbLine
 10
13.7627949556005
 20
8.15004999999995
 11
13.35807892107431
 21
9.30929346733386
  0
LINE
  5
16E
100
AcDbEntity
  8
1
  6
CONTINUOUS
 62
             7
100
AcDbLine
 10
14.2608600807138
 20
8.15004999999995
 11
13.7627949556005
 21
8.15004999999995
  0
LINE
  5
16D
100
AcDbEntity
  8
1
  6
CONTINUOUS
 62
             7
100
AcDbLine
 10
14.33085101153452
 20
8.95004999999995
 11
14.2608600807138
 21
8.15004999999995
  0
LINE
  5
16C
100
AcDbEntity
  8
1
  6
CONTINUOUS
 62
             7
100
AcDbLine
 10
14.53161497904321
 20
8.95004999999995
 11
15.73704072645052
 21
11.25004999999996
  0
LINE
  5
16B
100
AcDbEntity
  8
1
  6
CONTINUOUS
 62
             7
100
AcDbLine
 10
14.33085101153452
 20
8.95004999999995
 11
13.52787311634651
 21
11.25004999999996
  0
LINE
  5
16A
100
AcDbEntity
  8
1
  6
CONTINUOUS
 62
             7
100
AcDbLine
 10
12.3407870439996
 20
11.45004999999995
 11
12.81271356085333
 21
11.88249097923838
  0
LINE
  5
169
100
AcDbEntity
  8
1
  6
CONTINUOUS
 62
             7
100
AcDbLine
 10
13.4320955450689
 20
12.45004999999995
 11
16.04279109019032
 21
12.45004999999995
  0
LINE
  5
168
100
AcDbEntity
  8
1
  6
CONTINUOUS
 62
             7
100
AcDbLine
 10
16.04279109019032
 20
12.45004999999995
 11
16.43339765643742
 21
12.02377773368096
  0
LINE
  5
167
100
AcDbEntity
  8
1
  6
CONTINUOUS
 62
             7
100
AcDbLine
 10
11.6408777357922
 20
3.45004999999995
 11
12.03148430203942
 21
3.02377773368094
  0
LINE
  5
166
100
AcDbEntity
  8
1
  6
CONTINUOUS
 62
             7
100
AcDbLine
 10
12.5572089098097
 20
2.45004999999995
 11
15.16790445493101
 21
2.45004999999995
  0
LINE
  5
165
100
AcDbEntity
  8
1
  6
CONTINUOUS
 62
             7
100
AcDbLine
 10
15.16790445493101
 20
2.45004999999995
 11
15.6398309717847
 21
2.88249097923838
  0
LINE
  5
164
100
AcDbEntity
  8
1
  6
CONTINUOUS
 62
             7
100
AcDbLine
 10
16.25921295600031
 20
3.45004999999995
 11
16.55360198147002
 21
6.81493195847681
  0
LINE
  5
163
100
AcDbEntity
  8
1
  6
CONTINUOUS
 62
             7
100
AcDbLine
 10
12.04639801853
 20
8.08516804152309
 11
12.49891102158702
 21
7.59133675444251
  0
LINE
  5
162
100
AcDbEntity
  8
1
  6
CONTINUOUS
 62
             7
100
AcDbLine
 10
12.04639801853
 20
8.08516804152309
 11
12.3407870439996
 21
11.45004999999995
  0
LINE
  5
161
100
AcDbEntity
  8
1
  6
CONTINUOUS
 62
             7
100
AcDbLine
 10
12.49891102158702
 20
7.59133675444251
 11
13.05129724097131
 21
8.09750546736197
  0
LINE
  5
160
100
AcDbEntity
  8
1
  6
CONTINUOUS
 62
             7
100
AcDbLine
 10
13.05129724097131
 20
8.09750546736197
 11
13.33278558467191
 21
11.31493195847682
  0
LINE
  5
15F
100
AcDbEntity
  8
1
  6
CONTINUOUS
 62
             7
100
AcDbLine
 10
11.93418737636392
 20
6.80259453263793
 11
12.48657359574821
 21
7.30876324555736
  0
LINE
  5
15E
100
AcDbEntity
  8
1
  6
CONTINUOUS
 62
             7
100
AcDbLine
 10
11.93418737636392
 20
6.80259453263793
 11
11.6408777357922
 21
3.45004999999995
  0
LINE
  5
15D
100
AcDbEntity
  8
1
  6
CONTINUOUS
 62
             7
100
AcDbLine
 10
12.48657359574821
 20
7.30876324555736
 11
12.9390865988052
 21
6.81493195847681
  0
LINE
  5
15C
100
AcDbEntity
  8
1
  6
CONTINUOUS
 62
             7
100
AcDbLine
 10
13.0865420661672
 20
6.95004999999995
 11
12.63402906311021
 21
7.44388128708049
  0
LINE
  5
15B
100
AcDbEntity
  8
1
  6
CONTINUOUS
 62
             7
100
AcDbLine
 10
12.63402906311021
 20
7.44388128708049
 11
13.18641528249452
 21
7.95004999999995
  0
LINE
  5
15A
100
AcDbEntity
  8
1
  6
CONTINUOUS
 62
             7
100
AcDbLine
 10
13.18641528249452
 20
7.95004999999995
 11
15.51345793383271
 21
7.95004999999995
  0
LINE
  5
159
100
AcDbEntity
  8
1
  6
CONTINUOUS
 62
             7
100
AcDbLine
 10
15.51345793383271
 20
7.95004999999995
 11
15.9659709368897
 21
7.45621871291939
  0
LINE
  5
158
100
AcDbEntity
  8
1
  6
CONTINUOUS
 62
             7
100
AcDbLine
 10
15.9659709368897
 20
7.45621871291939
 11
15.4135847175055
 21
6.95004999999995
  0
LINE
  5
157
100
AcDbEntity
  8
1
  6
CONTINUOUS
 62
             7
100
AcDbLine
 10
15.4135847175055
 20
6.95004999999995
 11
13.0865420661672
 21
6.95004999999995
  0
LINE
  5
156
100
AcDbEntity
  8
1
  6
CONTINUOUS
 62
             7
100
AcDbLine
 10
15.5487027590286
 20
6.80259453263791
 11
16.10108897841292
 21
7.30876324555736
  0
LINE
  5
155
100
AcDbEntity
  8
1
  6
CONTINUOUS
 62
             7
100
AcDbLine
 10
15.5487027590286
 20
6.80259453263791
 11
15.267214415328
 21
3.58516804152308
  0
LINE
  5
154
100
AcDbEntity
  8
1
  6
CONTINUOUS
 62
             7
100
AcDbLine
 10
16.10108897841292
 20
7.30876324555736
 11
16.55360198147002
 21
6.81493195847681
  0
LINE
  5
153
100
AcDbEntity
  8
1
  6
CONTINUOUS
 62
             7
100
AcDbLine
 10
15.66091340119471
 20
8.08516804152309
 11
16.11342640425181
 21
7.59133675444251
  0
LINE
  5
152
100
AcDbEntity
  8
1
  6
CONTINUOUS
 62
             7
100
AcDbLine
 10
16.11342640425181
 20
7.59133675444251
 11
16.6658126236361
 21
8.09750546736197
  0
LINE
  5
151
100
AcDbEntity
  8
1
  6
CONTINUOUS
 62
             7
100
AcDbLine
 10
16.6658126236361
 20
8.09750546736197
 11
16.95912226420771
 21
11.45004999999995
  0
LINE
  5
150
100
AcDbEntity
  8
1
  6
CONTINUOUS
 62
             7
100
AcDbLine
 10
12.81271356085333
 20
11.88249097923838
 11
13.33278558467191
 21
11.31493195847682
  0
LINE
  5
14F
100
AcDbEntity
  8
1
  6
CONTINUOUS
 62
             7
100
AcDbLine
 10
13.4802410520339
 20
11.45004999999995
 11
12.96016902821532
 21
12.01760902076151
  0
LINE
  5
14E
100
AcDbEntity
  8
1
  6
CONTINUOUS
 62
             7
100
AcDbLine
 10
13.4802410520339
 20
11.45004999999995
 11
15.80728370337212
 21
11.45004999999995
  0
LINE
  5
14D
100
AcDbEntity
  8
1
  6
CONTINUOUS
 62
             7
100
AcDbLine
 10
12.96016902821532
 20
12.01760902076151
 11
13.4320955450689
 21
12.45004999999995
  0
LINE
  5
14C
100
AcDbEntity
  8
1
  6
CONTINUOUS
 62
             7
100
AcDbLine
 10
15.80728370337212
 20
11.45004999999995
 11
16.43339765643742
 21
12.02377773368096
  0
LINE
  5
14B
100
AcDbEntity
  8
1
  6
CONTINUOUS
 62
             7
100
AcDbLine
 10
15.94240174489531
 20
11.30259453263793
 11
16.56851569796061
 21
11.87632226631894
  0
LINE
  5
14A
100
AcDbEntity
  8
1
  6
CONTINUOUS
 62
             7
100
AcDbLine
 10
15.94240174489531
 20
11.30259453263793
 11
15.66091340119471
 21
8.08516804152309
  0
LINE
  5
149
100
AcDbEntity
  8
1
  6
CONTINUOUS
 62
             7
100
AcDbLine
 10
16.56851569796061
 20
11.87632226631894
 11
16.95912226420771
 21
11.45004999999995
  0
LINE
  5
148
100
AcDbEntity
  8
1
  6
CONTINUOUS
 62
             7
100
AcDbLine
 10
12.65759825510472
 20
3.59750546736197
 11
12.03148430203942
 21
3.02377773368094
  0
LINE
  5
147
100
AcDbEntity
  8
1
  6
CONTINUOUS
 62
             7
100
AcDbLine
 10
12.65759825510472
 20
3.59750546736197
 11
12.9390865988052
 21
6.81493195847681
  0
LINE
  5
146
100
AcDbEntity
  8
1
  6
CONTINUOUS
 62
             7
100
AcDbLine
 10
12.79271629662782
 20
3.45004999999995
 11
12.16660234356252
 21
2.87632226631892
  0
LINE
  5
145
100
AcDbEntity
  8
1
  6
CONTINUOUS
 62
             7
100
AcDbLine
 10
12.16660234356252
 20
2.87632226631892
 11
12.5572089098097
 21
2.45004999999995
  0
LINE
  5
144
100
AcDbEntity
  8
1
  6
CONTINUOUS
 62
             7
100
AcDbLine
 10
15.11975894796601
 20
3.45004999999995
 11
15.6398309717847
 21
2.88249097923838
  0
LINE
  5
143
100
AcDbEntity
  8
1
  6
CONTINUOUS
 62
             7
100
AcDbLine
 10
15.11975894796601
 20
3.45004999999995
 11
12.79271629662782
 21
3.45004999999995
  0
LINE
  5
142
100
AcDbEntity
  8
1
  6
CONTINUOUS
 62
             7
100
AcDbLine
 10
15.7872864391467
 20
3.01760902076151
 11
15.267214415328
 21
3.58516804152308
  0
LINE
  5
141
100
AcDbEntity
  8
1
  6
CONTINUOUS
 62
             7
100
AcDbLine
 10
15.7872864391467
 20
3.01760902076151
 11
16.25921295600031
 21
3.45004999999995
  0
LINE
  5
140
100
AcDbEntity
  8
1
  6
CONTINUOUS
 62
             7
100
AcDbLine
 10
8.1844501240264
 20
6.75004999999996
 11
7.6439469457319
 21
5.71874855920105
  0
LINE
  5
13F
100
AcDbEntity
  8
1
  6
CONTINUOUS
 62
             7
100
AcDbLine
 10
9.43720504439941
 20
6.75004999999996
 11
9.84192107892562
 21
5.59080653266602
  0
LINE
  5
13E
100
AcDbEntity
  8
1
  6
CONTINUOUS
 62
             7
100
AcDbLine
 10
7.6439469457319
 20
5.71874855920105
 11
7.46295927354942
 21
3.65004999999995
  0
LINE
  5
13D
100
AcDbEntity
  8
1
  6
CONTINUOUS
 62
             7
100
AcDbLine
 10
8.66838502095672
 20
5.95004999999995
 11
7.46295927354942
 21
3.65004999999995
  0
LINE
  5
13C
100
AcDbEntity
  8
1
  6
CONTINUOUS
 62
             7
100
AcDbLine
 10
8.86914898846541
 20
5.95004999999995
 11
9.6721268836535
 21
3.65004999999995
  0
LINE
  5
13B
100
AcDbEntity
  8
1
  6
CONTINUOUS
 62
             7
100
AcDbLine
 10
9.84192107892562
 20
5.59080653266602
 11
9.6721268836535
 21
3.65004999999995
  0
LINE
  5
13A
100
AcDbEntity
  8
1
  6
CONTINUOUS
 62
             7
100
AcDbLine
 10
8.66838502095672
 20
5.95004999999995
 11
8.7383759517775
 21
6.75004999999996
  0
LINE
  5
139
100
AcDbEntity
  8
1
  6
CONTINUOUS
 62
             7
100
AcDbLine
 10
8.7383759517775
 20
6.75004999999996
 11
8.1844501240264
 21
6.75004999999996
  0
LINE
  5
138
100
AcDbEntity
  8
1
  6
CONTINUOUS
 62
             7
100
AcDbLine
 10
8.86914898846541
 20
5.95004999999995
 11
8.93913991928611
 21
6.75004999999996
  0
LINE
  5
137
100
AcDbEntity
  8
1
  6
CONTINUOUS
 62
             7
100
AcDbLine
 10
8.93913991928611
 20
6.75004999999996
 11
9.43720504439941
 21
6.75004999999996
  0
LINE
  5
136
100
AcDbEntity
  8
1
  6
CONTINUOUS
 62
             7
100
AcDbLine
 10
10.156053054268
 20
9.18135144079885
 11
10.33704072645051
 21
11.25004999999996
  0
LINE
  5
135
100
AcDbEntity
  8
1
  6
CONTINUOUS
 62
             7
100
AcDbLine
 10
9.6155498759735
 20
8.15004999999995
 11
10.156053054268
 21
9.18135144079885
  0
LINE
  5
134
100
AcDbEntity
  8
1
  6
CONTINUOUS
 62
             7
100
AcDbLine
 10
9.0616240482224
 20
8.15004999999995
 11
9.6155498759735
 21
8.15004999999995
  0
LINE
  5
133
100
AcDbEntity
  8
1
  6
CONTINUOUS
 62
             7
100
AcDbLine
 10
9.13161497904321
 20
8.95004999999995
 11
9.0616240482224
 21
8.15004999999995
  0
LINE
  5
132
100
AcDbEntity
  8
1
  6
CONTINUOUS
 62
             7
100
AcDbLine
 10
7.9580789210743
 20
9.30929346733386
 11
8.12787311634651
 21
11.25004999999996
  0
LINE
  5
131
100
AcDbEntity
  8
1
  6
CONTINUOUS
 62
             7
100
AcDbLine
 10
8.36279495560052
 20
8.15004999999995
 11
7.9580789210743
 21
9.30929346733386
  0
LINE
  5
130
100
AcDbEntity
  8
1
  6
CONTINUOUS
 62
             7
100
AcDbLine
 10
8.86086008071382
 20
8.15004999999995
 11
8.36279495560052
 21
8.15004999999995
  0
LINE
  5
12F
100
AcDbEntity
  8
1
  6
CONTINUOUS
 62
             7
100
AcDbLine
 10
8.93085101153451
 20
8.95004999999995
 11
8.86086008071382
 21
8.15004999999995
  0
LINE
  5
12E
100
AcDbEntity
  8
1
  6
CONTINUOUS
 62
             7
100
AcDbLine
 10
9.13161497904321
 20
8.95004999999995
 11
10.33704072645051
 21
11.25004999999996
  0
LINE
  5
12D
100
AcDbEntity
  8
1
  6
CONTINUOUS
 62
             7
100
AcDbLine
 10
8.93085101153451
 20
8.95004999999995
 11
8.12787311634651
 21
11.25004999999996
  0
LINE
  5
12C
100
AcDbEntity
  8
1
  6
CONTINUOUS
 62
             7
100
AcDbLine
 10
6.94078704399962
 20
11.45004999999995
 11
7.41271356085321
 21
11.88249097923838
  0
LINE
  5
12B
100
AcDbEntity
  8
1
  6
CONTINUOUS
 62
             7
100
AcDbLine
 10
8.0320955450689
 20
12.45004999999995
 11
10.64279109019032
 21
12.45004999999995
  0
LINE
  5
12A
100
AcDbEntity
  8
1
  6
CONTINUOUS
 62
             7
100
AcDbLine
 10
10.64279109019032
 20
12.45004999999995
 11
11.03339765643742
 21
12.02377773368096
  0
LINE
  5
129
100
AcDbEntity
  8
1
  6
CONTINUOUS
 62
             7
100
AcDbLine
 10
6.24087773579222
 20
3.45004999999995
 11
6.63148430203941
 21
3.02377773368094
  0
LINE
  5
128
100
AcDbEntity
  8
1
  6
CONTINUOUS
 62
             7
100
AcDbLine
 10
7.15720890980973
 20
2.45004999999995
 11
9.767904454931
 21
2.45004999999995
  0
LINE
  5
127
100
AcDbEntity
  8
1
  6
CONTINUOUS
 62
             7
100
AcDbLine
 10
9.767904454931
 20
2.45004999999995
 11
10.2398309717847
 21
2.88249097923838
  0
LINE
  5
126
100
AcDbEntity
  8
1
  6
CONTINUOUS
 62
             7
100
AcDbLine
 10
10.85921295600031
 20
3.45004999999995
 11
11.15360198146991
 21
6.81493195847681
  0
LINE
  5
125
100
AcDbEntity
  8
1
  6
CONTINUOUS
 62
             7
100
AcDbLine
 10
6.64639801853002
 20
8.08516804152309
 11
7.09891102158701
 21
7.59133675444251
  0
LINE
  5
124
100
AcDbEntity
  8
1
  6
CONTINUOUS
 62
             7
100
AcDbLine
 10
6.64639801853002
 20
8.08516804152309
 11
6.94078704399962
 21
11.45004999999995
  0
LINE
  5
123
100
AcDbEntity
  8
1
  6
CONTINUOUS
 62
             7
100
AcDbLine
 10
7.09891102158701
 20
7.59133675444251
 11
7.6512972409713
 21
8.09750546736197
  0
LINE
  5
122
100
AcDbEntity
  8
1
  6
CONTINUOUS
 62
             7
100
AcDbLine
 10
7.6512972409713
 20
8.09750546736197
 11
7.9327855846719
 21
11.31493195847682
  0
LINE
  5
121
100
AcDbEntity
  8
1
  6
CONTINUOUS
 62
             7
100
AcDbLine
 10
6.53418737636392
 20
6.80259453263793
 11
7.08657359574821
 21
7.30876324555736
  0
LINE
  5
120
100
AcDbEntity
  8
1
  6
CONTINUOUS
 62
             7
100
AcDbLine
 10
6.53418737636392
 20
6.80259453263793
 11
6.24087773579222
 21
3.45004999999995
  0
LINE
  5
11F
100
AcDbEntity
  8
1
  6
CONTINUOUS
 62
             7
100
AcDbLine
 10
7.08657359574821
 20
7.30876324555736
 11
7.5390865988052
 21
6.81493195847681
  0
LINE
  5
11E
100
AcDbEntity
  8
1
  6
CONTINUOUS
 62
             7
100
AcDbLine
 10
7.68654206616722
 20
6.95004999999995
 11
7.2340290631102
 21
7.44388128708049
  0
LINE
  5
11D
100
AcDbEntity
  8
1
  6
CONTINUOUS
 62
             7
100
AcDbLine
 10
7.2340290631102
 20
7.44388128708049
 11
7.78641528249452
 21
7.95004999999995
  0
LINE
  5
11C
100
AcDbEntity
  8
1
  6
CONTINUOUS
 62
             7
100
AcDbLine
 10
7.78641528249452
 20
7.95004999999995
 11
10.11345793383271
 21
7.95004999999995
  0
LINE
  5
11B
100
AcDbEntity
  8
1
  6
CONTINUOUS
 62
             7
100
AcDbLine
 10
10.11345793383271
 20
7.95004999999995
 11
10.5659709368897
 21
7.45621871291939
  0
LINE
  5
11A
100
AcDbEntity
  8
1
  6
CONTINUOUS
 62
             7
100
AcDbLine
 10
10.5659709368897
 20
7.45621871291939
 11
10.01358471750552
 21
6.95004999999995
  0
LINE
  5
119
100
AcDbEntity
  8
1
  6
CONTINUOUS
 62
             7
100
AcDbLine
 10
10.01358471750552
 20
6.95004999999995
 11
7.68654206616722
 21
6.95004999999995
  0
LINE
  5
118
100
AcDbEntity
  8
1
  6
CONTINUOUS
 62
             7
100
AcDbLine
 10
10.14870275902862
 20
6.80259453263791
 11
10.70108897841291
 21
7.30876324555736
  0
LINE
  5
117
100
AcDbEntity
  8
1
  6
CONTINUOUS
 62
             7
100
AcDbLine
 10
10.14870275902862
 20
6.80259453263791
 11
9.86721441532802
 21
3.58516804152308
  0
LINE
  5
116
100
AcDbEntity
  8
1
  6
CONTINUOUS
 62
             7
100
AcDbLine
 10
10.70108897841291
 20
7.30876324555736
 11
11.15360198146991
 21
6.81493195847681
  0
LINE
  5
115
100
AcDbEntity
  8
1
  6
CONTINUOUS
 62
             7
100
AcDbLine
 10
10.2609134011947
 20
8.08516804152309
 11
10.71342640425181
 21
7.59133675444251
  0
LINE
  5
114
100
AcDbEntity
  8
1
  6
CONTINUOUS
 62
             7
100
AcDbLine
 10
10.71342640425181
 20
7.59133675444251
 11
11.26581262363601
 21
8.09750546736197
  0
LINE
  5
113
100
AcDbEntity
  8
1
  6
CONTINUOUS
 62
             7
100
AcDbLine
 10
11.26581262363601
 20
8.09750546736197
 11
11.5591222642077
 21
11.45004999999995
  0
LINE
  5
112
100
AcDbEntity
  8
1
  6
CONTINUOUS
 62
             7
100
AcDbLine
 10
7.41271356085321
 20
11.88249097923838
 11
7.9327855846719
 21
11.31493195847682
  0
LINE
  5
111
100
AcDbEntity
  8
1
  6
CONTINUOUS
 62
             7
100
AcDbLine
 10
8.0802410520339
 20
11.45004999999995
 11
7.56016902821531
 21
12.01760902076151
  0
LINE
  5
110
100
AcDbEntity
  8
1
  6
CONTINUOUS
 62
             7
100
AcDbLine
 10
8.0802410520339
 20
11.45004999999995
 11
10.40728370337212
 21
11.45004999999995
  0
LINE
  5
10F
100
AcDbEntity
  8
1
  6
CONTINUOUS
 62
             7
100
AcDbLine
 10
7.56016902821531
 20
12.01760902076151
 11
8.0320955450689
 21
12.45004999999995
  0
LINE
  5
10E
100
AcDbEntity
  8
1
  6
CONTINUOUS
 62
             7
100
AcDbLine
 10
10.40728370337212
 20
11.45004999999995
 11
11.03339765643742
 21
12.02377773368096
  0
LINE
  5
10D
100
AcDbEntity
  8
1
  6
CONTINUOUS
 62
             7
100
AcDbLine
 10
10.5424017448953
 20
11.30259453263793
 11
11.1685156979606
 21
11.87632226631894
  0
LINE
  5
10C
100
AcDbEntity
  8
1
  6
CONTINUOUS
 62
             7
100
AcDbLine
 10
10.5424017448953
 20
11.30259453263793
 11
10.2609134011947
 21
8.08516804152309
  0
LINE
  5
10B
100
AcDbEntity
  8
1
  6
CONTINUOUS
 62
             7
100
AcDbLine
 10
11.1685156979606
 20
11.87632226631894
 11
11.5591222642077
 21
11.45004999999995
  0
LINE
  5
10A
100
AcDbEntity
  8
1
  6
CONTINUOUS
 62
             7
100
AcDbLine
 10
7.25759825510471
 20
3.59750546736197
 11
6.63148430203941
 21
3.02377773368094
  0
LINE
  5
109
100
AcDbEntity
  8
1
  6
CONTINUOUS
 62
             7
100
AcDbLine
 10
7.25759825510471
 20
3.59750546736197
 11
7.5390865988052
 21
6.81493195847681
  0
LINE
  5
108
100
AcDbEntity
  8
1
  6
CONTINUOUS
 62
             7
100
AcDbLine
 10
7.39271629662781
 20
3.45004999999995
 11
6.76660234356251
 21
2.87632226631892
  0
LINE
  5
107
100
AcDbEntity
  8
1
  6
CONTINUOUS
 62
             7
100
AcDbLine
 10
6.76660234356251
 20
2.87632226631892
 11
7.15720890980973
 21
2.45004999999995
  0
LINE
  5
106
100
AcDbEntity
  8
1
  6
CONTINUOUS
 62
             7
100
AcDbLine
 10
9.719758947966
 20
3.45004999999995
 11
10.2398309717847
 21
2.88249097923838
  0
LINE
  5
105
100
AcDbEntity
  8
1
  6
CONTINUOUS
 62
             7
100
AcDbLine
 10
9.719758947966
 20
3.45004999999995
 11
7.39271629662781
 21
3.45004999999995
  0
LINE
  5
104
100
AcDbEntity
  8
1
  6
CONTINUOUS
 62
             7
100
AcDbLine
 10
10.38728643914672
 20
3.01760902076151
 11
9.86721441532802
 21
3.58516804152308
  0
LINE
  5
103
100
AcDbEntity
  8
1
  6
CONTINUOUS
 62
             7
100
AcDbLine
 10
10.38728643914672
 20
3.01760902076151
 11
10.85921295600031
 21
3.45004999999995
  0
LINE
  5
102
100
AcDbEntity
  8
1
  6
CONTINUOUS
 62
             7
100
AcDbLine
 10
2.78445012402642
 20
6.75004999999996
 11
2.24394694573201
 21
5.71874855920105
  0
LINE
  5
101
100
AcDbEntity
  8
1
  6
CONTINUOUS
 62
             7
100
AcDbLine
 10
4.0372050443994
 20
6.75004999999996
 11
4.44192107892562
 21
5.59080653266602
  0
LINE
  5
100
100
AcDbEntity
  8
1
  6
CONTINUOUS
 62
             7
100
AcDbLine
 10
2.24394694573201
 20
5.71874855920105
 11
2.06295927354941
 21
3.65004999999995
  0
LINE
  5
FF
100
AcDbEntity
  8
1
  6
CONTINUOUS
 62
             7
100
AcDbLine
 10
3.2683850209568
 20
5.95004999999995
 11
2.06295927354941
 21
3.65004999999995
  0
LINE
  5
FE
100
AcDbEntity
  8
1
  6
CONTINUOUS
 62
             7
100
AcDbLine
 10
3.46914898846541
 20
5.95004999999995
 11
4.2721268836535
 21
3.65004999999995
  0
LINE
  5
FD
100
AcDbEntity
  8
1
  6
CONTINUOUS
 62
             7
100
AcDbLine
 10
4.44192107892562
 20
5.59080653266602
 11
4.2721268836535
 21
3.65004999999995
  0
LINE
  5
FC
100
AcDbEntity
  8
1
  6
CONTINUOUS
 62
             7
100
AcDbLine
 10
3.2683850209568
 20
5.95004999999995
 11
3.33837595177752
 21
6.75004999999996
  0
LINE
  5
FB
100
AcDbEntity
  8
1
  6
CONTINUOUS
 62
             7
100
AcDbLine
 10
3.33837595177752
 20
6.75004999999996
 11
2.78445012402642
 21
6.75004999999996
  0
LINE
  5
FA
100
AcDbEntity
  8
1
  6
CONTINUOUS
 62
             7
100
AcDbLine
 10
3.46914898846541
 20
5.95004999999995
 11
3.53913991928621
 21
6.75004999999996
  0
LINE
  5
F9
100
AcDbEntity
  8
1
  6
CONTINUOUS
 62
             7
100
AcDbLine
 10
3.53913991928621
 20
6.75004999999996
 11
4.0372050443994
 21
6.75004999999996
  0
LINE
  5
F8
100
AcDbEntity
  8
1
  6
CONTINUOUS
 62
             7
100
AcDbLine
 10
4.75605305426802
 20
9.18135144079885
 11
4.9370407264505
 21
11.25004999999996
  0
LINE
  5
F7
100
AcDbEntity
  8
1
  6
CONTINUOUS
 62
             7
100
AcDbLine
 10
4.21554987597361
 20
8.15004999999995
 11
4.75605305426802
 21
9.18135144079885
  0
LINE
  5
F6
100
AcDbEntity
  8
1
  6
CONTINUOUS
 62
             7
100
AcDbLine
 10
3.66162404822242
 20
8.15004999999995
 11
4.21554987597361
 21
8.15004999999995
  0
LINE
  5
F5
100
AcDbEntity
  8
1
  6
CONTINUOUS
 62
             7
100
AcDbLine
 10
3.7316149790432
 20
8.95004999999995
 11
3.66162404822242
 21
8.15004999999995
  0
LINE
  5
F4
100
AcDbEntity
  8
1
  6
CONTINUOUS
 62
             7
100
AcDbLine
 10
2.5580789210743
 20
9.30929346733386
 11
2.7278731163465
 21
11.25004999999996
  0
LINE
  5
F3
100
AcDbEntity
  8
1
  6
CONTINUOUS
 62
             7
100
AcDbLine
 10
2.96279495560051
 20
8.15004999999995
 11
2.5580789210743
 21
9.30929346733386
  0
LINE
  5
F2
100
AcDbEntity
  8
1
  6
CONTINUOUS
 62
             7
100
AcDbLine
 10
3.46086008071382
 20
8.15004999999995
 11
2.96279495560051
 21
8.15004999999995
  0
LINE
  5
F1
100
AcDbEntity
  8
1
  6
CONTINUOUS
 62
             7
100
AcDbLine
 10
3.53085101153451
 20
8.95004999999995
 11
3.46086008071382
 21
8.15004999999995
  0
LINE
  5
F0
100
AcDbEntity
  8
1
  6
CONTINUOUS
 62
             7
100
AcDbLine
 10
3.7316149790432
 20
8.95004999999995
 11
4.9370407264505
 21
11.25004999999996
  0
LINE
  5
EF
100
AcDbEntity
  8
1
  6
CONTINUOUS
 62
             7
100
AcDbLine
 10
3.53085101153451
 20
8.95004999999995
 11
2.7278731163465
 21
11.25004999999996
  0
LINE
  5
EE
100
AcDbEntity
  8
1
  6
CONTINUOUS
 62
             7
100
AcDbLine
 10
1.54078704399962
 20
11.45004999999995
 11
2.01271356085331
 21
11.88249097923838
  0
LINE
  5
ED
100
AcDbEntity
  8
1
  6
CONTINUOUS
 62
             7
100
AcDbLine
 10
2.63209554506892
 20
12.45004999999995
 11
5.24279109019031
 21
12.45004999999995
  0
LINE
  5
EC
100
AcDbEntity
  8
1
  6
CONTINUOUS
 62
             7
100
AcDbLine
 10
5.24279109019031
 20
12.45004999999995
 11
5.63339765643752
 21
12.02377773368096
  0
LINE
  5
EB
100
AcDbEntity
  8
1
  6
CONTINUOUS
 62
             7
100
AcDbLine
 10
0.84087773579222
 20
3.45004999999995
 11
1.23148430203941
 21
3.02377773368094
  0
LINE
  5
EA
100
AcDbEntity
  8
1
  6
CONTINUOUS
 62
             7
100
AcDbLine
 10
1.75720890980961
 20
2.45004999999995
 11
4.36790445493102
 21
2.45004999999995
  0
LINE
  5
E9
100
AcDbEntity
  8
1
  6
CONTINUOUS
 62
             7
100
AcDbLine
 10
4.36790445493102
 20
2.45004999999995
 11
4.83983097178472
 21
2.88249097923838
  0
LINE
  5
E8
100
AcDbEntity
  8
1
  6
CONTINUOUS
 62
             7
100
AcDbLine
 10
5.4592129560003
 20
3.45004999999995
 11
5.7536019814699
 21
6.81493195847681
  0
LINE
  5
E7
100
AcDbEntity
  8
1
  6
CONTINUOUS
 62
             7
100
AcDbLine
 10
1.24639801853002
 20
8.08516804152309
 11
1.69891102158701
 21
7.59133675444251
  0
LINE
  5
E6
100
AcDbEntity
  8
1
  6
CONTINUOUS
 62
             7
100
AcDbLine
 10
1.24639801853002
 20
8.08516804152309
 11
1.54078704399962
 21
11.45004999999995
  0
LINE
  5
E5
100
AcDbEntity
  8
1
  6
CONTINUOUS
 62
             7
100
AcDbLine
 10
1.69891102158701
 20
7.59133675444251
 11
2.2512972409713
 21
8.09750546736197
  0
LINE
  5
E4
100
AcDbEntity
  8
1
  6
CONTINUOUS
 62
             7
100
AcDbLine
 10
2.2512972409713
 20
8.09750546736197
 11
2.5327855846719
 21
11.31493195847682
  0
LINE
  5
E3
100
AcDbEntity
  8
1
  6
CONTINUOUS
 62
             7
100
AcDbLine
 10
1.13418737636391
 20
6.80259453263793
 11
1.6865735957482
 21
7.30876324555736
  0
LINE
  5
E2
100
AcDbEntity
  8
1
  6
CONTINUOUS
 62
             7
100
AcDbLine
 10
1.13418737636391
 20
6.80259453263793
 11
0.84087773579222
 21
3.45004999999995
  0
LINE
  5
E1
100
AcDbEntity
  8
1
  6
CONTINUOUS
 62
             7
100
AcDbLine
 10
1.6865735957482
 20
7.30876324555736
 11
2.13908659880522
 21
6.81493195847681
  0
LINE
  5
E0
100
AcDbEntity
  8
1
  6
CONTINUOUS
 62
             7
100
AcDbLine
 10
2.2865420661673
 20
6.95004999999995
 11
1.83402906311022
 21
7.44388128708049
  0
LINE
  5
DF
100
AcDbEntity
  8
1
  6
CONTINUOUS
 62
             7
100
AcDbLine
 10
1.83402906311022
 20
7.44388128708049
 11
2.38641528249451
 21
7.95004999999995
  0
LINE
  5
DE
100
AcDbEntity
  8
1
  6
CONTINUOUS
 62
             7
100
AcDbLine
 10
2.38641528249451
 20
7.95004999999995
 11
4.7134579338327
 21
7.95004999999995
  0
LINE
  5
DD
100
AcDbEntity
  8
1
  6
CONTINUOUS
 62
             7
100
AcDbLine
 10
4.7134579338327
 20
7.95004999999995
 11
5.16597093688981
 21
7.45621871291939
  0
LINE
  5
DC
100
AcDbEntity
  8
1
  6
CONTINUOUS
 62
             7
100
AcDbLine
 10
5.16597093688981
 20
7.45621871291939
 11
4.61358471750552
 21
6.95004999999995
  0
LINE
  5
DB
100
AcDbEntity
  8
1
  6
CONTINUOUS
 62
             7
100
AcDbLine
 10
4.61358471750552
 20
6.95004999999995
 11
2.2865420661673
 21
6.95004999999995
  0
LINE
  5
DA
100
AcDbEntity
  8
1
  6
CONTINUOUS
 62
             7
100
AcDbLine
 10
4.74870275902862
 20
6.80259453263791
 11
5.30108897841291
 21
7.30876324555736
  0
LINE
  5
D9
100
AcDbEntity
  8
1
  6
CONTINUOUS
 62
             7
100
AcDbLine
 10
4.74870275902862
 20
6.80259453263791
 11
4.46721441532802
 21
3.58516804152308
  0
LINE
  5
D8
100
AcDbEntity
  8
1
  6
CONTINUOUS
 62
             7
100
AcDbLine
 10
5.30108897841291
 20
7.30876324555736
 11
5.7536019814699
 21
6.81493195847681
  0
LINE
  5
D7
100
AcDbEntity
  8
1
  6
CONTINUOUS
 62
             7
100
AcDbLine
 10
4.86091340119472
 20
8.08516804152309
 11
5.3134264042518
 21
7.59133675444251
  0
LINE
  5
D6
100
AcDbEntity
  8
1
  6
CONTINUOUS
 62
             7
100
AcDbLine
 10
5.3134264042518
 20
7.59133675444251
 11
5.86581262363612
 21
8.09750546736197
  0
LINE
  5
D5
100
AcDbEntity
  8
1
  6
CONTINUOUS
 62
             7
100
AcDbLine
 10
5.86581262363612
 20
8.09750546736197
 11
6.15912226420772
 21
11.45004999999995
  0
LINE
  5
D4
100
AcDbEntity
  8
1
  6
CONTINUOUS
 62
             7
100
AcDbLine
 10
2.01271356085331
 20
11.88249097923838
 11
2.5327855846719
 21
11.31493195847682
  0
LINE
  5
D3
100
AcDbEntity
  8
1
  6
CONTINUOUS
 62
             7
100
AcDbLine
 10
2.68024105203392
 20
11.45004999999995
 11
2.16016902821531
 21
12.01760902076151
  0
LINE
  5
D2
100
AcDbEntity
  8
1
  6
CONTINUOUS
 62
             7
100
AcDbLine
 10
2.68024105203392
 20
11.45004999999995
 11
5.00728370337211
 21
11.45004999999995
  0
LINE
  5
D1
100
AcDbEntity
  8
1
  6
CONTINUOUS
 62
             7
100
AcDbLine
 10
2.16016902821531
 20
12.01760902076151
 11
2.63209554506892
 21
12.45004999999995
  0
LINE
  5
D0
100
AcDbEntity
  8
1
  6
CONTINUOUS
 62
             7
100
AcDbLine
 10
5.00728370337211
 20
11.45004999999995
 11
5.63339765643752
 21
12.02377773368096
  0
LINE
  5
CF
100
AcDbEntity
  8
1
  6
CONTINUOUS
 62
             7
100
AcDbLine
 10
5.14240174489532
 20
11.30259453263793
 11
5.76851569796062
 21
11.87632226631894
  0
LINE
  5
CE
100
AcDbEntity
  8
1
  6
CONTINUOUS
 62
             7
100
AcDbLine
 10
5.14240174489532
 20
11.30259453263793
 11
4.86091340119472
 21
8.08516804152309
  0
LINE
  5
CD
100
AcDbEntity
  8
1
  6
CONTINUOUS
 62
             7
100
AcDbLine
 10
5.76851569796062
 20
11.87632226631894
 11
6.15912226420772
 21
11.45004999999995
  0
LINE
  5
CC
100
AcDbEntity
  8
1
  6
CONTINUOUS
 62
             7
100
AcDbLine
 10
1.85759825510471
 20
3.59750546736197
 11
1.23148430203941
 21
3.02377773368094
  0
LINE
  5
CB
100
AcDbEntity
  8
1
  6
CONTINUOUS
 62
             7
100
AcDbLine
 10
1.85759825510471
 20
3.59750546736197
 11
2.13908659880522
 21
6.81493195847681
  0
LINE
  5
CA
100
AcDbEntity
  8
1
  6
CONTINUOUS
 62
             7
100
AcDbLine
 10
1.9927162966278
 20
3.45004999999995
 11
1.36660234356251
 21
2.87632226631892
  0
LINE
  5
C9
100
AcDbEntity
  8
1
  6
CONTINUOUS
 62
             7
100
AcDbLine
 10
1.36660234356251
 20
2.87632226631892
 11
1.75720890980961
 21
2.45004999999995
  0
LINE
  5
C8
100
AcDbEntity
  8
1
  6
CONTINUOUS
 62
             7
100
AcDbLine
 10
4.31975894796602
 20
3.45004999999995
 11
4.83983097178472
 21
2.88249097923838
  0
LINE
  5
C7
100
AcDbEntity
  8
1
  6
CONTINUOUS
 62
             7
100
AcDbLine
 10
4.31975894796602
 20
3.45004999999995
 11
1.9927162966278
 21
3.45004999999995
  0
LINE
  5
C6
100
AcDbEntity
  8
1
  6
CONTINUOUS
 62
             7
100
AcDbLine
 10
4.98728643914671
 20
3.01760902076151
 11
4.46721441532802
 21
3.58516804152308
  0
LINE
  5
C5
100
AcDbEntity
  8
1
  6
CONTINUOUS
 62
             7
100
AcDbLine
 10
4.98728643914671
 20
3.01760902076151
 11
5.4592129560003
 21
3.45004999999995
  0
LINE
  5
C4
100
AcDbEntity
  8
1
  6
CONTINUOUS
 62
             7
100
AcDbLine
 10
-2.61554987597358
 20
6.75004999999996
 11
-3.156053054268
 21
5.71874855920105
  0
LINE
  5
C3
100
AcDbEntity
  8
1
  6
CONTINUOUS
 62
             7
100
AcDbLine
 10
-1.36279495560058
 20
6.75004999999996
 11
-0.95807892107428
 21
5.59080653266602
  0
LINE
  5
C2
100
AcDbEntity
  8
1
  6
CONTINUOUS
 62
             7
100
AcDbLine
 10
-3.156053054268
 20
5.71874855920105
 11
-3.3370407264506
 21
3.65004999999995
  0
LINE
  5
C1
100
AcDbEntity
  8
1
  6
CONTINUOUS
 62
             7
100
AcDbLine
 10
-2.13161497904329
 20
5.95004999999995
 11
-3.3370407264506
 21
3.65004999999995
  0
LINE
  5
C0
100
AcDbEntity
  8
1
  6
CONTINUOUS
 62
             7
100
AcDbLine
 10
-1.9308510115346
 20
5.95004999999995
 11
-1.12787311634648
 21
3.65004999999995
  0
LINE
  5
BF
100
AcDbEntity
  8
1
  6
CONTINUOUS
 62
             7
100
AcDbLine
 10
-0.95807892107428
 20
5.59080653266602
 11
-1.12787311634648
 21
3.65004999999995
  0
LINE
  5
BE
100
AcDbEntity
  8
1
  6
CONTINUOUS
 62
             7
100
AcDbLine
 10
-2.13161497904329
 20
5.95004999999995
 11
-2.06162404822248
 21
6.75004999999996
  0
LINE
  5
BD
100
AcDbEntity
  8
1
  6
CONTINUOUS
 62
             7
100
AcDbLine
 10
-2.06162404822248
 20
6.75004999999996
 11
-2.61554987597358
 21
6.75004999999996
  0
LINE
  5
BC
100
AcDbEntity
  8
1
  6
CONTINUOUS
 62
             7
100
AcDbLine
 10
-1.9308510115346
 20
5.95004999999995
 11
-1.86086008071379
 21
6.75004999999996
  0
LINE
  5
BB
100
AcDbEntity
  8
1
  6
CONTINUOUS
 62
             7
100
AcDbLine
 10
-1.86086008071379
 20
6.75004999999996
 11
-1.36279495560058
 21
6.75004999999996
  0
LINE
  5
BA
100
AcDbEntity
  8
1
  6
CONTINUOUS
 62
             7
100
AcDbLine
 10
-0.64394694573198
 20
9.18135144079885
 11
-0.4629592735495
 21
11.25004999999996
  0
LINE
  5
B9
100
AcDbEntity
  8
1
  6
CONTINUOUS
 62
             7
100
AcDbLine
 10
-1.1844501240264
 20
8.15004999999995
 11
-0.64394694573198
 21
9.18135144079885
  0
LINE
  5
B8
100
AcDbEntity
  8
1
  6
CONTINUOUS
 62
             7
100
AcDbLine
 10
-1.7383759517775
 20
8.15004999999995
 11
-1.1844501240264
 21
8.15004999999995
  0
LINE
  5
B7
100
AcDbEntity
  8
1
  6
CONTINUOUS
 62
             7
100
AcDbLine
 10
-1.66838502095678
 20
8.95004999999995
 11
-1.7383759517775
 21
8.15004999999995
  0
LINE
  5
B6
100
AcDbEntity
  8
1
  6
CONTINUOUS
 62
             7
100
AcDbLine
 10
-2.84192107892568
 20
9.30929346733386
 11
-2.67212688365348
 21
11.25004999999996
  0
LINE
  5
B5
100
AcDbEntity
  8
1
  6
CONTINUOUS
 62
             7
100
AcDbLine
 10
-2.43720504439949
 20
8.15004999999995
 11
-2.84192107892568
 21
9.30929346733386
  0
LINE
  5
B4
100
AcDbEntity
  8
1
  6
CONTINUOUS
 62
             7
100
AcDbLine
 10
-1.93913991928619
 20
8.15004999999995
 11
-2.43720504439949
 21
8.15004999999995
  0
LINE
  5
B3
100
AcDbEntity
  8
1
  6
CONTINUOUS
 62
             7
100
AcDbLine
 10
-1.8691489884655
 20
8.95004999999995
 11
-1.93913991928619
 21
8.15004999999995
  0
LINE
  5
B2
100
AcDbEntity
  8
1
  6
CONTINUOUS
 62
             7
100
AcDbLine
 10
-1.66838502095678
 20
8.95004999999995
 11
-0.4629592735495
 21
11.25004999999996
  0
LINE
  5
B1
100
AcDbEntity
  8
1
  6
CONTINUOUS
 62
             7
100
AcDbLine
 10
-1.8691489884655
 20
8.95004999999995
 11
-2.67212688365348
 21
11.25004999999996
  0
LINE
  5
B0
100
AcDbEntity
  8
1
  6
CONTINUOUS
 62
             7
100
AcDbLine
 10
-3.85921295600039
 20
11.45004999999995
 11
-3.38728643914669
 21
11.88249097923838
  0
LINE
  5
AF
100
AcDbEntity
  8
1
  6
CONTINUOUS
 62
             7
100
AcDbLine
 10
-2.76790445493108
 20
12.45004999999995
 11
-0.1572089098097
 21
12.45004999999995
  0
LINE
  5
AE
100
AcDbEntity
  8
1
  6
CONTINUOUS
 62
             7
100
AcDbLine
 10
-0.1572089098097
 20
12.45004999999995
 11
0.2333976564374
 21
12.02377773368096
  0
LINE
  5
AD
100
AcDbEntity
  8
1
  6
CONTINUOUS
 62
             7
100
AcDbLine
 10
-4.55912226420779
 20
3.45004999999995
 11
-4.1685156979606
 21
3.02377773368094
  0
LINE
  5
AC
100
AcDbEntity
  8
1
  6
CONTINUOUS
 62
             7
100
AcDbLine
 10
-3.64279109019029
 20
2.45004999999995
 11
-1.03209554506898
 21
2.45004999999995
  0
LINE
  5
AB
100
AcDbEntity
  8
1
  6
CONTINUOUS
 62
             7
100
AcDbLine
 10
-1.03209554506898
 20
2.45004999999995
 11
-0.56016902821528
 21
2.88249097923838
  0
LINE
  5
AA
100
AcDbEntity
  8
1
  6
CONTINUOUS
 62
             7
100
AcDbLine
 10
0.05921295600032
 20
3.45004999999995
 11
0.35360198147001
 21
6.81493195847681
  0
LINE
  5
A9
100
AcDbEntity
  8
1
  6
CONTINUOUS
 62
             7
100
AcDbLine
 10
-4.15360198146999
 20
8.08516804152309
 11
-3.701088978413
 21
7.59133675444251
  0
LINE
  5
A8
100
AcDbEntity
  8
1
  6
CONTINUOUS
 62
             7
100
AcDbLine
 10
-4.15360198146999
 20
8.08516804152309
 11
-3.85921295600039
 21
11.45004999999995
  0
LINE
  5
A7
100
AcDbEntity
  8
1
  6
CONTINUOUS
 62
             7
100
AcDbLine
 10
-3.701088978413
 20
7.59133675444251
 11
-3.14870275902868
 21
8.09750546736197
  0
LINE
  5
A6
100
AcDbEntity
  8
1
  6
CONTINUOUS
 62
             7
100
AcDbLine
 10
-3.14870275902868
 20
8.09750546736197
 11
-2.86721441532808
 21
11.31493195847682
  0
LINE
  5
A5
100
AcDbEntity
  8
1
  6
CONTINUOUS
 62
             7
100
AcDbLine
 10
-4.26581262363609
 20
6.80259453263793
 11
-3.71342640425178
 21
7.30876324555736
  0
LINE
  5
A4
100
AcDbEntity
  8
1
  6
CONTINUOUS
 62
             7
100
AcDbLine
 10
-4.26581262363609
 20
6.80259453263793
 11
-4.55912226420779
 21
3.45004999999995
  0
LINE
  5
A3
100
AcDbEntity
  8
1
  6
CONTINUOUS
 62
             7
100
AcDbLine
 10
-3.71342640425178
 20
7.30876324555736
 11
-3.26091340119478
 21
6.81493195847681
  0
LINE
  5
A2
100
AcDbEntity
  8
1
  6
CONTINUOUS
 62
             7
100
AcDbLine
 10
-3.11345793383279
 20
6.95004999999995
 11
-3.56597093688978
 21
7.44388128708049
  0
LINE
  5
A1
100
AcDbEntity
  8
1
  6
CONTINUOUS
 62
             7
100
AcDbLine
 10
-3.56597093688978
 20
7.44388128708049
 11
-3.01358471750549
 21
7.95004999999995
  0
LINE
  5
A0
100
AcDbEntity
  8
1
  6
CONTINUOUS
 62
             7
100
AcDbLine
 10
-3.01358471750549
 20
7.95004999999995
 11
-0.68654206616728
 21
7.95004999999995
  0
LINE
  5
9F
100
AcDbEntity
  8
1
  6
CONTINUOUS
 62
             7
100
AcDbLine
 10
-0.68654206616728
 20
7.95004999999995
 11
-0.2340290631102
 21
7.45621871291939
  0
LINE
  5
9E
100
AcDbEntity
  8
1
  6
CONTINUOUS
 62
             7
100
AcDbLine
 10
-0.2340290631102
 20
7.45621871291939
 11
-0.78641528249449
 21
6.95004999999995
  0
LINE
  5
9D
100
AcDbEntity
  8
1
  6
CONTINUOUS
 62
             7
100
AcDbLine
 10
-0.78641528249449
 20
6.95004999999995
 11
-3.11345793383279
 21
6.95004999999995
  0
LINE
  5
9C
100
AcDbEntity
  8
1
  6
CONTINUOUS
 62
             7
100
AcDbLine
 10
-0.65129724097139
 20
6.80259453263791
 11
-0.0989110215871
 21
7.30876324555736
  0
LINE
  5
9B
100
AcDbEntity
  8
1
  6
CONTINUOUS
 62
             7
100
AcDbLine
 10
-0.65129724097139
 20
6.80259453263791
 11
-0.93278558467188
 21
3.58516804152308
  0
LINE
  5
9A
100
AcDbEntity
  8
1
  6
CONTINUOUS
 62
             7
100
AcDbLine
 10
-0.0989110215871
 20
7.30876324555736
 11
0.35360198147001
 21
6.81493195847681
  0
LINE
  5
99
100
AcDbEntity
  8
1
  6
CONTINUOUS
 62
             7
100
AcDbLine
 10
-0.53908659880528
 20
8.08516804152309
 11
-0.08657359574818
 21
7.59133675444251
  0
LINE
  5
98
100
AcDbEntity
  8
1
  6
CONTINUOUS
 62
             7
100
AcDbLine
 10
-0.08657359574818
 20
7.59133675444251
 11
0.46581262363611
 21
8.09750546736197
  0
LINE
  5
97
100
AcDbEntity
  8
1
  6
CONTINUOUS
 62
             7
100
AcDbLine
 10
0.46581262363611
 20
8.09750546736197
 11
0.75912226420772
 21
11.45004999999995
  0
LINE
  5
96
100
AcDbEntity
  8
1
  6
CONTINUOUS
 62
             7
100
AcDbLine
 10
-3.38728643914669
 20
11.88249097923838
 11
-2.86721441532808
 21
11.31493195847682
  0
LINE
  5
95
100
AcDbEntity
  8
1
  6
CONTINUOUS
 62
             7
100
AcDbLine
 10
-2.71975894796608
 20
11.45004999999995
 11
-3.2398309717847
 21
12.01760902076151
  0
LINE
  5
94
100
AcDbEntity
  8
1
  6
CONTINUOUS
 62
             7
100
AcDbLine
 10
-2.71975894796608
 20
11.45004999999995
 11
-0.3927162966279
 21
11.45004999999995
  0
LINE
  5
93
100
AcDbEntity
  8
1
  6
CONTINUOUS
 62
             7
100
AcDbLine
 10
-3.2398309717847
 20
12.01760902076151
 11
-2.76790445493108
 21
12.45004999999995
  0
LINE
  5
92
100
AcDbEntity
  8
1
  6
CONTINUOUS
 62
             7
100
AcDbLine
 10
-0.3927162966279
 20
11.45004999999995
 11
0.2333976564374
 21
12.02377773368096
  0
LINE
  5
91
100
AcDbEntity
  8
1
  6
CONTINUOUS
 62
             7
100
AcDbLine
 10
-0.25759825510468
 20
11.30259453263793
 11
0.36851569796062
 21
11.87632226631894
  0
LINE
  5
90
100
AcDbEntity
  8
1
  6
CONTINUOUS
 62
             7
100
AcDbLine
 10
-0.25759825510468
 20
11.30259453263793
 11
-0.53908659880528
 21
8.08516804152309
  0
LINE
  5
8F
100
AcDbEntity
  8
1
  6
CONTINUOUS
 62
             7
100
AcDbLine
 10
0.36851569796062
 20
11.87632226631894
 11
0.75912226420772
 21
11.45004999999995
  0
LINE
  5
8E
100
AcDbEntity
  8
1
  6
CONTINUOUS
 62
             7
100
AcDbLine
 10
-3.5424017448953
 20
3.59750546736197
 11
-4.1685156979606
 21
3.02377773368094
  0
LINE
  5
8D
100
AcDbEntity
  8
1
  6
CONTINUOUS
 62
             7
100
AcDbLine
 10
-3.5424017448953
 20
3.59750546736197
 11
-3.26091340119478
 21
6.81493195847681
  0
LINE
  5
8C
100
AcDbEntity
  8
1
  6
CONTINUOUS
 62
             7
100
AcDbLine
 10
-3.4072837033722
 20
3.45004999999995
 11
-4.0333976564375
 21
2.87632226631892
  0
LINE
  5
8B
100
AcDbEntity
  8
1
  6
CONTINUOUS
 62
             7
100
AcDbLine
 10
-4.0333976564375
 20
2.87632226631892
 11
-3.64279109019029
 21
2.45004999999995
  0
LINE
  5
8A
100
AcDbEntity
  8
1
  6
CONTINUOUS
 62
             7
100
AcDbLine
 10
-1.08024105203398
 20
3.45004999999995
 11
-0.56016902821528
 21
2.88249097923838
  0
LINE
  5
89
100
AcDbEntity
  8
1
  6
CONTINUOUS
 62
             7
100
AcDbLine
 10
-1.08024105203398
 20
3.45004999999995
 11
-3.4072837033722
 21
3.45004999999995
  0
LINE
  5
88
100
AcDbEntity
  8
1
  6
CONTINUOUS
 62
             7
100
AcDbLine
 10
-0.41271356085329
 20
3.01760902076151
 11
-0.93278558467188
 21
3.58516804152308
  0
LINE
  5
87
100
AcDbEntity
  8
1
  6
CONTINUOUS
 62
             7
100
AcDbLine
 10
-0.41271356085329
 20
3.01760902076151
 11
0.05921295600032
 21
3.45004999999995
  0
LINE
  5
86
100
AcDbEntity
  8
1
  6
CONTINUOUS
 62
             7
100
AcDbLine
 10
15.7872864391467
 20
-13.2823909792385
 11
16.25921295600031
 21
-12.84995000000006
  0
LINE
  5
85
100
AcDbEntity
  8
1
  6
CONTINUOUS
 62
             7
100
AcDbLine
 10
15.7872864391467
 20
-13.2823909792385
 11
15.267214415328
 21
-12.71483195847692
  0
LINE
  5
84
100
AcDbEntity
  8
1
  6
CONTINUOUS
 62
             7
100
AcDbLine
 10
16.56851569796061
 20
-4.42367773368106
 11
16.95912226420771
 21
-4.84995000000006
  0
LINE
  5
83
100
AcDbEntity
  8
1
  6
CONTINUOUS
 62
             7
100
AcDbLine
 10
15.94240174489531
 20
-4.99740546736207
 11
15.66091340119471
 21
-8.21483195847692
  0
LINE
  5
82
100
AcDbEntity
  8
1
  6
CONTINUOUS
 62
             7
100
AcDbLine
 10
15.94240174489531
 20
-4.99740546736207
 11
16.56851569796061
 21
-4.42367773368106
  0
LINE
  5
81
100
AcDbEntity
  8
1
  6
CONTINUOUS
 62
             7
100
AcDbLine
 10
16.6658126236361
 20
-8.20249453263803
 11
16.95912226420771
 21
-4.84995000000006
  0
LINE
  5
80
100
AcDbEntity
  8
1
  6
CONTINUOUS
 62
             7
100
AcDbLine
 10
16.11342640425181
 20
-8.70866324555748
 11
16.6658126236361
 21
-8.20249453263803
  0
LINE
  5
7F
100
AcDbEntity
  8
1
  6
CONTINUOUS
 62
             7
100
AcDbLine
 10
15.66091340119471
 20
-8.21483195847692
 11
16.11342640425181
 21
-8.70866324555748
  0
LINE
  5
7E
100
AcDbEntity
  8
1
  6
CONTINUOUS
 62
             7
100
AcDbLine
 10
16.10108897841292
 20
-8.99123675444263
 11
16.55360198147002
 21
-9.4850680415232
  0
LINE
  5
7D
100
AcDbEntity
  8
1
  6
CONTINUOUS
 62
             7
100
AcDbLine
 10
15.5487027590286
 20
-9.49740546736209
 11
15.267214415328
 21
-12.71483195847692
  0
LINE
  5
7C
100
AcDbEntity
  8
1
  6
CONTINUOUS
 62
             7
100
AcDbLine
 10
15.5487027590286
 20
-9.49740546736209
 11
16.10108897841292
 21
-8.99123675444263
  0
LINE
  5
7B
100
AcDbEntity
  8
1
  6
CONTINUOUS
 62
             7
100
AcDbLine
 10
16.25921295600031
 20
-12.84995000000006
 11
16.55360198147002
 21
-9.4850680415232
  0
LINE
  5
7A
100
AcDbEntity
  8
1
  6
CONTINUOUS
 62
             7
100
AcDbLine
 10
18.98445012402641
 20
-9.54995000000006
 11
18.44394694573191
 21
-10.58125144079896
  0
LINE
  5
79
100
AcDbEntity
  8
1
  6
CONTINUOUS
 62
             7
100
AcDbLine
 10
20.23720504439942
 20
-9.54995000000006
 11
20.64192107892561
 21
-10.70919346733397
  0
LINE
  5
78
100
AcDbEntity
  8
1
  6
CONTINUOUS
 62
             7
100
AcDbLine
 10
18.44394694573191
 20
-10.58125144079896
 11
18.2629592735494
 21
-12.64995000000006
  0
LINE
  5
77
100
AcDbEntity
  8
1
  6
CONTINUOUS
 62
             7
100
AcDbLine
 10
19.4683850209567
 20
-10.34995000000006
 11
18.2629592735494
 21
-12.64995000000006
  0
LINE
  5
76
100
AcDbEntity
  8
1
  6
CONTINUOUS
 62
             7
100
AcDbLine
 10
19.66914898846542
 20
-10.34995000000006
 11
20.47212688365352
 21
-12.64995000000006
  0
LINE
  5
75
100
AcDbEntity
  8
1
  6
CONTINUOUS
 62
             7
100
AcDbLine
 10
20.64192107892561
 20
-10.70919346733397
 11
20.47212688365352
 21
-12.64995000000006
  0
LINE
  5
74
100
AcDbEntity
  8
1
  6
CONTINUOUS
 62
             7
100
AcDbLine
 10
19.4683850209567
 20
-10.34995000000006
 11
19.53837595177751
 21
-9.54995000000006
  0
LINE
  5
73
100
AcDbEntity
  8
1
  6
CONTINUOUS
 62
             7
100
AcDbLine
 10
19.53837595177751
 20
-9.54995000000006
 11
18.98445012402641
 21
-9.54995000000006
  0
LINE
  5
72
100
AcDbEntity
  8
1
  6
CONTINUOUS
 62
             7
100
AcDbLine
 10
19.66914898846542
 20
-10.34995000000006
 11
19.7391399192862
 21
-9.54995000000006
  0
LINE
  5
71
100
AcDbEntity
  8
1
  6
CONTINUOUS
 62
             7
100
AcDbLine
 10
19.7391399192862
 20
-9.54995000000006
 11
20.23720504439942
 21
-9.54995000000006
  0
LINE
  5
70
100
AcDbEntity
  8
1
  6
CONTINUOUS
 62
             7
100
AcDbLine
 10
20.95605305426801
 20
-7.11864855920115
 11
21.13704072645052
 21
-5.04995000000006
  0
LINE
  5
6F
100
AcDbEntity
  8
1
  6
CONTINUOUS
 62
             7
100
AcDbLine
 10
20.41554987597363
 20
-8.14995000000006
 11
20.95605305426801
 21
-7.11864855920115
  0
LINE
  5
6E
100
AcDbEntity
  8
1
  6
CONTINUOUS
 62
             7
100
AcDbLine
 10
19.86162404822252
 20
-8.14995000000006
 11
20.41554987597363
 21
-8.14995000000006
  0
LINE
  5
6D
100
AcDbEntity
  8
1
  6
CONTINUOUS
 62
             7
100
AcDbLine
 10
19.93161497904322
 20
-7.34995000000006
 11
19.86162404822252
 21
-8.14995000000006
  0
LINE
  5
6C
100
AcDbEntity
  8
1
  6
CONTINUOUS
 62
             7
100
AcDbLine
 10
18.75807892107432
 20
-6.99070653266614
 11
18.92787311634652
 21
-5.04995000000006
  0
LINE
  5
6B
100
AcDbEntity
  8
1
  6
CONTINUOUS
 62
             7
100
AcDbLine
 10
19.1627949556005
 20
-8.14995000000006
 11
18.75807892107432
 21
-6.99070653266614
  0
LINE
  5
6A
100
AcDbEntity
  8
1
  6
CONTINUOUS
 62
             7
100
AcDbLine
 10
19.6608600807138
 20
-8.14995000000006
 11
19.1627949556005
 21
-8.14995000000006
  0
LINE
  5
69
100
AcDbEntity
  8
1
  6
CONTINUOUS
 62
             7
100
AcDbLine
 10
19.7308510115345
 20
-7.34995000000006
 11
19.6608600807138
 21
-8.14995000000006
  0
LINE
  5
68
100
AcDbEntity
  8
1
  6
CONTINUOUS
 62
             7
100
AcDbLine
 10
19.93161497904322
 20
-7.34995000000006
 11
21.13704072645052
 21
-5.04995000000006
  0
LINE
  5
67
100
AcDbEntity
  8
1
  6
CONTINUOUS
 62
             7
100
AcDbLine
 10
19.7308510115345
 20
-7.34995000000006
 11
18.92787311634652
 21
-5.04995000000006
  0
LINE
  5
66
100
AcDbEntity
  8
1
  6
CONTINUOUS
 62
             7
100
AcDbLine
 10
17.7407870439996
 20
-4.84995000000006
 11
18.2127135608533
 21
-4.41750902076162
  0
LINE
  5
65
100
AcDbEntity
  8
1
  6
CONTINUOUS
 62
             7
100
AcDbLine
 10
18.83209554506891
 20
-3.84995000000006
 11
21.4427910901903
 21
-3.84995000000006
  0
LINE
  5
64
100
AcDbEntity
  8
1
  6
CONTINUOUS
 62
             7
100
AcDbLine
 10
21.4427910901903
 20
-3.84995000000006
 11
21.8333976564374
 21
-4.27622226631903
  0
LINE
  5
63
100
AcDbEntity
  8
1
  6
CONTINUOUS
 62
             7
100
AcDbLine
 10
17.04087773579221
 20
-12.84995000000006
 11
17.43148430203942
 21
-13.27622226631906
  0
LINE
  5
62
100
AcDbEntity
  8
1
  6
CONTINUOUS
 62
             7
100
AcDbLine
 10
17.95720890980971
 20
-13.84995000000006
 11
20.56790445493101
 21
-13.84995000000006
  0
LINE
  5
61
100
AcDbEntity
  8
1
  6
CONTINUOUS
 62
             7
100
AcDbLine
 10
20.56790445493101
 20
-13.84995000000006
 11
21.03983097178471
 21
-13.41750902076162
  0
LINE
  5
60
100
AcDbEntity
  8
1
  6
CONTINUOUS
 62
             7
100
AcDbLine
 10
21.65921295600032
 20
-12.84995000000006
 11
21.95360198147
 21
-9.4850680415232
  0
LINE
  5
5F
100
AcDbEntity
  8
1
  6
CONTINUOUS
 62
             7
100
AcDbLine
 10
17.44639801853
 20
-8.21483195847692
 11
17.89891102158703
 21
-8.70866324555748
  0
LINE
  5
5E
100
AcDbEntity
  8
1
  6
CONTINUOUS
 62
             7
100
AcDbLine
 10
17.44639801853
 20
-8.21483195847692
 11
17.7407870439996
 21
-4.84995000000006
  0
LINE
  5
5D
100
AcDbEntity
  8
1
  6
CONTINUOUS
 62
             7
100
AcDbLine
 10
17.89891102158703
 20
-8.70866324555748
 11
18.45129724097131
 21
-8.20249453263803
  0
LINE
  5
5C
100
AcDbEntity
  8
1
  6
CONTINUOUS
 62
             7
100
AcDbLine
 10
18.45129724097131
 20
-8.20249453263803
 11
18.73278558467192
 21
-4.98506804152318
  0
LINE
  5
5B
100
AcDbEntity
  8
1
  6
CONTINUOUS
 62
             7
100
AcDbLine
 10
17.3341873763639
 20
-9.49740546736207
 11
17.88657359574822
 21
-8.99123675444263
  0
LINE
  5
5A
100
AcDbEntity
  8
1
  6
CONTINUOUS
 62
             7
100
AcDbLine
 10
17.3341873763639
 20
-9.49740546736207
 11
17.04087773579221
 21
-12.84995000000006
  0
LINE
  5
59
100
AcDbEntity
  8
1
  6
CONTINUOUS
 62
             7
100
AcDbLine
 10
17.88657359574822
 20
-8.99123675444263
 11
18.33908659880521
 21
-9.4850680415232
  0
LINE
  5
58
100
AcDbEntity
  8
1
  6
CONTINUOUS
 62
             7
100
AcDbLine
 10
18.4865420661672
 20
-9.34995000000006
 11
18.03402906311021
 21
-8.85611871291951
  0
LINE
  5
57
100
AcDbEntity
  8
1
  6
CONTINUOUS
 62
             7
100
AcDbLine
 10
18.03402906311021
 20
-8.85611871291951
 11
18.5864152824945
 21
-8.34995000000006
  0
LINE
  5
56
100
AcDbEntity
  8
1
  6
CONTINUOUS
 62
             7
100
AcDbLine
 10
18.5864152824945
 20
-8.34995000000006
 11
20.91345793383272
 21
-8.34995000000006
  0
LINE
  5
55
100
AcDbEntity
  8
1
  6
CONTINUOUS
 62
             7
100
AcDbLine
 10
20.91345793383272
 20
-8.34995000000006
 11
21.36597093688982
 21
-8.84378128708061
  0
LINE
  5
54
100
AcDbEntity
  8
1
  6
CONTINUOUS
 62
             7
100
AcDbLine
 10
21.36597093688982
 20
-8.84378128708061
 11
20.81358471750551
 21
-9.34995000000006
  0
LINE
  5
53
100
AcDbEntity
  8
1
  6
CONTINUOUS
 62
             7
100
AcDbLine
 10
20.81358471750551
 20
-9.34995000000006
 11
18.4865420661672
 21
-9.34995000000006
  0
LINE
  5
52
100
AcDbEntity
  8
1
  6
CONTINUOUS
 62
             7
100
AcDbLine
 10
20.94870275902861
 20
-9.49740546736209
 11
21.50108897841292
 21
-8.99123675444263
  0
LINE
  5
51
100
AcDbEntity
  8
1
  6
CONTINUOUS
 62
             7
100
AcDbLine
 10
20.94870275902861
 20
-9.49740546736209
 11
20.667214415328
 21
-12.71483195847692
  0
LINE
  5
50
100
AcDbEntity
  8
1
  6
CONTINUOUS
 62
             7
100
AcDbLine
 10
21.50108897841292
 20
-8.99123675444263
 11
21.95360198147
 21
-9.4850680415232
  0
LINE
  5
4F
100
AcDbEntity
  8
1
  6
CONTINUOUS
 62
             7
100
AcDbLine
 10
21.06091340119471
 20
-8.21483195847692
 11
21.51342640425182
 21
-8.70866324555748
  0
LINE
  5
4E
100
AcDbEntity
  8
1
  6
CONTINUOUS
 62
             7
100
AcDbLine
 10
21.51342640425182
 20
-8.70866324555748
 11
22.06581262363611
 21
-8.20249453263803
  0
LINE
  5
4D
100
AcDbEntity
  8
1
  6
CONTINUOUS
 62
             7
100
AcDbLine
 10
22.06581262363611
 20
-8.20249453263803
 11
22.35912226420771
 21
-4.84995000000006
  0
LINE
  5
4C
100
AcDbEntity
  8
1
  6
CONTINUOUS
 62
             7
100
AcDbLine
 10
18.2127135608533
 20
-4.41750902076162
 11
18.73278558467192
 21
-4.98506804152318
  0
LINE
  5
4B
100
AcDbEntity
  8
1
  6
CONTINUOUS
 62
             7
100
AcDbLine
 10
18.88024105203391
 20
-4.84995000000006
 11
18.36016902821532
 21
-4.2823909792385
  0
LINE
  5
4A
100
AcDbEntity
  8
1
  6
CONTINUOUS
 62
             7
100
AcDbLine
 10
18.88024105203391
 20
-4.84995000000006
 11
21.2072837033721
 21
-4.84995000000006
  0
LINE
  5
49
100
AcDbEntity
  8
1
  6
CONTINUOUS
 62
             7
100
AcDbLine
 10
18.36016902821532
 20
-4.2823909792385
 11
18.83209554506891
 21
-3.84995000000006
  0
LINE
  5
48
100
AcDbEntity
  8
1
  6
CONTINUOUS
 62
             7
100
AcDbLine
 10
21.2072837033721
 20
-4.84995000000006
 11
21.8333976564374
 21
-4.27622226631903
  0
LINE
  5
47
100
AcDbEntity
  8
1
  6
CONTINUOUS
 62
             7
100
AcDbLine
 10
21.34240174489531
 20
-4.99740546736207
 11
21.96851569796061
 21
-4.42367773368106
  0
LINE
  5
46
100
AcDbEntity
  8
1
  6
CONTINUOUS
 62
             7
100
AcDbLine
 10
21.34240174489531
 20
-4.99740546736207
 11
21.06091340119471
 21
-8.21483195847692
  0
LINE
  5
45
100
AcDbEntity
  8
1
  6
CONTINUOUS
 62
             7
100
AcDbLine
 10
21.96851569796061
 20
-4.42367773368106
 11
22.35912226420771
 21
-4.84995000000006
  0
LINE
  5
44
100
AcDbEntity
  8
1
  6
CONTINUOUS
 62
             7
100
AcDbLine
 10
18.05759825510472
 20
-12.70249453263803
 11
17.43148430203942
 21
-13.27622226631906
  0
LINE
  5
43
100
AcDbEntity
  8
1
  6
CONTINUOUS
 62
             7
100
AcDbLine
 10
18.05759825510472
 20
-12.70249453263803
 11
18.33908659880521
 21
-9.4850680415232
  0
LINE
  5
42
100
AcDbEntity
  8
1
  6
CONTINUOUS
 62
             7
100
AcDbLine
 10
18.19271629662782
 20
-12.84995000000006
 11
17.56660234356252
 21
-13.42367773368108
  0
LINE
  5
41
100
AcDbEntity
  8
1
  6
CONTINUOUS
 62
             7
100
AcDbLine
 10
17.56660234356252
 20
-13.42367773368108
 11
17.95720890980971
 21
-13.84995000000006
  0
LINE
  5
40
100
AcDbEntity
  8
1
  6
CONTINUOUS
 62
             7
100
AcDbLine
 10
20.51975894796601
 20
-12.84995000000006
 11
21.03983097178471
 21
-13.41750902076162
  0
LINE
  5
3F
100
AcDbEntity
  8
1
  6
CONTINUOUS
 62
             7
100
AcDbLine
 10
20.51975894796601
 20
-12.84995000000006
 11
18.19271629662782
 21
-12.84995000000006
  0
LINE
  5
3E
100
AcDbEntity
  8
1
  6
CONTINUOUS
 62
             7
100
AcDbLine
 10
21.1872864391467
 20
-13.2823909792385
 11
20.667214415328
 21
-12.71483195847692
  0
LINE
  5
3D
100
AcDbEntity
  8
1
  6
CONTINUOUS
 62
             7
100
AcDbLine
 10
21.1872864391467
 20
-13.2823909792385
 11
21.65921295600032
 21
-12.84995000000006
  0
LINE
  5
3C
100
AcDbEntity
  8
1
  6
CONTINUOUS
 62
             7
100
AcDbLine
 10
25.0
 20
-39.0
 11
-12.99999999999998
 21
-39.0
  0
LINE
  5
3B
100
AcDbEntity
  8
1
  6
CONTINUOUS
 62
             7
100
AcDbLine
 10
-12.99999999999999
 20
-38.0
 11
25.0
 21
-38.0
  0
LINE
  5
3A
100
AcDbEntity
  8
1
  6
CONTINUOUS
 62
             7
100
AcDbLine
 10
-12.5
 20
-49.0
 11
24.5
 21
-49.0
  0
LINE
  5
39
100
AcDbEntity
  8
1
  6
CONTINUOUS
 62
             7
100
AcDbLine
 10
-15.0
 20
31.19990000000002
 11
-15.0
 21
-46.5
  0
LINE
  5
38
100
AcDbEntity
  8
PV
  6
CONTINUOUS
 62
             7
100
AcDbLine
 10
-12.39999999999998
 20
28.29999999999994
 11
-12.39999999999998
 21
-22.80000000000008
  0
LINE
  5
37
100
AcDbEntity
  8
PV
  6
CONTINUOUS
 62
             7
100
AcDbLine
 10
-11.19999999999999
 20
29.49999999999994
 11
23.20000000000002
 21
29.49999999999994
  0
LINE
  5
36
100
AcDbEntity
  8
PV
  6
CONTINUOUS
 62
             7
100
AcDbLine
 10
-11.19999999999999
 20
-24.00000000000006
 11
23.20000000000002
 21
-24.00000000000006
  0
LINE
  5
35
100
AcDbEntity
  8
PV
  6
CONTINUOUS
 62
             7
100
AcDbLine
 10
24.40000000000001
 20
28.29999999999994
 11
24.40000000000001
 21
-22.80000000000005
  0
LINE
  5
34
100
AcDbEntity
  8
1
  6
CONTINUOUS
 62
             7
100
AcDbLine
 10
4.00000000000001
 20
-31.9
 11
1.00000000000001
 21
-35.47526077778264
  0
LINE
  5
33
100
AcDbEntity
  8
1
  6
CONTINUOUS
 62
             7
100
AcDbLine
 10
1.00000000000001
 20
-35.47526077778264
 11
-2.0
 21
-31.9
  0
LINE
  5
32
100
AcDbEntity
  8
1
  6
CONTINUOUS
 62
             7
100
AcDbLine
 10
-2.0
 20
-31.9
 11
4.00000000000001
 21
-31.9
  0
LINE
  5
31
100
AcDbEntity
  8
1
  6
CONTINUOUS
 62
             7
100
AcDbLine
 10
-5.99999999999999
 20
-34.90000000000001
 11
-11.99999999999999
 21
-34.90000000000001
  0
LINE
  5
30
100
AcDbEntity
  8
1
  6
CONTINUOUS
 62
             7
100
AcDbLine
 10
-9.0
 20
-31.32473922221737
 11
-5.99999999999999
 21
-34.90000000000001
  0
LINE
  5
2F
100
AcDbEntity
  8
1
  6
CONTINUOUS
 62
             7
100
AcDbLine
 10
-11.99999999999999
 20
-34.90000000000001
 11
-9.0
 21
-31.32473922221737
  0
LINE
  5
2E
100
AcDbEntity
  8
1
  6
CONTINUOUS
 62
             7
100
AcDbLine
 10
24.5
 20
33.69990000000001
 11
-12.5
 21
33.69990000000001
  0
LINE
  5
2D
100
AcDbEntity
  8
1
  6
CONTINUOUS
 62
             7
100
AcDbLine
 10
27.00000000000002
 20
-46.5
 11
27.0
 21
31.19990000000001
  0
LINE
  5
2C
100
AcDbEntity
  8
1
  6
CONTINUOUS
 62
             7
100
AcDbLine
 10
-13.5
 20
31.19990000000002
 11
-13.49999999999999
 21
-26.99999999999995
  0
LINE
  5
2B
100
AcDbEntity
  8
1
  6
CONTINUOUS
 62
             7
100
AcDbLine
 10
24.5
 20
32.19990000000002
 11
-12.49999999999999
 21
32.19990000000002
  0
LINE
  5
2A
100
AcDbEntity
  8
1
  6
CONTINUOUS
 62
             7
100
AcDbLine
 10
25.5
 20
-26.99999999999994
 11
25.5
 21
31.19990000000002
  0
LINE
  5
29
100
AcDbEntity
  8
1
  6
CONTINUOUS
 62
             7
100
AcDbLine
 10
-12.5
 20
-27.99999999999994
 11
24.5
 21
-27.99999999999994
  0
ENDSEC
  0
SECTION
  2
OBJECTS
  0
DICTIONARY
  5
19
100
AcDbDictionary
  3
ACAD_GROUP
350
1A
  3
ACAD_MLINESTYLE
350
1B
  0
DICTIONARY
  5
1A
102
{ACAD_REACTORS
330
19
102
}
100
AcDbDictionary
  0
DICTIONARY
  5
1B
102
{ACAD_REACTORS
330
19
102
}
100
AcDbDictionary
  3
STANDARD
350
1C
  0
MLINESTYLE
  5
1C
102
{ACAD_REACTORS
330
1B
102
}
100
AcDbMlineStyle
  2
STANDARD
 70
             0
  3

 62
             0
 51
90.0
 52
90.0
 71
             2
 49
0.5
 62
           256
  6
BYLAYER
 49
-0.5
 62
           256
  6
BYLAYER
  0
ENDSEC
  0
EOF
